  0
SECTION
  2
HEADER
  9
$ACADVER
  1
AC1009
  9
$INSBASE
 10
-25.2381122063270595
 20
17.9189617106846804
 30
0.0
  9
$EXTMIN
 10
-27.5303093947165891
 20
14.7588617106846893
 30
0.0
  9
$EXTMAX
 10
-22.94591501793753
 20
18.5036617106846784
 30
0.0
  9
$LIMMIN
 10
0.0
 20
0.0
  9
$LIMMAX
 10
11.6929133858000007
 20
8.2677165353999982
  9
$ORTHOMODE
 70
     0
  9
$REGENMODE
 70
     1
  9
$FILLMODE
 70
     1
  9
$QTEXTMODE
 70
     0
  9
$MIRRTEXT
 70
     0
  9
$DRAGMODE
 70
     2
  9
$LTSCALE
 40
0.6431102362
  9
$OSMODE
 70
  3839
  9
$ATTMODE
 70
     1
  9
$TEXTSIZE
 40
0.2
  9
$TRACEWID
 40
0.05
  9
$TEXTSTYLE
  7
STANDARD
  9
$CLAYER
  8
0
  9
$CELTYPE
  6
BYLAYER
  9
$CECOLOR
 62
     1
  9
$DIMSCALE
 40
1.0
  9
$DIMASZ
 40
0.1875
  9
$DIMEXO
 40
0.0625
  9
$DIMDLI
 40
0.4443307087
  9
$DIMRND
 40
0.0
  9
$DIMDLE
 40
0.0
  9
$DIMEXE
 40
0.125
  9
$DIMTP
 40
0.01
  9
$DIMTM
 40
0.01
  9
$DIMTXT
 40
1.0
  9
$DIMCEN
 40
0.1052362205
  9
$DIMTSZ
 40
0.0
  9
$DIMTOL
 70
     1
  9
$DIMLIM
 70
     0
  9
$DIMTIH
 70
     1
  9
$DIMTOH
 70
     1
  9
$DIMSE1
 70
     0
  9
$DIMSE2
 70
     0
  9
$DIMTAD
 70
     0
  9
$DIMZIN
 70
     0
  9
$DIMBLK
  1

  9
$DIMASO
 70
     1
  9
$DIMSHO
 70
     1
  9
$DIMPOST
  1
\X
  9
$DIMAPOST
  1

  9
$DIMALT
 70
     1
  9
$DIMALTD
 70
     2
  9
$DIMALTF
 40
25.3999999999999986
  9
$DIMLFAC
 40
1.0
  9
$DIMTOFL
 70
     0
  9
$DIMTVP
 40
0.0
  9
$DIMTIX
 70
     0
  9
$DIMSOXD
 70
     0
  9
$DIMSAH
 70
     0
  9
$DIMBLK1
  1

  9
$DIMBLK2
  1

  9
$DIMSTYLE
  2
STANDARD
  9
$DIMCLRD
 70
     0
  9
$DIMCLRE
 70
     0
  9
$DIMCLRT
 70
     0
  9
$DIMTFAC
 40
1.0
  9
$DIMGAP
 40
0.09
  9
$LUNITS
 70
     2
  9
$LUPREC
 70
     4
  9
$SKETCHINC
 40
0.1
  9
$FILLETRAD
 40
0.0
  9
$AUNITS
 70
     0
  9
$AUPREC
 70
     0
  9
$MENU
  1
.
  9
$ELEVATION
 40
0.0
  9
$PELEVATION
 40
0.0
  9
$THICKNESS
 40
0.0
  9
$LIMCHECK
 70
     0
  9
$BLIPMODE
 70
     0
  9
$CHAMFERA
 40
0.0
  9
$CHAMFERB
 40
0.0
  9
$SKPOLY
 70
     0
  9
$TDCREATE
 40
2457893.7626041672192514
  9
$TDUPDATE
 40
2459099.7688541668467224
  9
$TDINDWG
 40
0.3446222106
  9
$TDUSRTIMER
 40
0.3446222106
  9
$USRTIMER
 70
     1
  9
$ANGBASE
 50
0.0
  9
$ANGDIR
 70
     0
  9
$PDMODE
 70
     0
  9
$PDSIZE
 40
0.3125
  9
$PLINEWID
 40
0.0
  9
$COORDS
 70
     1
  9
$SPLFRAME
 70
     0
  9
$SPLINETYPE
 70
     6
  9
$SPLINESEGS
 70
     8
  9
$ATTDIA
 70
     1
  9
$ATTREQ
 70
     1
  9
$HANDLING
 70
     1
  9
$HANDSEED
  5
A59B
  9
$SURFTAB1
 70
     6
  9
$SURFTAB2
 70
     6
  9
$SURFTYPE
 70
     6
  9
$SURFU
 70
     6
  9
$SURFV
 70
     6
  9
$UCSNAME
  2

  9
$UCSORG
 10
0.0
 20
0.0
 30
0.0
  9
$UCSXDIR
 10
1.0
 20
0.0
 30
0.0
  9
$UCSYDIR
 10
0.0
 20
1.0
 30
0.0
  9
$PUCSNAME
  2

  9
$PUCSORG
 10
0.0
 20
0.0
 30
0.0
  9
$PUCSXDIR
 10
1.0
 20
0.0
 30
0.0
  9
$PUCSYDIR
 10
0.0
 20
1.0
 30
0.0
  9
$USERI1
 70
     0
  9
$USERI2
 70
     0
  9
$USERI3
 70
     0
  9
$USERI4
 70
     0
  9
$USERI5
 70
     0
  9
$USERR1
 40
0.0
  9
$USERR2
 40
0.0
  9
$USERR3
 40
0.0
  9
$USERR4
 40
0.0
  9
$USERR5
 40
0.0
  9
$WORLDVIEW
 70
     1
  9
$SHADEDGE
 70
     3
  9
$SHADEDIF
 70
    70
  9
$TILEMODE
 70
     1
  9
$MAXACTVP
 70
    48
  9
$PLIMCHECK
 70
     0
  9
$PEXTMIN
 10
1.0000000000000000E+20
 20
1.0000000000000000E+20
 30
1.0000000000000000E+20
  9
$PEXTMAX
 10
-1.0000000000000000E+20
 20
-1.0000000000000000E+20
 30
-1.0000000000000000E+20
  9
$PLIMMIN
 10
0.0
 20
0.0
  9
$PLIMMAX
 10
12.0
 20
9.0
  9
$UNITMODE
 70
     0
  9
$VISRETAIN
 70
     1
  9
$PLINEGEN
 70
     0
  9
$PSLTSCALE
 70
     1
  0
ENDSEC
  0
SECTION
  2
TABLES
  0
TABLE
  2
VPORT
 70
     1
  0
VPORT
  2
*ACTIVE
 70
     0
 10
0.0
 20
0.0
 11
1.0
 21
1.0
 12
0.0
 22
0.0
 13
0.0
 23
0.0
 14
1.0
 24
1.0
 15
0.0
 25
0.0
 16
-0.0000000000000071
 26
0.0
 36
24.5625186294113398
 17
-25.2381124496459996
 27
16.6336369514465297
 37
0.0
 40
5.9164726724437218
 41
3.314341846758349
 42
50.0
 43
0.0
 44
0.0
 50
0.0
 51
0.0
 71
     0
 72
   100
 73
     1
 74
     1
 75
     0
 76
     0
 77
     0
 78
     0
  0
ENDTAB
  0
TABLE
  2
LTYPE
 70
     2
  0
LTYPE
  2
CONTINUOUS
 70
     0
  3
Solid line
 72
    65
 73
     0
 40
0.0
  0
LTYPE
  2
PHANTOM2
 70
     0
  3
___ _ _ ___ _ _ ___ _ _ ___ _ _
 72
    65
 73
     6
 40
1.25
 49
0.625
 49
-0.125
 49
0.125
 49
-0.125
 49
0.125
 49
-0.125
  0
ENDTAB
  0
TABLE
  2
LAYER
 70
     2
  0
LAYER
  2
0
 70
     0
 62
     7
  6
CONTINUOUS
  0
LAYER
  2
DEFPOINTS
 70
     0
 62
     7
  6
CONTINUOUS
  0
ENDTAB
  0
TABLE
  2
STYLE
 70
     1
  0
STYLE
  2
STANDARD
 70
     0
 40
0.0
 41
0.8
 50
0.0
 71
     0
 42
0.2
  3
txt
  4

  0
ENDTAB
  0
TABLE
  2
VIEW
 70
     0
  0
ENDTAB
  0
TABLE
  2
UCS
 70
     0
  0
ENDTAB
  0
TABLE
  2
APPID
 70
     9
  0
APPID
  2
ACAD
 70
     0
  0
APPID
  2
ACAD_MLEADERVER
 70
     0
  0
APPID
  2
ACAD_NAV_VCDISPLAY
 70
     0
  0
APPID
  2
ACAD_EXEMPT_FROM_CAD_STANDARDS
 70
     0
  0
APPID
  2
ACAD_DSTYLE_DIMJAG
 70
     0
  0
APPID
  2
ACAD_DSTYLE_DIMTALN
 70
     0
  0
APPID
  2
ACDBATTR
 70
     0
  0
APPID
  2
ACAD_PSEXT
 70
     0
  0
APPID
  2
ACADANNOTATIVE
 70
     0
  0
ENDTAB
  0
TABLE
  2
DIMSTYLE
 70
     3
  0
DIMSTYLE
  2
STANDARD
 70
     0
  3

  4

  5

  6

  7

 40
1.0
 41
0.1875
 42
0.0625
 43
0.38
 44
0.125
 45
0.0
 46
0.0
 47
0.01
 48
0.01
140
0.15625
141
0.09
142
0.0
143
25.3999999999999986
144
1.0
145
0.0
146
1.0
147
0.09
 71
     1
 72
     0
 73
     1
 74
     1
 75
     0
 76
     0
 77
     0
 78
     4
170
     0
171
     2
172
     0
173
     0
174
     0
175
     0
176
     0
177
     0
178
     0
  0
DIMSTYLE
  2
ANNOTATIVE
 70
     0
  3

  4

  5

  6

  7

 40
0.0
 41
2.5
 42
0.625
 43
3.75
 44
1.25
 45
0.0
 46
0.0
 47
0.0
 48
0.0
140
2.5
141
2.5
142
0.0
143
0.03937007874016
144
1.0
145
0.0
146
1.0
147
0.625
 71
     0
 72
     0
 73
     0
 74
     0
 75
     0
 76
     0
 77
     1
 78
     8
170
     0
171
     3
172
     1
173
     0
174
     0
175
     0
176
     0
177
     0
178
     0
  0
DIMSTYLE
  2
ISO-25
 70
     0
  3

  4

  5

  6

  7

 40
1.0
 41
2.5
 42
0.625
 43
3.75
 44
1.25
 45
0.0
 46
0.0
 47
0.0
 48
0.0
140
2.5
141
2.5
142
0.0
143
0.03937007874016
144
1.0
145
0.0
146
1.0
147
0.625
 71
     0
 72
     0
 73
     0
 74
     0
 75
     0
 76
     0
 77
     1
 78
     8
170
     0
171
     3
172
     1
173
     0
174
     0
175
     0
176
     0
177
     0
178
     0
  0
ENDTAB
  0
ENDSEC
  0
SECTION
  2
BLOCKS
  0
BLOCK
  8
0
  2
$MODEL_SPACE
 70
     0
 10
0.0
 20
0.0
 30
0.0
  3
$MODEL_SPACE
  1

  0
ENDBLK
  5
21
  8
0
  0
BLOCK
 67
     1
  8
0
  2
$PAPER_SPACE
 70
     0
 10
0.0
 20
0.0
 30
0.0
  3
$PAPER_SPACE
  1

  0
ENDBLK
  5
1D
 67
     1
  8
0
  0
BLOCK
  8
0
  2
_FILLED
 70
     0
 10
0.0
 20
0.0
 30
0.0
  3
_FILLED
  1

  0
SOLID
  5
1F2C
  8
0
  6
BYBLOCK
 62
     0
 10
0.0
 20
0.0
 30
0.0
 11
-1.0
 21
0.1666666667
 31
0.0
 12
-1.0
 22
-0.1666666667
 32
0.0
 13
-1.0
 23
-0.1666666667
 33
0.0
  0
ENDBLK
  5
1F2D
  8
0
  6
BYBLOCK
 62
     0
  0
ENDSEC
  0
SECTION
  2
ENTITIES
  0
ATTDEF
  5
1B48
  8
DEFPOINTS
 10
-25.2373955421306917
 20
17.9227570492376991
 30
0.0
 40
0.001
  1
K-72421IN
  3

  2
MODELNUMBER
 70
     0
1001
ACDBATTR
1070
     0
1070
     1
  0
ATTDEF
  5
1B49
  8
DEFPOINTS
 10
-25.2373955421306917
 20
17.921090382571041
 30
0.0
 40
0.001
  1
AWAKEN
  3

  2
TRADENAME
 70
     0
1001
ACDBATTR
1070
     0
1070
     1
  0
ATTDEF
  5
1B4A
  8
DEFPOINTS
 10
-25.2373955421306917
 20
17.9194237159043688
 30
0.0
 40
0.001
  1
HANDSHOWER
  3

  2
PRODUCT
 70
     0
1001
ACDBATTR
1070
     0
1070
     1
  0
ARC
  5
A399
  8
0
 10
-24.9226902296137709
 20
17.5688945026212515
 30
0.0
 40
2.7890319381390101
 50
277.1513368699015132
 51
300.1107014288406845
  0
ARC
  5
A39A
  8
0
 10
-24.2184784645781015
 20
16.2438656131453385
 30
0.0
 40
1.2907176840577661
 50
302.5772067049325074
 51
329.4714831006231748
  0
ARC
  5
A39B
  8
0
 10
-24.0275820731139618
 20
16.1564197636794198
 30
0.0
 40
1.0820809220412091
 50
328.3252961265956174
 51
358.4152822154134128
  0
ARC
  5
A39C
  8
0
 10
-23.4709301859595385
 20
16.1149023020480691
 30
0.0
 40
0.5251431353522417
 50
1.2649028120622641
 51
21.0472695892454489
  0
ARC
  5
A39D
  8
0
 10
-24.1312099964678488
 20
15.7045406085821195
 30
0.0
 40
1.296975598196797
 50
27.5041779299200897
 51
61.0979913152322283
  0
ARC
  5
A39E
  8
0
 10
-43.2235930398419228
 20
-14.7913912367658007
 30
0.0
 40
37.2745392997078895
 50
58.0602803312488902
 51
60.0612954404350603
  0
LINE
  5
A39F
  8
0
 10
-24.6208681732270911
 20
17.5092265211424483
 30
0.0
 11
-24.6500742577270913
 21
17.5300397662424494
 31
0.0
  0
ARC
  5
A3A0
  8
0
 10
-24.6211462285581
 20
18.037950679885661
 30
0.0
 40
0.0583543798473838
 50
343.9134281488005058
 51
23.7394186727345087
  0
ARC
  5
A3A1
  8
0
 10
-26.0588185524922302
 20
18.4357240957835806
 30
0.0
 40
1.550036505141777
 50
336.3389006297758783
 51
344.5109872676068221
  0
ARC
  5
A3A2
  8
0
 10
-23.5476240154403911
 20
17.6293446666658085
 30
0.0
 40
1.106913727426885
 50
170.4151784557687961
 51
185.1471145598949875
  0
ARC
  5
A3A3
  8
0
 10
-24.460379401307069
 20
17.1595388071364603
 30
0.0
 40
1.9394176444180431
 50
284.0272428168569832
 51
312.4979884106177224
  0
ARC
  5
A3A4
  8
0
 10
-23.6274886916299884
 20
16.2135006256243202
 30
0.0
 40
0.6796920485459391
 50
314.6074365226568261
 51
342.9927548544308138
  0
ARC
  5
A3A5
  8
0
 10
-23.4303355198979197
 20
16.14379296810041
 30
0.0
 40
0.470857740980337
 50
344.0871652452617013
 51
27.3366111800362184
  0
ARC
  5
A3A6
  8
0
 10
-25.5535341830403517
 20
17.5688945026212515
 30
0.0
 40
2.7890319381390101
 50
239.8892985711590882
 51
262.8486631300984868
  0
ARC
  5
A3A7
  8
0
 10
-26.2577459480760282
 20
16.2438656131453385
 30
0.0
 40
1.2907176840577661
 50
210.5285168993765978
 51
237.4227932950676063
  0
ARC
  5
A3A8
  8
0
 10
-7.2526313728121892
 20
-14.7913912367658007
 30
0.0
 40
37.2745392997078895
 50
119.938704559565096
 51
121.9397196687510956
  0
LINE
  5
A3A9
  8
0
 10
-25.8553562394270315
 20
17.5092265211424483
 30
0.0
 11
-25.8261501549270385
 21
17.5300397662424494
 31
0.0
  0
ARC
  5
A3AA
  8
0
 10
-25.8550781840960191
 20
18.037950679885661
 30
0.0
 40
0.0583543798473838
 50
156.2605813272654984
 51
196.0865718511994089
  0
ARC
  5
A3AB
  8
0
 10
-24.4174058601618995
 20
18.4357240957835806
 30
0.0
 40
1.550036505141777
 50
195.4890127323928084
 51
203.6610993702236954
  0
ARC
  5
A3AC
  8
0
 10
-26.9286003972137316
 20
17.6293446666658085
 30
0.0
 40
1.106913727426885
 50
354.8528854401046146
 51
9.5848215442311471
  0
ARC
  5
A3AD
  8
0
 10
-26.0158450113470501
 20
17.1595388071364603
 30
0.0
 40
1.9394176444180431
 50
227.5020115893823061
 51
255.9727571831429884
  0
ARC
  5
A3AE
  8
0
 10
-26.3450144161862703
 20
15.7045406085821195
 30
0.0
 40
1.296975598196797
 50
118.9020086847677931
 51
152.4958220700798961
  0
ARC
  5
A3AF
  8
0
 10
-27.0458888927561993
 20
16.14379296810041
 30
0.0
 40
0.470857740980337
 50
152.6633888199638136
 51
195.9128347547382134
  0
ARC
  5
A3B0
  8
0
 10
-26.8487357210241306
 20
16.2135006256243202
 30
0.0
 40
0.6796920485459391
 50
197.0072451455687883
 51
225.3925634773432023
  0
ARC
  5
A3B1
  8
0
 10
-25.2381122063270595
 20
19.8412855277061801
 30
0.0
 40
4.7308606114672518
 50
254.7066736712081081
 51
285.2933263287915793
  0
ARC
  5
A3B2
  8
0
 10
-25.2381122063270595
 20
19.9219704964380604
 30
0.0
 40
5.1631087857533666
 50
262.6263588535534268
 51
277.3736411464461753
  0
ARC
  5
A3B3
  8
0
 10
-25.2381122063270595
 20
17.7744181052605903
 30
0.0
 40
0.7292436054240922
 50
23.178214749984221
 51
156.8217852500152958
  0
ARC
  5
A3B5
  8
0
 10
-26.4486423395401609
 20
16.1564197636794198
 30
0.0
 40
1.0820809220412091
 50
181.584717784586104
 51
211.6747038734040984
  0
ARC
  5
A3B6
  8
0
 10
-27.0052942266945806
 20
16.1149023020480691
 30
0.0
 40
0.5251431353522417
 50
158.9527304107544978
 51
178.7350971879376971
  0
ENDSEC
  0
EOF
