  0
SECTION
  2
HEADER
  9
$ACADVER
  1
AC1009
  9
$INSBASE
 10
3531.5472316862010302
 20
159.5847640452311964
 30
0.0
  9
$EXTMIN
 10
3521.7214282451559484
 20
155.4871427607226053
 30
0.0
  9
$EXTMAX
 10
3535.8550715245592073
 20
164.4578389771203888
 30
0.0
  9
$LIMMIN
 10
0.0
 20
0.0
  9
$LIMMAX
 10
11.6929133858000007
 20
8.2677165353999982
  9
$ORTHOMODE
 70
     0
  9
$REGENMODE
 70
     1
  9
$FILLMODE
 70
     1
  9
$QTEXTMODE
 70
     0
  9
$MIRRTEXT
 70
     0
  9
$DRAGMODE
 70
     2
  9
$LTSCALE
 40
0.6431102362
  9
$OSMODE
 70
  4095
  9
$ATTMODE
 70
     1
  9
$TEXTSIZE
 40
0.2
  9
$TRACEWID
 40
0.05
  9
$TEXTSTYLE
  7
STANDARD
  9
$CLAYER
  8
0
  9
$CELTYPE
  6
BYLAYER
  9
$CECOLOR
 62
   256
  9
$DIMSCALE
 40
1.0
  9
$DIMASZ
 40
0.1875
  9
$DIMEXO
 40
0.0625
  9
$DIMDLI
 40
0.4443307087
  9
$DIMRND
 40
0.0
  9
$DIMDLE
 40
0.0
  9
$DIMEXE
 40
0.125
  9
$DIMTP
 40
0.01
  9
$DIMTM
 40
0.01
  9
$DIMTXT
 40
2.0
  9
$DIMCEN
 40
0.1052362205
  9
$DIMTSZ
 40
0.0
  9
$DIMTOL
 70
     1
  9
$DIMLIM
 70
     0
  9
$DIMTIH
 70
     1
  9
$DIMTOH
 70
     1
  9
$DIMSE1
 70
     0
  9
$DIMSE2
 70
     0
  9
$DIMTAD
 70
     0
  9
$DIMZIN
 70
     0
  9
$DIMBLK
  1

  9
$DIMASO
 70
     1
  9
$DIMSHO
 70
     1
  9
$DIMPOST
  1
\X
  9
$DIMAPOST
  1

  9
$DIMALT
 70
     1
  9
$DIMALTD
 70
     2
  9
$DIMALTF
 40
25.3999999999999986
  9
$DIMLFAC
 40
1.0
  9
$DIMTOFL
 70
     0
  9
$DIMTVP
 40
0.0
  9
$DIMTIX
 70
     0
  9
$DIMSOXD
 70
     0
  9
$DIMSAH
 70
     0
  9
$DIMBLK1
  1

  9
$DIMBLK2
  1

  9
$DIMSTYLE
  2
STANDARD
  9
$DIMCLRD
 70
     0
  9
$DIMCLRE
 70
     0
  9
$DIMCLRT
 70
     0
  9
$DIMTFAC
 40
1.0
  9
$DIMGAP
 40
0.09
  9
$LUNITS
 70
     2
  9
$LUPREC
 70
     4
  9
$SKETCHINC
 40
0.1
  9
$FILLETRAD
 40
0.0
  9
$AUNITS
 70
     0
  9
$AUPREC
 70
     0
  9
$MENU
  1
.
  9
$ELEVATION
 40
0.0
  9
$PELEVATION
 40
0.0
  9
$THICKNESS
 40
0.0
  9
$LIMCHECK
 70
     0
  9
$BLIPMODE
 70
     0
  9
$CHAMFERA
 40
0.0
  9
$CHAMFERB
 40
0.0
  9
$SKPOLY
 70
     0
  9
$TDCREATE
 40
2458060.468368056230247
  9
$TDUPDATE
 40
2459908.5590509260073304
  9
$TDINDWG
 40
0.5966390046
  9
$TDUSRTIMER
 40
0.5966390046
  9
$USRTIMER
 70
     1
  9
$ANGBASE
 50
0.0
  9
$ANGDIR
 70
     0
  9
$PDMODE
 70
     0
  9
$PDSIZE
 40
0.3125
  9
$PLINEWID
 40
0.0
  9
$COORDS
 70
     1
  9
$SPLFRAME
 70
     0
  9
$SPLINETYPE
 70
     6
  9
$SPLINESEGS
 70
     8
  9
$ATTDIA
 70
     1
  9
$ATTREQ
 70
     1
  9
$HANDLING
 70
     1
  9
$HANDSEED
  5
18FE9
  9
$SURFTAB1
 70
     6
  9
$SURFTAB2
 70
     6
  9
$SURFTYPE
 70
     6
  9
$SURFU
 70
     6
  9
$SURFV
 70
     6
  9
$UCSNAME
  2

  9
$UCSORG
 10
0.0
 20
0.0
 30
0.0
  9
$UCSXDIR
 10
1.0
 20
0.0
 30
0.0
  9
$UCSYDIR
 10
0.0
 20
1.0
 30
0.0
  9
$PUCSNAME
  2

  9
$PUCSORG
 10
0.0
 20
0.0
 30
0.0
  9
$PUCSXDIR
 10
1.0
 20
0.0
 30
0.0
  9
$PUCSYDIR
 10
0.0
 20
1.0
 30
0.0
  9
$USERI1
 70
     0
  9
$USERI2
 70
     0
  9
$USERI3
 70
     0
  9
$USERI4
 70
     0
  9
$USERI5
 70
     0
  9
$USERR1
 40
0.0
  9
$USERR2
 40
0.0
  9
$USERR3
 40
0.0
  9
$USERR4
 40
0.0
  9
$USERR5
 40
0.0
  9
$WORLDVIEW
 70
     1
  9
$SHADEDGE
 70
     3
  9
$SHADEDIF
 70
    70
  9
$TILEMODE
 70
     1
  9
$MAXACTVP
 70
    64
  9
$PLIMCHECK
 70
     0
  9
$PEXTMIN
 10
1.0000000000000000E+20
 20
1.0000000000000000E+20
 30
1.0000000000000000E+20
  9
$PEXTMAX
 10
-1.0000000000000000E+20
 20
-1.0000000000000000E+20
 30
-1.0000000000000000E+20
  9
$PLIMMIN
 10
0.0
 20
0.0
  9
$PLIMMAX
 10
12.0
 20
9.0
  9
$UNITMODE
 70
     0
  9
$VISRETAIN
 70
     1
  9
$PLINEGEN
 70
     0
  9
$PSLTSCALE
 70
     1
  0
ENDSEC
  0
SECTION
  2
TABLES
  0
TABLE
  2
VPORT
 70
     1
  0
VPORT
  2
*ACTIVE
 70
     0
 10
0.0
 20
0.0
 11
1.0
 21
1.0
 12
26.563771694628489
 22
2.2922125530129271
 13
0.0
 23
0.0
 14
1.0
 24
1.0
 15
0.0
 25
0.0
 16
0.0
 26
0.0
 36
0.0433829766133159
 17
3504.98869001841922
 27
157.2960252254864031
 37
0.0
 40
0.0227292124332956
 41
2.5251322751322749
 42
50.0
 43
0.0
 44
0.0
 50
0.0
 51
0.0
 71
     0
 72
   100
 73
     1
 74
     1
 75
     0
 76
     0
 77
     0
 78
     0
  0
ENDTAB
  0
TABLE
  2
LTYPE
 70
     2
  0
LTYPE
  2
CONTINUOUS
 70
     0
  3
Solid line
 72
    65
 73
     0
 40
0.0
  0
LTYPE
  2
PHANTOM2
 70
     0
  3
___ _ _ ___ _ _ ___ _ _ ___ _ _
 72
    65
 73
     6
 40
1.25
 49
0.625
 49
-0.125
 49
0.125
 49
-0.125
 49
0.125
 49
-0.125
  0
ENDTAB
  0
TABLE
  2
LAYER
 70
     2
  0
LAYER
  2
0
 70
     0
 62
   255
  6
CONTINUOUS
  0
LAYER
  2
DEFPOINTS
 70
     0
 62
     7
  6
CONTINUOUS
  0
ENDTAB
  0
TABLE
  2
STYLE
 70
     1
  0
STYLE
  2
STANDARD
 70
     0
 40
0.0
 41
0.8
 50
0.0
 71
     0
 42
0.2
  3
txt
  4

  0
ENDTAB
  0
TABLE
  2
VIEW
 70
     0
  0
ENDTAB
  0
TABLE
  2
UCS
 70
     0
  0
ENDTAB
  0
TABLE
  2
APPID
 70
     9
  0
APPID
  2
ACAD
 70
     0
  0
APPID
  2
ACAD_MLEADERVER
 70
     0
  0
APPID
  2
ACAD_EXEMPT_FROM_CAD_STANDARDS
 70
     0
  0
APPID
  2
ACAD_NAV_VCDISPLAY
 70
     0
  0
APPID
  2
ACAECLAYERSTANDARD
 70
     0
  0
APPID
  2
ACCMTRANSPARENCY
 70
     0
  0
APPID
  2
ACAD_DSTYLE_DIMJAG
 70
     0
  0
APPID
  2
ACAD_DSTYLE_DIMTALN
 70
     0
  0
APPID
  2
ACDBATTR
 70
     0
  0
ENDTAB
  0
TABLE
  2
DIMSTYLE
 70
     1
  0
DIMSTYLE
  2
STANDARD
 70
     0
  3

  4

  5

  6

  7

 40
1.0
 41
0.1875
 42
0.0625
 43
0.38
 44
0.125
 45
0.0
 46
0.0
 47
0.01
 48
0.01
140
0.15625
141
0.09
142
0.0
143
25.3999999999999986
144
1.0
145
0.0
146
1.0
147
0.09
 71
     1
 72
     0
 73
     1
 74
     1
 75
     0
 76
     0
 77
     0
 78
     4
170
     0
171
     2
172
     0
173
     0
174
     0
175
     0
176
     0
177
     0
178
     0
  0
ENDTAB
  0
ENDSEC
  0
SECTION
  2
BLOCKS
  0
BLOCK
  8
0
  2
$MODEL_SPACE
 70
     0
 10
0.0
 20
0.0
 30
0.0
  3
$MODEL_SPACE
  1

  0
ENDBLK
  5
21
  8
0
  0
BLOCK
 67
     1
  8
0
  2
$PAPER_SPACE
 70
     0
 10
0.0
 20
0.0
 30
0.0
  3
$PAPER_SPACE
  1

  0
ENDBLK
  5
1D
 67
     1
  8
0
  0
BLOCK
  8
0
  2
_FILLED
 70
     0
 10
0.0
 20
0.0
 30
0.0
  3
_FILLED
  1

  0
SOLID
  5
13356
  8
0
  6
BYBLOCK
 62
     0
 10
0.0
 20
0.0
 30
0.0
 11
-1.0
 21
0.1666666667
 31
0.0
 12
-1.0
 22
-0.1666666667
 32
0.0
 13
-1.0
 23
-0.1666666667
 33
0.0
  0
ENDBLK
  5
13357
  8
0
  6
BYBLOCK
 62
     0
  0
BLOCK
  8
0
  2
A$CC617BBDC
 70
     0
 10
0.0
 20
0.0
 30
0.0
  3
A$CC617BBDC
  1

  0
ARC
  5
183F4
  8
0
 10
22.0698720515218589
 20
12.5129006701370304
 30
0.0
 40
0.5731888611060763
 50
90.0
 51
120.3287384885429958
  0
ARC
  5
183F5
  8
0
 10
21.9510380985908711
 20
12.7160266492020195
 30
0.0
 40
0.3378557530649131
 50
120.3287384885429958
 51
155.5454263261912047
  0
LINE
  5
183F6
  8
0
 10
21.6434914629067698
 20
12.8558893560200094
 30
0.0
 11
21.6434914629067698
 21
12.6810879634988005
 31
0.0
  0
ARC
  5
183F7
  8
0
 10
22.0699061587732217
 20
12.2048447269320608
 30
0.0
 40
0.5756225824160102
 50
89.4354245850260838
 51
120.8337576703298026
  0
ARC
  5
183F8
  8
0
 10
22.0936835610381692
 20
9.7862513690365063
 30
0.0
 40
2.9303289073447871
 50
90.3540129219429673
 51
96.2443304010981251
  0
ARC
  5
183F9
  8
0
 10
22.0337689470786984
 20
10.3338459565361802
 30
0.0
 40
2.3794666532442612
 50
96.2431132936419544
 51
114.0710088801225055
  0
ARC
  5
183FA
  8
0
 10
21.7861485934335199
 20
10.8881605001446893
 30
0.0
 40
1.7723583821794779
 50
114.0710088801227045
 51
140.7481648925117952
  0
ARC
  5
183FB
  8
0
 10
21.2023191411661784
 20
11.3652003531218302
 30
0.0
 40
1.0184194916430951
 50
140.7481648925117952
 51
193.2819030756232905
  0
ARC
  5
183FC
  8
0
 10
21.6789689870707001
 20
11.4777166508791897
 30
0.0
 40
1.508169420547457
 50
193.2819030756232905
 51
229.2786418216539062
  0
ARC
  5
183FD
  8
0
 10
22.0224273355729991
 20
11.8767228643639395
 30
0.0
 40
2.0346384087655349
 50
229.2786418216539062
 51
247.3617618748866107
  0
ARC
  5
183FE
  8
0
 10
22.0597902888516089
 20
12.0949250999431595
 30
0.0
 40
2.2509547884587562
 50
248.6219441711145919
 51
268.272375508227185
  0
ARC
  5
183FF
  8
0
 10
22.0727025984862095
 20
9.9028402784482363
 30
0.0
 40
2.3479550943490231
 50
89.932375730159805
 51
104.164308293444293
  0
ARC
  5
18400
  8
0
 10
21.9736594453431593
 20
10.2952793467091492
 30
0.0
 40
1.943210769520205
 50
104.164283147871302
 51
127.2339836819680983
  0
ARC
  5
18401
  8
0
 10
21.477782415632479
 20
10.9477692228975503
 30
0.0
 40
1.123676104528518
 50
127.2339836819682972
 51
160.1904493717021012
  0
ARC
  5
18402
  8
0
 10
21.2022657018063505
 20
11.0470132251166806
 30
0.0
 40
0.8308300159870775
 50
160.1904493717021012
 51
200.2317644557703034
  0
ARC
  5
18403
  8
0
 10
21.4613466854254291
 20
11.1424995767044006
 30
0.0
 40
1.1069470191081561
 50
200.2317644557701897
 51
223.3234803674540956
  0
ARC
  5
18404
  8
0
 10
22.0116539042301405
 20
11.6615088207663007
 30
0.0
 40
1.8633917497331189
 50
223.3234803674540956
 51
227.7949195772538076
  0
ARC
  5
18405
  8
0
 10
22.0731899780304808
 20
9.9366186032329384
 30
0.0
 40
2.2636275323175341
 50
89.9395535447191463
 51
107.3618449206967966
  0
ARC
  5
18406
  8
0
 10
21.9298586289865405
 20
10.3950591252289399
 30
0.0
 40
1.783303071326084
 50
107.3618449210653978
 51
126.8322379128511983
  0
ARC
  5
18407
  8
0
 10
21.5637267863521416
 20
10.8839039836898301
 30
0.0
 40
1.172547947045905
 50
126.8322379128511983
 51
154.5550808306556121
  0
ARC
  5
18408
  8
0
 10
21.2308642973596697
 20
11.0422786313673402
 30
0.0
 40
0.8039289491561525
 50
154.5550808306556121
 51
184.8499395204096061
  0
ARC
  5
18409
  8
0
 10
21.3477396055945405
 20
11.0521955206400193
 30
0.0
 40
0.9212242276964415
 50
184.8499395204096061
 51
212.0827592275034874
  0
ARC
  5
1840A
  8
0
 10
21.566451327271281
 20
11.1893014328189206
 30
0.0
 40
1.1793576202538809
 50
212.0827592275034874
 51
230.1756365733328096
  0
ARC
  5
1840B
  8
0
 10
21.8542274854799103
 20
11.5344026086042906
 30
0.0
 40
1.6287015183561659
 50
230.1756365733328096
 51
241.8408778334492126
  0
ARC
  5
1840C
  8
0
 10
22.0096938403088203
 20
11.8600958235542908
 30
0.0
 40
1.9892833447914
 50
242.320046923250402
 51
259.3920584183085225
  0
ARC
  5
1840D
  8
0
 10
22.279032459078131
 20
13.3708756305784409
 30
0.0
 40
3.5238509875362012
 50
259.609613821281016
 51
264.9333581651370082
  0
LINE
  5
1840E
  8
0
 10
22.056448042078209
 20
10.5177532243803604
 30
0.0
 11
22.0596799230658789
 21
10.5155893613328608
 31
0.0
  0
LINE
  5
1840F
  8
0
 10
22.00258871142427
 20
10.6415821115399094
 30
0.0
 11
22.0039041041751915
 21
10.5883871448792206
 31
0.0
  0
LINE
  5
18410
  8
0
 10
22.127427131495871
 20
10.6422500798853594
 30
0.0
 11
22.1261001127638117
 21
10.5885082836025095
 31
0.0
  0
LINE
  5
18411
  8
0
 10
22.0703201361658188
 20
10.51558953903786
 30
0.0
 11
22.0735723699857687
 21
10.5177674174328608
 31
0.0
  0
ARC
  5
18412
  8
0
 10
22.0650019659709216
 20
10.5237433798056195
 30
0.0
 40
0.009737153482396
 50
236.8679339661298116
 51
303.2251348047518036
  0
ARC
  5
18413
  8
0
 10
22.0714885951332214
 20
10.6399977306378606
 30
0.0
 40
0.08205261009
 50
214.3748933886934935
 51
214.3832091446672905
  0
ARC
  5
18414
  8
0
 10
22.5379732437259115
 20
11.9813436085486291
 30
0.0
 40
0.0814285851948779
 50
70.5804841495874484
 51
121.2122493438156994
  0
ARC
  5
18415
  8
0
 10
22.5462338706536798
 20
12.0047754524195796
 30
0.0
 40
0.0565832785065955
 50
23.3184188351231185
 51
70.5804841495874484
  0
ARC
  5
18416
  8
0
 10
22.5635764413468998
 20
12.0146863139168598
 30
0.0
 40
0.0368021567006866
 50
347.0645761035730743
 51
19.834452578999791
  0
ARC
  5
18417
  8
0
 10
22.5495702819628008
 20
12.0167940837309395
 30
0.0
 40
0.0509361844305115
 50
310.5199909710810857
 51
348.2806754371817988
  0
ARC
  5
18418
  8
0
 10
22.5344034438001408
 20
12.0367805205648501
 30
0.0
 40
0.0759975046978977
 50
244.0280714328542047
 51
309.4222683826321258
  0
ARC
  5
18419
  8
0
 10
22.5221868940451486
 20
12.0144501664789498
 30
0.0
 40
0.0505866405458331
 50
191.379766618867194
 51
245.3914705773422895
  0
ARC
  5
1841A
  8
0
 10
22.5188012230622192
 20
12.0104766915805907
 30
0.0
 40
0.0465954191423054
 50
119.6136442985445001
 51
187.408120422573603
  0
ARC
  5
1841B
  8
0
 10
22.5363530572006283
 20
12.00094389034461
 30
0.0
 40
0.0160721939856908
 50
47.3685653187782734
 51
130.0068377512560005
  0
ARC
  5
1841C
  8
0
 10
22.54075631860551
 20
12.0065640013079804
 30
0.0
 40
0.0089730138911748
 50
307.6910559876441766
 51
43.7469734452060024
  0
ARC
  5
1841D
  8
0
 10
22.5360609650358406
 20
12.0112938024536504
 30
0.0
 40
0.015608301111903
 50
217.5566680041092127
 51
310.7161625368797786
  0
ARC
  5
1841E
  8
0
 10
22.5315970826128797
 20
12.0061462256967602
 30
0.0
 40
0.0090347874771952
 50
128.1138125500488911
 51
208.900317861278296
  0
ARC
  5
1841F
  8
0
 10
22.5311422726013504
 20
12.0272354010118505
 30
0.0
 40
0.0727541913364428
 50
111.9482084723003936
 51
146.4871328831416974
  0
ARC
  5
18420
  8
0
 10
22.5394239951064002
 20
12.01160841808219
 30
0.0
 40
0.0903627565946906
 50
82.3637631046186414
 51
113.1153534699858056
  0
ARC
  5
18421
  8
0
 10
22.5442272159097712
 20
12.0326411606491099
 30
0.0
 40
0.0689063154543858
 50
33.5744164437386132
 51
83.9984902711673556
  0
ARC
  5
18422
  8
0
 10
22.5658871271226609
 20
12.0472578939971005
 30
0.0
 40
0.0427770920595609
 50
323.8722905298068895
 51
33.3067447813468789
  0
ARC
  5
18423
  8
0
 10
22.5048792659714394
 20
12.0453945939164502
 30
0.0
 40
0.0408359832320164
 50
147.3851346516636909
 51
215.9900325204241938
  0
LINE
  5
18424
  8
0
 10
22.60031192002171
 20
12.0169006635636908
 30
0.0
 11
22.6016377706231388
 21
12.0707477023053595
 31
0.0
  0
LINE
  5
18425
  8
0
 10
22.4722063795355105
 20
12.0107082984826707
 30
0.0
 11
22.470556863340601
 21
12.0675166688879294
 31
0.0
  0
ARC
  5
18426
  8
0
 10
22.876223250292341
 20
11.7283204701177706
 30
0.0
 40
0.0814285851948779
 50
70.5804841495874484
 51
121.2122493438156994
  0
ARC
  5
18427
  8
0
 10
22.8844838772200987
 20
11.7517523139887103
 30
0.0
 40
0.0565832785065955
 50
23.3184188351231185
 51
70.5804841495874484
  0
ARC
  5
18428
  8
0
 10
22.9018264479129492
 20
11.7616631754859906
 30
0.0
 40
0.0368021567006866
 50
347.0645761035730743
 51
19.834452578999791
  0
ARC
  5
18429
  8
0
 10
22.8878202885288502
 20
11.7637709453000596
 30
0.0
 40
0.0509361844305115
 50
310.5199909710810857
 51
348.2806754371817988
  0
ARC
  5
1842A
  8
0
 10
22.8726534503661796
 20
11.7837573821339792
 30
0.0
 40
0.0759975046978977
 50
244.0280714328542047
 51
309.4222683826321258
  0
ARC
  5
1842B
  8
0
 10
22.8604369006115711
 20
11.7614270280480699
 30
0.0
 40
0.0505866405458331
 50
191.379766618867194
 51
245.3914705773422895
  0
ARC
  5
1842C
  8
0
 10
22.8570512296286417
 20
11.7574535531497197
 30
0.0
 40
0.0465954191423054
 50
119.6136442985445001
 51
187.408120422573603
  0
ARC
  5
1842D
  8
0
 10
22.8746030637670508
 20
11.7479207519137407
 30
0.0
 40
0.0160721939856908
 50
47.3685653187782734
 51
130.0068377512560005
  0
ARC
  5
1842E
  8
0
 10
22.8790063251719289
 20
11.7535408628771094
 30
0.0
 40
0.0089730138911748
 50
307.6910559876441766
 51
43.7469734452060024
  0
ARC
  5
1842F
  8
0
 10
22.8743109716022595
 20
11.7582706640227794
 30
0.0
 40
0.015608301111903
 50
217.5566680041092127
 51
310.7161625368797786
  0
ARC
  5
18430
  8
0
 10
22.8698470891792986
 20
11.7531230872658892
 30
0.0
 40
0.0090347874771952
 50
128.1138125500488911
 51
208.900317861278296
  0
ARC
  5
18431
  8
0
 10
22.8712380454949091
 20
11.7721796487778398
 30
0.0
 40
0.0734279109226896
 50
112.6559204470304962
 51
144.6523905877099025
  0
ARC
  5
18432
  8
0
 10
22.8796909812628186
 20
11.7554003690735005
 30
0.0
 40
0.0921781530616727
 50
83.8535759345628833
 51
113.4872137266201975
  0
ARC
  5
18433
  8
0
 10
22.8856381735476511
 20
11.7824679720053709
 30
0.0
 40
0.0646996658841093
 50
33.0196720803185499
 51
86.5244204754865791
  0
ARC
  5
18434
  8
0
 10
22.9041371336887103
 20
11.7942347555662295
 30
0.0
 40
0.0427770920595609
 50
323.8722905298068895
 51
33.3067447813468789
  0
ARC
  5
18435
  8
0
 10
22.8468637449889584
 20
11.7877645908392008
 30
0.0
 40
0.0445520661492122
 50
142.8652357845342067
 51
214.8973001220921049
  0
LINE
  5
18436
  8
0
 10
22.9385619265877487
 20
11.7638775251328198
 30
0.0
 11
22.9398877771895613
 21
11.8177245638744903
 31
0.0
  0
LINE
  5
18437
  8
0
 10
22.8104563861015599
 20
11.7576851600517998
 30
0.0
 11
22.8089056974419506
 21
11.8110899681046906
 31
0.0
  0
ARC
  5
18438
  8
0
 10
22.4223229060131217
 20
11.7175848022383597
 30
0.0
 40
0.0153840837052413
 50
58.6945064555267706
 51
138.8983041090214954
  0
ARC
  5
18439
  8
0
 10
22.4255664883484016
 20
11.72291840590335
 30
0.0
 40
0.0091416359143461
 50
358.2772107486918003
 51
58.6945064555265432
  0
ARC
  5
1843A
  8
0
 10
22.4244488169889102
 20
11.7245790162782804
 30
0.0
 40
0.0104362136290162
 50
287.9061288215738159
 51
349.3123679062550195
  0
ARC
  5
1843B
  8
0
 10
22.4217744495540501
 20
11.7292030897591602
 30
0.0
 40
0.0156987869764311
 50
235.7864235224558911
 51
292.0086599181806832
  0
ARC
  5
1843C
  8
0
 10
22.4176068905898589
 20
11.7230738375592907
 30
0.0
 40
0.0082868857189146
 50
146.0795586481800115
 51
235.7864235224558911
  0
ARC
  5
1843D
  8
0
 10
22.4225915508551417
 20
11.7065804773069502
 30
0.0
 40
0.0575127863930342
 50
59.485006920573781
 51
121.687479556830894
  0
ARC
  5
1843E
  8
0
 10
22.4367131211185082
 20
11.72931937700125
 30
0.0
 40
0.0307591285550357
 50
3.064952186840912
 51
60.6393973267717783
  0
ARC
  5
1843F
  8
0
 10
22.43375774935582
 20
11.7313035619927195
 30
0.0
 40
0.0336722134492841
 50
310.4104299138593888
 51
359.4222104492994845
  0
ARC
  5
18440
  8
0
 10
22.4227008695328784
 20
11.7432424436074001
 30
0.0
 40
0.0499350597163345
 50
275.8945342144061215
 51
311.1900602522327972
  0
ARC
  5
18441
  8
0
 10
22.4209544144496711
 20
11.74542290172311
 30
0.0
 40
0.0523052415904863
 50
236.5919289212683054
 51
277.5524445858412719
  0
ARC
  5
18442
  8
0
 10
22.410136379400651
 20
11.7302267210086093
 30
0.0
 40
0.0336700686953934
 50
182.4936920146201089
 51
237.72120926334091
  0
ARC
  5
18443
  8
0
 10
22.4081570950448814
 20
11.7280626028020603
 30
0.0
 40
0.0316666184850566
 50
119.8807340084003954
 51
178.734888007080599
  0
ARC
  5
18444
  8
0
 10
22.4245911991331113
 20
11.7451803871984204
 30
0.0
 40
0.0595209512502818
 50
53.7625856869309686
 51
113.2148652033122005
  0
ARC
  5
18445
  8
0
 10
22.4365125468558517
 20
11.7614465456864803
 30
0.0
 40
0.0393539870888603
 50
359.6177019432141151
 51
53.7625856869309686
  0
ARC
  5
18446
  8
0
 10
22.4407667379903017
 20
11.7614181597712602
 30
0.0
 40
0.0350997012536916
 50
319.9168961604293031
 51
359.6177019432149109
  0
ARC
  5
18447
  8
0
 10
22.4208675759764517
 20
11.7481864025176996
 30
0.0
 40
0.055335788349246
 50
110.8977706786364053
 51
145.5541139820780927
  0
ARC
  5
18448
  8
0
 10
22.4056573470300009
 20
11.7586189657546001
 30
0.0
 40
0.0368915632287984
 50
145.5541139821146999
 51
193.0961575131190955
  0
ARC
  5
18449
  8
0
 10
22.4012769023401717
 20
11.7575999140177903
 30
0.0
 40
0.0323941459564176
 50
193.0961575131204029
 51
219.5351835996791863
  0
LINE
  5
1844A
  8
0
 10
22.4687370123593411
 20
11.7840368117940102
 30
0.0
 11
22.4674282506935796
 21
11.7309640060351708
 31
0.0
  0
LINE
  5
1844B
  8
0
 10
22.3752343219780911
 20
11.7794858530203594
 30
0.0
 11
22.3764981956607087
 21
11.7287617566303606
 31
0.0
  0
ARC
  5
1844C
  8
0
 10
22.2771016987439303
 20
11.3580252026350692
 30
0.0
 40
0.0592961474366655
 50
58.6768155735088399
 51
116.1696461636176991
  0
ARC
  5
1844D
  8
0
 10
22.2928978722857494
 20
11.3831456557708499
 30
0.0
 40
0.0296283499728172
 50
4.7763950848636121
 51
59.517317564089609
  0
ARC
  5
1844E
  8
0
 10
22.29119935177415
 20
11.3850409432977795
 30
0.0
 40
0.0312292135216509
 50
315.1421446620764755
 51
1.0491043644831151
  0
ARC
  5
1844F
  8
0
 10
22.2781346211875508
 20
11.3989247143650907
 30
0.0
 40
0.0502870881294772
 50
272.3116399141946999
 51
314.4283977400269237
  0
ARC
  5
18450
  8
0
 10
22.27532483643731
 20
11.39763388592886
 30
0.0
 40
0.0491938236022433
 50
219.9115745696225872
 51
275.6440364548408866
  0
ARC
  5
18451
  8
0
 10
22.2610543229454088
 20
11.3841438580080094
 30
0.0
 40
0.0296165378261604
 50
174.2697359700111122
 51
217.6062709994193085
  0
ARC
  5
18452
  8
0
 10
22.2643595792791409
 20
11.3806501234416793
 30
0.0
 40
0.0334026173727088
 50
113.6684932934354038
 51
168.8649153399894089
  0
ARC
  5
18453
  8
0
 10
22.2769321134889893
 20
11.3706495205073495
 30
0.0
 40
0.0161965119161254
 50
51.5363573575321396
 51
120.2295384275232948
  0
ARC
  5
18454
  8
0
 10
22.2822807989440186
 20
11.3775901523175005
 30
0.0
 40
0.007436119940705
 50
310.1242686730612945
 51
50.5411183067042913
  0
ARC
  5
18455
  8
0
 10
22.27679913142331
 20
11.3840467629909092
 30
0.0
 40
0.0159058343624177
 50
256.1144527292303223
 51
310.2345021617517205
  0
ARC
  5
18456
  8
0
 10
22.2746735384619612
 20
11.3794204716132707
 30
0.0
 40
0.0109462157055779
 50
199.0623523780834034
 51
261.1103502507536973
  0
ARC
  5
18457
  8
0
 10
22.2725058771429403
 20
11.3772333135884693
 30
0.0
 40
0.0082952258727516
 50
116.7073083259265047
 51
189.6312302127952876
  0
ARC
  5
18458
  8
0
 10
22.2551570927940183
 20
11.4134341562115296
 30
0.0
 40
0.0315454635445796
 50
154.6298243481303984
 51
221.1910677662102955
  0
ARC
  5
18459
  8
0
 10
22.2708808265152491
 20
11.4048645176620393
 30
0.0
 40
0.0494348041205298
 50
112.3055015673942023
 51
153.4636545722842129
  0
ARC
  5
1845A
  8
0
 10
22.2789167395803602
 20
11.3898839438702097
 30
0.0
 40
0.0663674662265247
 50
69.348318325001145
 51
113.8154438428485946
  0
ARC
  5
1845B
  8
0
 10
22.2853886928937115
 20
11.4067386768849293
 30
0.0
 40
0.0483133509000514
 50
37.5917838715411889
 51
69.4807281046459053
  0
ARC
  5
1845C
  8
0
 10
22.296315159963811
 20
11.4152551306575791
 30
0.0
 40
0.0344602622068042
 50
356.2319152529364032
 51
37.4541924331649909
  0
ARC
  5
1845D
  8
0
 10
22.2959792681523297
 20
11.4160026497371305
 30
0.0
 40
0.0348520706923801
 50
319.8495164894794129
 51
355.0418761839430886
  0
LINE
  5
1845E
  8
0
 10
22.3236710871776083
 20
11.4362113449538398
 30
0.0
 11
22.3224233303650905
 21
11.3856127283398507
 31
0.0
  0
LINE
  5
1845F
  8
0
 10
22.2302062393404896
 20
11.4329603859808309
 30
0.0
 11
22.2315857798541394
 21
11.3871009310347802
 31
0.0
  0
ARC
  5
18460
  8
0
 10
22.5981358517538418
 20
11.4411307495703092
 30
0.0
 40
0.0153840837052413
 50
58.6945064555267706
 51
138.8983041090214954
  0
ARC
  5
18461
  8
0
 10
22.6013794340891216
 20
11.4464643532352994
 30
0.0
 40
0.0091416359143461
 50
358.2772107486918003
 51
58.6945064555265432
  0
ARC
  5
18462
  8
0
 10
22.6002617627296409
 20
11.4481249636102298
 30
0.0
 40
0.0104362136290162
 50
287.9061288215738159
 51
349.3123679062550195
  0
ARC
  5
18463
  8
0
 10
22.5975873952947701
 20
11.4527490370911096
 30
0.0
 40
0.0156987869764311
 50
235.7864235224558911
 51
292.0086599181806832
  0
ARC
  5
18464
  8
0
 10
22.5934198363305789
 20
11.4466197848912401
 30
0.0
 40
0.0082868857189146
 50
146.0795586481800115
 51
235.7864235224558911
  0
ARC
  5
18465
  8
0
 10
22.5984044965958688
 20
11.4301264246388996
 30
0.0
 40
0.0575127863930342
 50
59.485006920573781
 51
121.687479556830894
  0
ARC
  5
18466
  8
0
 10
22.6125260668592283
 20
11.4528653243331995
 30
0.0
 40
0.0307591285550357
 50
3.064952186840912
 51
60.6393973267717783
  0
ARC
  5
18467
  8
0
 10
22.6095706950965507
 20
11.4548495093246707
 30
0.0
 40
0.0336722134492841
 50
310.4104299138593888
 51
359.4222104492994845
  0
ARC
  5
18468
  8
0
 10
22.5985138152732183
 20
11.4667883909393495
 30
0.0
 40
0.0499350597163345
 50
275.8945342144061215
 51
311.1900602522327972
  0
ARC
  5
18469
  8
0
 10
22.5967673601900216
 20
11.4689688490550701
 30
0.0
 40
0.0523052415904863
 50
236.5919289212683054
 51
277.5524445858412719
  0
ARC
  5
1846A
  8
0
 10
22.585949325141371
 20
11.4537726683405605
 30
0.0
 40
0.0336700686953934
 50
182.4936920146201089
 51
237.72120926334091
  0
ARC
  5
1846B
  8
0
 10
22.5839700407852213
 20
11.4516085501340097
 30
0.0
 40
0.0316666184850566
 50
119.8807340084003954
 51
178.734888007080599
  0
ARC
  5
1846C
  8
0
 10
22.6004041448738384
 20
11.4687263345303698
 30
0.0
 40
0.0595209512502818
 50
53.7625856869309686
 51
113.2148652033122005
  0
ARC
  5
1846D
  8
0
 10
22.6123254925965718
 20
11.4849924930184297
 30
0.0
 40
0.0393539870888603
 50
359.6177019432141151
 51
53.7625856869309686
  0
ARC
  5
1846E
  8
0
 10
22.6165796837310182
 20
11.4849641071032096
 30
0.0
 40
0.0350997012536916
 50
319.9168961604293031
 51
359.6177019432149109
  0
ARC
  5
1846F
  8
0
 10
22.5966805217171789
 20
11.4717323498496508
 30
0.0
 40
0.055335788349246
 50
110.8977706786364053
 51
145.5541139820780927
  0
ARC
  5
18470
  8
0
 10
22.5814702927707209
 20
11.4821649130865495
 30
0.0
 40
0.0368915632287984
 50
145.5541139821146999
 51
193.0961575131190955
  0
ARC
  5
18471
  8
0
 10
22.5770898480808917
 20
11.4811458613497397
 30
0.0
 40
0.0323941459564176
 50
193.0961575131204029
 51
219.5351835996791863
  0
LINE
  5
18472
  8
0
 10
22.6445499581000611
 20
11.5075827591259596
 30
0.0
 11
22.6432411964342997
 21
11.4545099533671202
 31
0.0
  0
LINE
  5
18473
  8
0
 10
22.5510472677188112
 20
11.5030318003523107
 30
0.0
 11
22.5523111414014394
 21
11.45230770396231
 31
0.0
  0
ARC
  5
18474
  8
0
 10
22.9999307139148286
 20
11.4216907484722601
 30
0.0
 40
0.0153840837052413
 50
58.6945064555267706
 51
138.8983041090214954
  0
ARC
  5
18475
  8
0
 10
23.0031742962504886
 20
11.4270243521372503
 30
0.0
 40
0.0091416359143461
 50
358.2772107486918003
 51
58.6945064555265432
  0
ARC
  5
18476
  8
0
 10
23.0020566248906206
 20
11.42868496251217
 30
0.0
 40
0.0104362136290162
 50
287.9061288215738159
 51
349.3123679062550195
  0
ARC
  5
18477
  8
0
 10
22.9993822574557605
 20
11.4333090359930498
 30
0.0
 40
0.0156987869764311
 50
235.7864235224558911
 51
292.0086599181806832
  0
ARC
  5
18478
  8
0
 10
22.9952146984915693
 20
11.4271797837931892
 30
0.0
 40
0.0082868857189146
 50
146.0795586481800115
 51
235.7864235224558911
  0
ARC
  5
18479
  8
0
 10
23.0019822814565202
 20
11.4055338731957097
 30
0.0
 40
0.061187437405535
 50
63.376164335828939
 51
120.5562457154345992
  0
ARC
  5
1847A
  8
0
 10
23.0143209290202186
 20
11.4334253232351504
 30
0.0
 40
0.0307591285550357
 50
3.064952186840912
 51
60.6393973267717783
  0
ARC
  5
1847B
  8
0
 10
23.0113655572575304
 20
11.4354095082266092
 30
0.0
 40
0.0336722134492841
 50
310.4104299138593888
 51
359.4222104492994845
  0
ARC
  5
1847C
  8
0
 10
23.0003086774345888
 20
11.4473483898413004
 30
0.0
 40
0.0499350597163345
 50
275.8945342144061215
 51
311.1900602522327972
  0
ARC
  5
1847D
  8
0
 10
22.9985622223513815
 20
11.4495288479570103
 30
0.0
 40
0.0523052415904863
 50
236.5919289212683054
 51
277.5524445858412719
  0
ARC
  5
1847E
  8
0
 10
22.9877441873023614
 20
11.4343326672425007
 30
0.0
 40
0.0336700686953934
 50
182.4936920146201089
 51
237.72120926334091
  0
ARC
  5
1847F
  8
0
 10
22.9869876648690017
 20
11.4293449438468109
 30
0.0
 40
0.0330698273561249
 50
119.1576536866243998
 51
173.8849721127236876
  0
ARC
  5
18480
  8
0
 10
23.0057721089178386
 20
11.44039448588852
 30
0.0
 40
0.0650914677957835
 50
60.9449377668914991
 51
113.9565869731791992
  0
ARC
  5
18481
  8
0
 10
23.0189017241656018
 20
11.4679562397309809
 30
0.0
 40
0.0346744089484047
 50
355.5898194874723117
 51
57.7904681426937117
  0
ARC
  5
18482
  8
0
 10
23.0111472906911914
 20
11.4713769867918192
 30
0.0
 40
0.0427616370856684
 50
322.9965928138940967
 51
351.816203540487777
  0
ARC
  5
18483
  8
0
 10
23.0002162589950103
 20
11.4452545532474304
 30
0.0
 40
0.0584765883074092
 50
110.9140029211021954
 51
144.1085844498371955
  0
ARC
  5
18484
  8
0
 10
22.9807093873196813
 20
11.4593980025581406
 30
0.0
 40
0.0343818924162075
 50
144.14541737747561
 51
188.5971140850022891
  0
ARC
  5
18485
  8
0
 10
22.9782399184332284
 20
11.4598892417504992
 30
0.0
 40
0.0320250157490446
 50
190.1267380593633902
 51
220.6410066683639002
  0
LINE
  5
18486
  8
0
 10
23.0463688979675716
 20
11.48911915539143
 30
0.0
 11
23.0450360585953007
 21
11.4350699522690604
 31
0.0
  0
LINE
  5
18487
  8
0
 10
22.9528426505832286
 20
11.4795365106903606
 30
0.0
 11
22.9541060035624298
 21
11.4328677028642502
 31
0.0
  0
ARC
  5
18488
  8
0
 10
22.6198533223832889
 20
11.18174323045832
 30
0.0
 40
0.0592961474366655
 50
58.6768155735088399
 51
116.1696461636176991
  0
ARC
  5
18489
  8
0
 10
22.6356494959254704
 20
11.20686368359409
 30
0.0
 40
0.0296283499728172
 50
4.7763950848636121
 51
59.517317564089609
  0
ARC
  5
1848A
  8
0
 10
22.6339509754138817
 20
11.2087589711210196
 30
0.0
 40
0.0312292135216509
 50
315.1421446620764755
 51
1.0491043644831151
  0
ARC
  5
1848B
  8
0
 10
22.6208862448268988
 20
11.2226427421883308
 30
0.0
 40
0.0502870881294772
 50
272.3116399141946999
 51
314.4283977400269237
  0
ARC
  5
1848C
  8
0
 10
22.6180764600766686
 20
11.2213519137521001
 30
0.0
 40
0.0491938236022433
 50
219.9115745696225872
 51
275.6440364548408866
  0
ARC
  5
1848D
  8
0
 10
22.6038059465847709
 20
11.2078618858312602
 30
0.0
 40
0.0296165378261604
 50
174.2697359700111122
 51
217.6062709994193085
  0
ARC
  5
1848E
  8
0
 10
22.6071112029184995
 20
11.20436815126493
 30
0.0
 40
0.0334026173727088
 50
113.6684932934354038
 51
168.8649153399894089
  0
ARC
  5
1848F
  8
0
 10
22.6196837371283408
 20
11.1943675483306002
 30
0.0
 40
0.0161965119161254
 50
51.5363573575321396
 51
120.2295384275232948
  0
ARC
  5
18490
  8
0
 10
22.6250324225833808
 20
11.2013081801407495
 30
0.0
 40
0.007436119940705
 50
310.1242686730612945
 51
50.5411183067042913
  0
ARC
  5
18491
  8
0
 10
22.6195507550626616
 20
11.20776479081416
 30
0.0
 40
0.0159058343624177
 50
256.1144527292303223
 51
310.2345021617517205
  0
ARC
  5
18492
  8
0
 10
22.6174251621013092
 20
11.2031384994365197
 30
0.0
 40
0.0109462157055779
 50
199.0623523780834034
 51
261.1103502507536973
  0
ARC
  5
18493
  8
0
 10
22.6152575007822989
 20
11.2009513414117094
 30
0.0
 40
0.0082952258727516
 50
116.7073083259265047
 51
189.6312302127952876
  0
ARC
  5
18494
  8
0
 10
22.5958698088116208
 20
11.2362208180727396
 30
0.0
 40
0.0294047850838485
 50
151.329915303318586
 51
222.4419185154854972
  0
ARC
  5
18495
  8
0
 10
22.6146245184866501
 20
11.2246720955734602
 30
0.0
 40
0.0514133136047341
 50
111.6255827817893049
 51
150.0650069060494047
  0
ARC
  5
18496
  8
0
 10
22.6249077262033289
 20
11.2049548210924197
 30
0.0
 40
0.0735682357919842
 50
74.0896290841893688
 51
113.4115274553350048
  0
ARC
  5
18497
  8
0
 10
22.6297357639962016
 20
11.2297381508339598
 30
0.0
 40
0.0484585439834781
 50
40.7142748060254078
 51
71.5456971161614632
  0
ARC
  5
18498
  8
0
 10
22.6419888702888699
 20
11.2410964066699197
 30
0.0
 40
0.0317681749888255
 50
352.0607620171209078
 51
39.6019628000777715
  0
ARC
  5
18499
  8
0
 10
22.6351994539729588
 20
11.2438504586700994
 30
0.0
 40
0.0389140981740049
 50
320.9539608331401155
 51
349.4244724042455914
  0
LINE
  5
1849A
  8
0
 10
22.66645790171345
 20
11.26135642223616
 30
0.0
 11
22.6651749540048186
 21
11.2093307561630997
 31
0.0
  0
LINE
  5
1849B
  8
0
 10
22.573012342159231
 20
11.2548673865493996
 30
0.0
 11
22.5743374034935016
 21
11.2108189588580291
 31
0.0
  0
ARC
  5
1849C
  8
0
 10
23.302584235611679
 20
11.5878789595249199
 30
0.0
 40
0.081866589659302
 50
72.7206191624027554
 51
121.5839772614558996
  0
ARC
  5
1849D
  8
0
 10
23.3147807606659683
 20
11.6184591831130408
 30
0.0
 40
0.0491106846302378
 50
21.4882392615078714
 51
75.7118938986672561
  0
ARC
  5
1849E
  8
0
 10
23.3258589589027494
 20
11.6239618246705998
 30
0.0
 40
0.0368021567006866
 50
347.0645761035730743
 51
19.834452578999791
  0
ARC
  5
1849F
  8
0
 10
23.3093557278891517
 20
11.6305548361865707
 30
0.0
 40
0.0544310242119485
 50
309.4454391010435756
 51
344.1882043899220776
  0
ARC
  5
184A0
  8
0
 10
23.2941410839022787
 20
11.6490949984905505
 30
0.0
 40
0.0784148182914397
 50
246.6937391229716923
 51
309.4234010874391743
  0
ARC
  5
184A1
  8
0
 10
23.2796097623518108
 20
11.6192135229654099
 30
0.0
 40
0.0452479626365586
 50
183.1573494038530043
 51
248.6227845663420908
  0
ARC
  5
184A2
  8
0
 10
23.2818198913595289
 20
11.6156925027187299
 30
0.0
 40
0.0474005740237669
 50
117.8083349920214005
 51
178.7562830824973048
  0
ARC
  5
184A3
  8
0
 10
23.2912160095104817
 20
11.6343248723618995
 30
0.0
 40
0.0709163335663502
 50
109.6095318011085027
 51
142.6542301613494033
  0
ARC
  5
184A4
  8
0
 10
23.3050112552627517
 20
11.6017139286434894
 30
0.0
 40
0.1062854786950816
 50
85.4422879202108732
 51
110.7150484809191937
  0
ARC
  5
184A5
  8
0
 10
23.3113509938258403
 20
11.6419476626770297
 30
0.0
 40
0.0657493871196272
 50
37.1681948526778996
 51
88.1644197900168223
  0
ARC
  5
184A6
  8
0
 10
23.3277884197288792
 20
11.6577362404621692
 30
0.0
 40
0.0431935970845182
 50
323.9757346318991154
 51
33.6500120010746429
  0
ARC
  5
184A7
  8
0
 10
23.2663946414374401
 20
11.6526445854460192
 30
0.0
 40
0.0400734798767562
 50
141.9489705495047929
 51
216.4509385049018135
  0
LINE
  5
184A8
  8
0
 10
23.3625944375775489
 20
11.6261761743174308
 30
0.0
 11
23.3637444062158401
 21
11.6816706062328493
 31
0.0
  0
LINE
  5
184A9
  8
0
 10
23.2344304842807894
 20
11.6167213440528592
 30
0.0
 11
23.2331396185782602
 21
11.6747286538803596
 31
0.0
  0
ARC
  5
184AA
  8
0
 10
23.2992747916462584
 20
11.6083093594773405
 30
0.0
 40
0.0167278778278162
 50
56.9413535623206286
 51
122.9501004477689037
  0
ARC
  5
184AB
  8
0
 10
23.3040746132008287
 20
11.6156839000543108
 30
0.0
 40
0.007928892904741
 50
356.2816513418248974
 51
56.9413535623206286
  0
ARC
  5
184AC
  8
0
 10
23.3006554007104505
 20
11.6167188729617905
 30
0.0
 40
0.0114368220125904
 50
291.6570830949232231
 51
352.2150597083854109
  0
ARC
  5
184AD
  8
0
 10
23.2974780452007089
 20
11.6216306543025496
 30
0.0
 40
0.0172123003155422
 50
246.3854858922406095
 51
295.455885634138383
  0
ARC
  5
184AE
  8
0
 10
23.2936009479690611
 20
11.6139551645827002
 30
0.0
 40
0.008639674937377
 50
161.6237004230289926
 51
249.5555832206032107
  0
ARC
  5
184AF
  8
0
 10
23.2970349201956388
 20
11.6117237639532291
 30
0.0
 40
0.0126444338016829
 50
122.8483606177635039
 51
156.9284035787638913
  0
ARC
  5
184B0
  8
0
 10
22.9277304655654284
 20
11.1199797212765805
 30
0.0
 40
0.0158521365013653
 50
60.2494308834470189
 51
138.2820601621473031
  0
ARC
  5
184B1
  8
0
 10
22.9320368914505401
 20
11.1269240771129194
 30
0.0
 40
0.0076917093726403
 50
352.7116549243847885
 51
62.4313976866142113
  0
ARC
  5
184B2
  8
0
 10
22.9292237747229883
 20
11.1287896011023602
 30
0.0
 40
0.010822320685494
 50
287.3408905779199927
 51
344.7790380450525731
  0
ARC
  5
184B3
  8
0
 10
22.9264170688683393
 20
11.1338408269973002
 30
0.0
 40
0.016522249040295
 50
240.7623847447019045
 51
291.4140810841387861
  0
ARC
  5
184B4
  8
0
 10
22.9220236827951105
 20
11.1260570003995607
 30
0.0
 40
0.007584262992167
 50
143.870743445594087
 51
241.0026264836913015
  0
ARC
  5
184B5
  8
0
 10
22.9295421081044815
 20
11.1042584148324792
 30
0.0
 40
0.061187437405535
 50
63.376164335828939
 51
120.5562457154345992
  0
ARC
  5
184B6
  8
0
 10
22.9418807556681799
 20
11.1321498648719306
 30
0.0
 40
0.0307591285550357
 50
3.064952186840912
 51
60.6393973267717783
  0
ARC
  5
184B7
  8
0
 10
22.9376670342173803
 20
11.1371398723353305
 30
0.0
 40
0.0350886903552396
 50
305.7983597010701828
 51
354.529073574689221
  0
ARC
  5
184B8
  8
0
 10
22.9267963372534282
 20
11.15032548028557
 30
0.0
 40
0.0521536183226712
 50
276.3737216479374865
 51
307.0116245277990856
  0
ARC
  5
184B9
  8
0
 10
22.924691033334021
 20
11.1515274895084495
 30
0.0
 40
0.0536177082253866
 50
239.790190296779798
 51
278.4674131376524997
  0
ARC
  5
184BA
  8
0
 10
22.9124384671915386
 20
11.13221923334876
 30
0.0
 40
0.0307790237299578
 50
181.1672332452212117
 51
241.4159510180878954
  0
ARC
  5
184BB
  8
0
 10
22.91454749151697
 20
11.1280694854835893
 30
0.0
 40
0.0330698273561249
 50
119.1576536866243998
 51
173.8849721127236876
  0
ARC
  5
184BC
  8
0
 10
22.9322553186616993
 20
11.1332240866617607
 30
0.0
 40
0.0701228108541883
 50
62.5391982017006782
 51
111.1958577014317058
  0
ARC
  5
184BD
  8
0
 10
22.9498957854597698
 20
11.16827271331106
 30
0.0
 40
0.0308926827110687
 50
352.2273526526761884
 51
61.5941482008730574
  0
ARC
  5
184BE
  8
0
 10
22.9424431566126295
 20
11.1706628930843799
 30
0.0
 40
0.0386240566200159
 50
322.0979646244082915
 51
350.2090253533236819
  0
ARC
  5
184BF
  8
0
 10
22.9264792404513287
 20
11.14345657636912
 30
0.0
 40
0.0585184515135889
 50
109.5451537122262948
 51
142.0780942883085061
  0
ARC
  5
184C0
  8
0
 10
22.9047761395851914
 20
11.1603186103152101
 30
0.0
 40
0.0310348160716966
 50
142.0100833551373114
 51
193.5090030365531106
  0
ARC
  5
184C1
  8
0
 10
22.9048552172600601
 20
11.1614065890804
 30
0.0
 40
0.0313830729986076
 50
195.4069829337603039
 51
221.6727035082230941
  0
LINE
  5
184C2
  8
0
 10
22.973924889391661
 20
11.1876881713099898
 30
0.0
 11
22.9725958852432584
 21
11.1337944939058406
 31
0.0
  0
LINE
  5
184C3
  8
0
 10
22.88031700857589
 20
11.1794212467528595
 30
0.0
 11
22.881665830210391
 21
11.1315922445010198
 31
0.0
  0
ARC
  5
184C4
  8
0
 10
23.3792069659732995
 20
11.2341143847494909
 30
0.0
 40
0.0862984784170319
 50
74.3668209924268524
 51
120.1634582164335967
  0
ARC
  5
184C5
  8
0
 10
23.3927840525285191
 20
11.2718088482663497
 30
0.0
 40
0.0464314585850505
 50
20.68972757907747
 51
77.9687483705032633
  0
ARC
  5
184C6
  8
0
 10
23.4016020860153517
 20
11.2757263083663002
 30
0.0
 40
0.0368021567006866
 50
347.0645761035730743
 51
19.834452578999791
  0
ARC
  5
184C7
  8
0
 10
23.3842057650928794
 20
11.2849644115513108
 30
0.0
 40
0.0560583225035373
 50
308.4707823635785076
 51
341.8350762394472895
  0
ARC
  5
184C8
  8
0
 10
23.3697543927059499
 20
11.3047621305494008
 30
0.0
 40
0.0805551174253542
 50
247.8452584834614072
 51
307.7579948097377951
  0
ARC
  5
184C9
  8
0
 10
23.3542854721738387
 20
11.27180272550045
 30
0.0
 40
0.044236388553091
 50
184.3001424330205111
 51
250.3037312528635141
  0
ARC
  5
184CA
  8
0
 10
23.3592744576260287
 20
11.2654723678819604
 30
0.0
 40
0.0491932316597287
 50
118.4427469265225028
 51
176.4879986049211027
  0
ARC
  5
184CB
  8
0
 10
23.3759064955351406
 20
11.2741146060062203
 30
0.0
 40
0.081723621992237
 50
112.5432015162382982
 51
140.2829477541864094
  0
ARC
  5
184CC
  8
0
 10
23.3836456967022883
 20
11.2581493368670191
 30
0.0
 40
0.0994413552654253
 50
86.8647384387256238
 51
113.1349975433744959
  0
ARC
  5
184CD
  8
0
 10
23.3884420702356515
 20
11.2911781941053508
 30
0.0
 40
0.0662667680435961
 50
39.6189309990297289
 51
89.444552592438157
  0
ARC
  5
184CE
  8
0
 10
23.4035315468411085
 20
11.3095007241578696
 30
0.0
 40
0.0431935970845182
 50
323.9757346318991154
 51
33.6500120010746429
  0
ARC
  5
184CF
  8
0
 10
23.3427522322841803
 20
11.2990528524506804
 30
0.0
 40
0.0403353421767154
 50
137.4369231820379014
 51
215.75174127404091
  0
LINE
  5
184D0
  8
0
 10
23.4383375646901513
 20
11.2779406580131205
 30
0.0
 11
23.4394875333280588
 21
11.3334350899285496
 31
0.0
  0
LINE
  5
184D1
  8
0
 10
23.3101736113933917
 20
11.2684858277485596
 30
0.0
 11
23.3090018664279697
 21
11.3211402387397406
 31
0.0
  0
ARC
  5
184D2
  8
0
 10
23.3750179187584912
 20
11.2600738431730303
 30
0.0
 40
0.0167278778278162
 50
56.9413535623206286
 51
122.9501004477689037
  0
ARC
  5
184D3
  8
0
 10
23.3798177403130616
 20
11.2674483837500095
 30
0.0
 40
0.007928892904741
 50
356.2816513418248974
 51
56.9413535623206286
  0
ARC
  5
184D4
  8
0
 10
23.3763985278230493
 20
11.2684833566574891
 30
0.0
 40
0.0114368220125904
 50
291.6570830949232231
 51
352.2150597083854109
  0
ARC
  5
184D5
  8
0
 10
23.3732211723129311
 20
11.27339513799825
 30
0.0
 40
0.0172123003155422
 50
246.3854858922406095
 51
295.455885634138383
  0
ARC
  5
184D6
  8
0
 10
23.3693440750812904
 20
11.2657196482784006
 30
0.0
 40
0.008639674937377
 50
161.6237004230289926
 51
249.5555832206032107
  0
ARC
  5
184D7
  8
0
 10
23.3727780473082483
 20
11.2634882476489206
 30
0.0
 40
0.0126444338016829
 50
122.8483606177635039
 51
156.9284035787638913
  0
ARC
  5
184D8
  8
0
 10
23.2209105773700095
 20
10.9401811233940194
 30
0.0
 40
0.0158521365013653
 50
60.2494308834470189
 51
138.2820601621473031
  0
ARC
  5
184D9
  8
0
 10
23.2252170032554908
 20
10.9471254792303601
 30
0.0
 40
0.0076917093726403
 50
352.7116549243847885
 51
62.4313976866142113
  0
ARC
  5
184DA
  8
0
 10
23.2224038865279496
 20
10.9489910032198097
 30
0.0
 40
0.010822320685494
 50
287.3408905779199927
 51
344.7790380450525731
  0
ARC
  5
184DB
  8
0
 10
23.2195971806732899
 20
10.9540422291147497
 30
0.0
 40
0.016522249040295
 50
240.7623847447019045
 51
291.4140810841387861
  0
ARC
  5
184DC
  8
0
 10
23.2152037946000611
 20
10.9462584025169996
 30
0.0
 40
0.007584262992167
 50
143.870743445594087
 51
241.0026264836913015
  0
ARC
  5
184DD
  8
0
 10
23.2227222199094285
 20
10.9244598169499305
 30
0.0
 40
0.061187437405535
 50
63.376164335828939
 51
120.5562457154345992
  0
ARC
  5
184DE
  8
0
 10
23.2350608674731305
 20
10.9523512669893694
 30
0.0
 40
0.0307591285550357
 50
3.064952186840912
 51
60.6393973267717783
  0
ARC
  5
184DF
  8
0
 10
23.2308471460219614
 20
10.9573412744527694
 30
0.0
 40
0.0350886903552396
 50
305.7983597010701828
 51
354.529073574689221
  0
ARC
  5
184E0
  8
0
 10
23.2199764490583789
 20
10.9705268824030107
 30
0.0
 40
0.0521536183226712
 50
276.3737216479374865
 51
307.0116245277990856
  0
ARC
  5
184E1
  8
0
 10
23.2178711451385986
 20
10.9717288916259008
 30
0.0
 40
0.0536177082253866
 50
239.790190296779798
 51
278.4674131376524997
  0
ARC
  5
184E2
  8
0
 10
23.2056185789961198
 20
10.9524206354662006
 30
0.0
 40
0.0307790237299578
 50
181.1672332452212117
 51
241.4159510180878954
  0
ARC
  5
184E3
  8
0
 10
23.2077276033219206
 20
10.94827088760103
 30
0.0
 40
0.0330698273561249
 50
119.1576536866243998
 51
173.8849721127236876
  0
ARC
  5
184E4
  8
0
 10
23.2272575863309712
 20
10.9489612899994793
 30
0.0
 40
0.0727903376100383
 50
65.670000835907075
 51
111.2847986199141985
  0
ARC
  5
184E5
  8
0
 10
23.244619607623271
 20
10.9887343568771598
 30
0.0
 40
0.0294020539197609
 50
351.3180007164646099
 51
64.5667632053681047
  0
ARC
  5
184E6
  8
0
 10
23.2325987436790911
 20
10.9952344841059908
 30
0.0
 40
0.0425171528480206
 50
322.1011847849794094
 51
345.0918832433201828
  0
ARC
  5
184E7
  8
0
 10
23.2204314215973184
 20
10.9604924068666705
 30
0.0
 40
0.0596075444115648
 50
109.1939823616716012
 51
141.8410274186796016
  0
ARC
  5
184E8
  8
0
 10
23.1975304942334688
 20
10.9783562628961597
 30
0.0
 40
0.0305636263152084
 50
141.6481379836995131
 51
189.7218521586501936
  0
ARC
  5
184E9
  8
0
 10
23.1953462419009604
 20
10.9791699114124803
 30
0.0
 40
0.0285721370810018
 50
192.0703345083614977
 51
223.5234411234193033
  0
LINE
  5
184EA
  8
0
 10
23.2670999487665888
 20
11.0076846876602108
 30
0.0
 11
23.265775997048209
 21
10.9539958960232795
 31
0.0
  0
LINE
  5
184EB
  8
0
 10
23.1735620385526211
 20
10.9973206607457801
 30
0.0
 11
23.1748459420153416
 21
10.9517936466184693
 31
0.0
  0
ARC
  5
184EC
  8
0
 10
23.5958239884167291
 20
10.94444119744632
 30
0.0
 40
0.0890371202900475
 50
75.9392649438106133
 51
119.2658220344578979
  0
ARC
  5
184ED
  8
0
 10
23.6069704668613412
 20
10.9827587522337495
 30
0.0
 40
0.0491825462512925
 50
24.7586557611295888
 51
77.6907715375021297
  0
ARC
  5
184EE
  8
0
 10
23.6170132102029093
 20
10.9908691464581008
 30
0.0
 40
0.0368021567006866
 50
347.0645761035730743
 51
19.834452578999791
  0
ARC
  5
184EF
  8
0
 10
23.5996168892804512
 20
11.0001072496431096
 30
0.0
 40
0.0560583225035373
 50
308.4707823635785076
 51
341.8350762394472895
  0
ARC
  5
184F0
  8
0
 10
23.5851655168935217
 20
11.0199049686411996
 30
0.0
 40
0.0805551174253542
 50
247.8452584834614072
 51
307.7579948097377951
  0
ARC
  5
184F1
  8
0
 10
23.5696965963614105
 20
10.9869455635922595
 30
0.0
 40
0.044236388553091
 50
184.3001424330205111
 51
250.3037312528635141
  0
ARC
  5
184F2
  8
0
 10
23.5745665043114414
 20
10.9781435626668298
 30
0.0
 40
0.0492879298087027
 50
116.8606728563471933
 51
173.6104923346921112
  0
ARC
  5
184F3
  8
0
 10
23.5829644577453301
 20
10.9976004517050292
 30
0.0
 40
0.0725393090640524
 50
106.1990873615064004
 51
141.2412031512097883
  0
ARC
  5
184F4
  8
0
 10
23.5937797707429588
 20
10.9697236233376607
 30
0.0
 40
0.1023598401536645
 50
84.0507291498134634
 51
107.6596095713850048
  0
ARC
  5
184F5
  8
0
 10
23.5991363754186807
 20
10.9929249256769896
 30
0.0
 40
0.0787825410512952
 50
44.9438024441963222
 51
86.1770041624237848
  0
ARC
  5
184F6
  8
0
 10
23.6224739688532388
 20
11.0256716009104103
 30
0.0
 40
0.0396996253951902
 50
322.386562945456717
 51
35.2391836874727034
  0
ARC
  5
184F7
  8
0
 10
23.5557050453229202
 20
11.0185831573084005
 30
0.0
 40
0.0381531423726703
 50
140.1846750838087132
 51
217.2135067054441038
  0
LINE
  5
184F8
  8
0
 10
23.6537486888773394
 20
10.9930834961049193
 30
0.0
 11
23.6548986575156306
 21
11.0485779280203609
 31
0.0
  0
LINE
  5
184F9
  8
0
 10
23.5255847355805798
 20
10.9836286658403601
 30
0.0
 11
23.5243239744808683
 21
11.0402831726474702
 31
0.0
  0
ARC
  5
184FA
  8
0
 10
23.5908699112161813
 20
10.9730430014513392
 30
0.0
 40
0.0176971824567109
 50
61.949690146326688
 51
120.4927276506276996
  0
ARC
  5
184FB
  8
0
 10
23.5954499544092116
 20
10.9819405760652504
 30
0.0
 40
0.0076923220545077
 50
1.016334115249242
 51
60.8919046823936867
  0
ARC
  5
184FC
  8
0
 10
23.5918096520106211
 20
10.9836261947492897
 30
0.0
 40
0.0114368220125904
 50
291.6570830949232231
 51
352.2150597083854109
  0
ARC
  5
184FD
  8
0
 10
23.5886322965004993
 20
10.9885379760900506
 30
0.0
 40
0.0172123003155422
 50
246.3854858922406095
 51
295.455885634138383
  0
ARC
  5
184FE
  8
0
 10
23.5841829466147495
 20
10.9802363910332392
 30
0.0
 40
0.007859545527707
 50
156.4747751912460103
 51
251.8708715328355936
  0
ARC
  5
184FF
  8
0
 10
23.5878729436522612
 20
10.9774033132361595
 30
0.0
 40
0.0124246895757921
 50
118.7866139175180962
 51
151.2810230349051039
  0
ARC
  5
18500
  8
0
 10
22.7518462379020896
 20
10.9090873556391905
 30
0.0
 40
0.0158521365013653
 50
60.2494308834470189
 51
138.2820601621473031
  0
ARC
  5
18501
  8
0
 10
22.7561526637875708
 20
10.9160317114755294
 30
0.0
 40
0.0076917093726403
 50
352.7116549243847885
 51
62.4313976866142113
  0
ARC
  5
18502
  8
0
 10
22.7533395470596496
 20
10.9178972354649808
 30
0.0
 40
0.010822320685494
 50
287.3408905779199927
 51
344.7790380450525731
  0
ARC
  5
18503
  8
0
 10
22.7505328412050005
 20
10.9229484613599208
 30
0.0
 40
0.016522249040295
 50
240.7623847447019045
 51
291.4140810841387861
  0
ARC
  5
18504
  8
0
 10
22.7461394551317717
 20
10.9151646347621707
 30
0.0
 40
0.007584262992167
 50
143.870743445594087
 51
241.0026264836913015
  0
ARC
  5
18505
  8
0
 10
22.7536578804411285
 20
10.8933660491950999
 30
0.0
 40
0.061187437405535
 50
63.376164335828939
 51
120.5562457154345992
  0
ARC
  5
18506
  8
0
 10
22.7659965280048411
 20
10.9212574992345406
 30
0.0
 40
0.0307591285550357
 50
3.064952186840912
 51
60.6393973267717783
  0
ARC
  5
18507
  8
0
 10
22.7617828065540415
 20
10.9262475066979494
 30
0.0
 40
0.0350886903552396
 50
305.7983597010701828
 51
354.529073574689221
  0
ARC
  5
18508
  8
0
 10
22.7509121095900788
 20
10.9394331146481907
 30
0.0
 40
0.0521536183226712
 50
276.3737216479374865
 51
307.0116245277990856
  0
ARC
  5
18509
  8
0
 10
22.7488068056706787
 20
10.9406351238710702
 30
0.0
 40
0.0536177082253866
 50
239.790190296779798
 51
278.4674131376524997
  0
ARC
  5
1850A
  8
0
 10
22.7365542395281999
 20
10.92132686771137
 30
0.0
 40
0.0307790237299578
 50
181.1672332452212117
 51
241.4159510180878954
  0
ARC
  5
1850B
  8
0
 10
22.7386632638536206
 20
10.9171771198461993
 30
0.0
 40
0.0330698273561249
 50
119.1576536866243998
 51
173.8849721127236876
  0
ARC
  5
1850C
  8
0
 10
22.7563710909983605
 20
10.9223317210243707
 30
0.0
 40
0.0701228108541883
 50
62.5391982017006782
 51
111.1958577014317058
  0
ARC
  5
1850D
  8
0
 10
22.774011557796431
 20
10.9573803476736806
 30
0.0
 40
0.0308926827110687
 50
352.2273526526761884
 51
61.5941482008730574
  0
ARC
  5
1850E
  8
0
 10
22.76655892894928
 20
10.9597705274470005
 30
0.0
 40
0.0386240566200159
 50
322.0979646244082915
 51
350.2090253533236819
  0
ARC
  5
1850F
  8
0
 10
22.7505950127879792
 20
10.9325642107317407
 30
0.0
 40
0.0585184515135889
 50
109.5451537122262948
 51
142.0780942883085061
  0
ARC
  5
18510
  8
0
 10
22.7288919119218384
 20
10.9494262446778201
 30
0.0
 40
0.0310348160716966
 50
142.0100833551373114
 51
193.5090030365531106
  0
ARC
  5
18511
  8
0
 10
22.7289709895970908
 20
10.95051422344301
 30
0.0
 40
0.0313830729986076
 50
195.4069829337603039
 51
221.6727035082230941
  0
LINE
  5
18512
  8
0
 10
22.7980406617283187
 20
10.9767958056726105
 30
0.0
 11
22.7967116575799089
 21
10.9229021282684595
 31
0.0
  0
LINE
  5
18513
  8
0
 10
22.7044327809125512
 20
10.9685288811154802
 30
0.0
 11
22.7057816025474111
 21
10.9206998788636405
 31
0.0
  0
ARC
  5
18514
  8
0
 10
22.9277659373401299
 20
10.7239312739740207
 30
0.0
 40
0.0158521365013653
 50
60.2494308834470189
 51
138.2820601621473031
  0
ARC
  5
18515
  8
0
 10
22.9320723632256112
 20
10.7308756298103596
 30
0.0
 40
0.0076917093726403
 50
352.7116549243847885
 51
62.4313976866142113
  0
ARC
  5
18516
  8
0
 10
22.92925924649807
 20
10.7327411537998003
 30
0.0
 40
0.010822320685494
 50
287.3408905779199927
 51
344.7790380450525731
  0
ARC
  5
18517
  8
0
 10
22.9264525406434103
 20
10.7377923796947492
 30
0.0
 40
0.016522249040295
 50
240.7623847447019045
 51
291.4140810841387861
  0
ARC
  5
18518
  8
0
 10
22.9220591545701886
 20
10.7300085530970009
 30
0.0
 40
0.007584262992167
 50
143.870743445594087
 51
241.0026264836913015
  0
ARC
  5
18519
  8
0
 10
22.9295775798795489
 20
10.70820996752993
 30
0.0
 40
0.061187437405535
 50
63.376164335828939
 51
120.5562457154345992
  0
ARC
  5
1851A
  8
0
 10
22.9419162274432509
 20
10.7361014175693708
 30
0.0
 40
0.0307591285550357
 50
3.064952186840912
 51
60.6393973267717783
  0
ARC
  5
1851B
  8
0
 10
22.9377025059920783
 20
10.7410914250327707
 30
0.0
 40
0.0350886903552396
 50
305.7983597010701828
 51
354.529073574689221
  0
ARC
  5
1851C
  8
0
 10
22.9268318090284993
 20
10.7542770329830102
 30
0.0
 40
0.0521536183226712
 50
276.3737216479374865
 51
307.0116245277990856
  0
ARC
  5
1851D
  8
0
 10
22.924726505108719
 20
10.7554790422058897
 30
0.0
 40
0.0536177082253866
 50
239.790190296779798
 51
278.4674131376524997
  0
ARC
  5
1851E
  8
0
 10
22.9124739389662402
 20
10.7361707860462001
 30
0.0
 40
0.0307790237299578
 50
181.1672332452212117
 51
241.4159510180878954
  0
ARC
  5
1851F
  8
0
 10
22.914582963292041
 20
10.7320210381810295
 30
0.0
 40
0.0330698273561249
 50
119.1576536866243998
 51
173.8849721127236876
  0
ARC
  5
18520
  8
0
 10
22.9318062500623299
 20
10.7300153190417404
 30
0.0
 40
0.0745308811149214
 50
64.9849217742066827
 51
108.8793937765038038
  0
ARC
  5
18521
  8
0
 10
22.9526861756232989
 20
10.7715713967205104
 30
0.0
 40
0.0280761192202467
 50
352.787110930700976
 51
67.7390251471795324
  0
ARC
  5
18522
  8
0
 10
22.9394541036492114
 20
10.7789846346859903
 30
0.0
 40
0.0425171528480206
 50
321.9535654688439195
 51
345.0918832433201828
  0
ARC
  5
18523
  8
0
 10
22.9242933934557094
 20
10.7459077679950301
 30
0.0
 40
0.0570962949348799
 50
106.9058886525004937
 51
140.3301749446343933
  0
ARC
  5
18524
  8
0
 10
22.9018909161568516
 20
10.7642563091754404
 30
0.0
 40
0.0281398428490613
 50
139.9690241520856091
 51
194.7980251252380128
  0
ARC
  5
18525
  8
0
 10
22.9020398737272401
 20
10.7653405777744204
 30
0.0
 40
0.0285786575169296
 50
196.823862285466106
 51
223.8176015917381108
  0
LINE
  5
18526
  8
0
 10
22.9736970304356696
 20
10.7901942979585108
 30
0.0
 11
22.9726313570183187
 21
10.7377460466032808
 31
0.0
  0
LINE
  5
18527
  8
0
 10
22.8803799477316616
 20
10.7823988104567299
 30
0.0
 11
22.8817013019854585
 21
10.7355437971984706
 31
0.0
  0
ARC
  5
18528
  8
0
 10
23.3805213175368287
 20
10.6283830289488197
 30
0.0
 40
0.0890371202900475
 50
75.9392649438106133
 51
119.2658220344578979
  0
ARC
  5
18529
  8
0
 10
23.3916677959814301
 20
10.6667005837362492
 30
0.0
 40
0.0491825462512925
 50
24.7586557611295888
 51
77.6907715375021297
  0
ARC
  5
1852A
  8
0
 10
23.4017105393226288
 20
10.6748109779606004
 30
0.0
 40
0.0368021567006866
 50
347.0645761035730743
 51
19.834452578999791
  0
ARC
  5
1852B
  8
0
 10
23.3843142184005401
 20
10.6840490811456093
 30
0.0
 40
0.0560583225035373
 50
308.4707823635785076
 51
341.8350762394472895
  0
ARC
  5
1852C
  8
0
 10
23.3698628460136106
 20
10.7038468001436993
 30
0.0
 40
0.0805551174253542
 50
247.8452584834614072
 51
307.7579948097377951
  0
ARC
  5
1852D
  8
0
 10
23.3543939254811193
 20
10.6708873950947591
 30
0.0
 40
0.044236388553091
 50
184.3001424330205111
 51
250.3037312528635141
  0
ARC
  5
1852E
  8
0
 10
23.3592638334315303
 20
10.6620853941693294
 30
0.0
 40
0.0492879298087027
 50
116.8606728563471933
 51
173.6104923346921112
  0
ARC
  5
1852F
  8
0
 10
23.3696944072909503
 20
10.6733342230842592
 30
0.0
 40
0.0754018868362789
 50
105.8174499925005989
 51
143.5186189495379097
  0
ARC
  5
18530
  8
0
 10
23.3874411714693693
 20
10.6197555836568505
 30
0.0
 40
0.1318122233030543
 50
89.3603766110147859
 51
106.8914602725902938
  0
ARC
  5
18531
  8
0
 10
23.3894716127729083
 20
10.6832160392645505
 30
0.0
 40
0.0683458401806528
 50
42.8031068396495229
 51
90.4686114683510709
  0
ARC
  5
18532
  8
0
 10
23.4113400913000511
 20
10.7081453454862601
 30
0.0
 40
0.0355281773003495
 50
320.1910338098882107
 51
37.2609564920585612
  0
ARC
  5
18533
  8
0
 10
23.3367324506407599
 20
10.6970690502824599
 30
0.0
 40
0.0347908025997955
 50
142.6722293505823131
 51
220.0780698185405129
  0
LINE
  5
18534
  8
0
 10
23.4384460179974283
 20
10.6770253276074207
 30
0.0
 11
23.4396164787283183
 21
10.7296557452103603
 31
0.0
  0
LINE
  5
18535
  8
0
 10
23.3102820647006794
 20
10.6675704973428598
 30
0.0
 11
23.3090675116631694
 21
10.7181652844703592
 31
0.0
  0
ARC
  5
18536
  8
0
 10
23.3755672403362702
 20
10.6569848329538406
 30
0.0
 40
0.0176971824567109
 50
61.949690146326688
 51
120.4927276506276996
  0
ARC
  5
18537
  8
0
 10
23.3801472835289204
 20
10.6658824075677501
 30
0.0
 40
0.0076923220545077
 50
1.016334115249242
 51
60.8919046823936867
  0
ARC
  5
18538
  8
0
 10
23.37650698113071
 20
10.6675680262517893
 30
0.0
 40
0.0114368220125904
 50
291.6570830949232231
 51
352.2150597083854109
  0
ARC
  5
18539
  8
0
 10
23.3733296256205882
 20
10.6724798075925502
 30
0.0
 40
0.0172123003155422
 50
246.3854858922406095
 51
295.455885634138383
  0
ARC
  5
1853A
  8
0
 10
23.3688802757348384
 20
10.6641782225357407
 30
0.0
 40
0.007859545527707
 50
156.4747751912460103
 51
251.8708715328355936
  0
ARC
  5
1853B
  8
0
 10
23.3725702727719806
 20
10.6613451447386591
 30
0.0
 40
0.0124246895757921
 50
118.7866139175180962
 51
151.2810230349051039
  0
ARC
  5
1853C
  8
0
 10
23.0003398125843113
 20
10.45906047589202
 30
0.0
 40
0.0158521365013653
 50
60.2494308834470189
 51
138.2820601621473031
  0
ARC
  5
1853D
  8
0
 10
23.004646238469789
 20
10.4660048317283607
 30
0.0
 40
0.0076917093726403
 50
352.7116549243847885
 51
62.4313976866142113
  0
ARC
  5
1853E
  8
0
 10
23.0018331217422407
 20
10.4678703557178192
 30
0.0
 40
0.010822320685494
 50
287.3408905779199927
 51
344.7790380450525731
  0
ARC
  5
1853F
  8
0
 10
22.9990264158875917
 20
10.4729215816127503
 30
0.0
 40
0.016522249040295
 50
240.7623847447019045
 51
291.4140810841387861
  0
ARC
  5
18540
  8
0
 10
22.9946330298143593
 20
10.4651377550150002
 30
0.0
 40
0.007584262992167
 50
143.870743445594087
 51
241.0026264836913015
  0
ARC
  5
18541
  8
0
 10
23.0015715751660395
 20
10.4414352261488492
 30
0.0
 40
0.0627099070792176
 50
64.7995285356257398
 51
118.0814431039969037
  0
ARC
  5
18542
  8
0
 10
23.0165489872624498
 20
10.4717870214482005
 30
0.0
 40
0.0288765455066083
 50
7.3392193173816711
 51
66.0467198059555898
  0
ARC
  5
18543
  8
0
 10
23.0102601029541098
 20
10.4788211919292102
 30
0.0
 40
0.0350886903552396
 50
305.7983597010701828
 51
354.529073574689221
  0
ARC
  5
18544
  8
0
 10
22.9993894059905308
 20
10.4920067998794497
 30
0.0
 40
0.0521536183226712
 50
276.3737216479374865
 51
307.0116245277990856
  0
ARC
  5
18545
  8
0
 10
22.9972841020707506
 20
10.4932088091023399
 30
0.0
 40
0.0536177082253866
 50
239.790190296779798
 51
278.4674131376524997
  0
ARC
  5
18546
  8
0
 10
22.9850315359282718
 20
10.4739005529426397
 30
0.0
 40
0.0307790237299578
 50
181.1672332452212117
 51
241.4159510180878954
  0
ARC
  5
18547
  8
0
 10
22.9848851565771604
 20
10.4685578161067596
 30
0.0
 40
0.0309871898611432
 50
114.4646416795172001
 51
171.2464983582923992
  0
ARC
  5
18548
  8
0
 10
23.005163349927841
 20
10.4617582968994096
 30
0.0
 40
0.0766920188271759
 50
67.420374238483447
 51
108.0685751145954043
  0
ARC
  5
18549
  8
0
 10
23.02618413570681
 20
10.5068073581516792
 30
0.0
 40
0.0271072341797504
 50
357.7725692744010075
 51
71.889235968429162
  0
ARC
  5
1854A
  8
0
 10
23.0237037154337116
 20
10.5106198024678807
 30
0.0
 40
0.0299649072156871
 50
316.6262920399548193
 51
350.6543553359302905
  0
ARC
  5
1854B
  8
0
 10
22.9974067917219784
 20
10.4779037894652909
 30
0.0
 40
0.0589844793454047
 50
105.7692632621321991
 51
138.7904894199182024
  0
ARC
  5
1854C
  8
0
 10
22.9731406183898912
 20
10.4990707102130898
 30
0.0
 40
0.0267839050315999
 50
138.6559111606383112
 51
189.4096228539359004
  0
ARC
  5
1854D
  8
0
 10
22.9717255883576605
 20
10.5001534835967494
 30
0.0
 40
0.025597947931374
 50
192.3196510353033943
 51
226.2437947959728888
  0
LINE
  5
1854E
  8
0
 10
23.046197059934201
 20
10.5250908208638094
 30
0.0
 11
23.0451889539803609
 21
10.4754758134997203
 31
0.0
  0
LINE
  5
1854F
  8
0
 10
22.9530324398358587
 20
10.5167636105962199
 30
0.0
 11
22.9542588989474901
 21
10.4732735640949102
 31
0.0
  0
ARC
  5
18550
  8
0
 10
23.3039870804657596
 20
10.3034225529153005
 30
0.0
 40
0.0935961044782651
 50
77.0285352474251539
 51
116.420138800080295
  0
ARC
  5
18551
  8
0
 10
23.3132958686891705
 20
10.3385815665482195
 30
0.0
 40
0.057256920261783
 50
34.9593229684818212
 51
78.208670769689391
  0
ARC
  5
18552
  8
0
 10
23.3256023565904194
 20
10.3589023754556795
 30
0.0
 40
0.0368021567006866
 50
347.0645761035730743
 51
19.834452578999791
  0
ARC
  5
18553
  8
0
 10
23.3082060356679612
 20
10.3681404786406901
 30
0.0
 40
0.0560583225035373
 50
308.4707823635785076
 51
341.8350762394472895
  0
ARC
  5
18554
  8
0
 10
23.2937546632810317
 20
10.3879381976387908
 30
0.0
 40
0.0805551174253542
 50
247.8452584834614072
 51
307.7579948097377951
  0
ARC
  5
18555
  8
0
 10
23.2782857427489205
 20
10.35497879258984
 30
0.0
 40
0.044236388553091
 50
184.3001424330205111
 51
250.3037312528635141
  0
ARC
  5
18556
  8
0
 10
23.2795738145117603
 20
10.3446612465406105
 30
0.0
 40
0.0459365100061
 50
112.0325581381090956
 51
171.2340599185424139
  0
ARC
  5
18557
  8
0
 10
23.2906295783451007
 20
10.3634498462842704
 30
0.0
 40
0.0715234949966739
 50
104.8932041468966929
 51
143.4772654026432122
  0
ARC
  5
18558
  8
0
 10
23.3017746252418796
 20
10.3339362574407598
 30
0.0
 40
0.1029593794236627
 50
83.8108089245216377
 51
106.6659706410958961
  0
ARC
  5
18559
  8
0
 10
23.3077020263559191
 20
10.3618179859949606
 30
0.0
 40
0.0746569571117796
 50
41.6840582233266232
 51
86.0269033865798747
  0
ARC
  5
1855A
  8
0
 10
23.3368361965722109
 20
10.3904628037677202
 30
0.0
 40
0.0339095151159377
 50
319.1792460250856038
 51
38.2727442768943504
  0
ARC
  5
1855B
  8
0
 10
23.2619168296588299
 20
10.3851912308127297
 30
0.0
 40
0.0355122016398358
 50
144.0963014599778944
 51
218.0581966381053007
  0
LINE
  5
1855C
  8
0
 10
23.3623378352652296
 20
10.3611167251025105
 30
0.0
 11
23.363457577308921
 21
10.41146654874494
 31
0.0
  0
LINE
  5
1855D
  8
0
 10
23.23417388196847
 20
10.3516618948379406
 30
0.0
 11
23.2331518118307585
 21
10.4060164610553603
 31
0.0
  0
ARC
  5
1855E
  8
0
 10
23.2996378110016806
 20
10.3373116866896293
 30
0.0
 40
0.0190489959012523
 50
64.7679358012633628
 51
116.750862380030199
  0
ARC
  5
1855F
  8
0
 10
23.3046456781676312
 20
10.3478401057988698
 30
0.0
 40
0.0073904450770823
 50
6.4137732447566549
 51
65.0931344761630442
  0
ARC
  5
18560
  8
0
 10
23.3022758805848405
 20
10.3495325213787606
 30
0.0
 40
0.0097525871102308
 50
284.2427871818023277
 51
354.90061517496531
  0
ARC
  5
18561
  8
0
 10
23.2969819694395994
 20
10.3568808581147191
 30
0.0
 40
0.0184788051550607
 50
248.7974198146499987
 51
294.6033452442561043
  0
ARC
  5
18562
  8
0
 10
23.2920443765060092
 20
10.3464391111081895
 30
0.0
 40
0.0070070885245046
 50
148.0620959164876069
 51
255.5748344283431095
  0
ARC
  5
18563
  8
0
 10
23.2964689374853613
 20
10.3428543449592905
 30
0.0
 40
0.0126776329243119
 50
115.2371286074188959
 51
144.8900039619715869
  0
ARC
  5
18564
  8
0
 10
22.620001968135881
 20
10.6241382724967597
 30
0.0
 40
0.0158521365013653
 50
60.2494308834470189
 51
138.2820601621473031
  0
ARC
  5
18565
  8
0
 10
22.6243083940209786
 20
10.6310826283330897
 30
0.0
 40
0.0076917093726403
 50
352.7116549243847885
 51
62.4313976866142113
  0
ARC
  5
18566
  8
0
 10
22.6214952772934303
 20
10.6329481523225393
 30
0.0
 40
0.010822320685494
 50
287.3408905779199927
 51
344.7790380450525731
  0
ARC
  5
18567
  8
0
 10
22.6186885714387813
 20
10.63799937821749
 30
0.0
 40
0.016522249040295
 50
240.7623847447019045
 51
291.4140810841387861
  0
ARC
  5
18568
  8
0
 10
22.6142951853655489
 20
10.6302155516197399
 30
0.0
 40
0.007584262992167
 50
143.870743445594087
 51
241.0026264836913015
  0
ARC
  5
18569
  8
0
 10
22.6207932501911309
 20
10.60799272677977
 30
0.0
 40
0.061709858333143
 50
63.8378382285258894
 51
118.3757217426495032
  0
ARC
  5
1856A
  8
0
 10
22.6345753630123312
 20
10.6352964219659896
 30
0.0
 40
0.031128484088954
 50
8.6482061396093606
 51
64.4481487098629202
  0
ARC
  5
1856B
  8
0
 10
22.6336903101620912
 20
10.6398939324906507
 30
0.0
 40
0.0316597221837966
 50
303.157820605249583
 51
0.1505559173980833
  0
ARC
  5
1856C
  8
0
 10
22.6205609116510615
 20
10.6566813003511598
 30
0.0
 40
0.0529255906474707
 50
274.749726125708321
 51
305.1173335436930074
  0
ARC
  5
1856D
  8
0
 10
22.6187194155038895
 20
10.6596542030950303
 30
0.0
 40
0.0560632895369287
 50
238.9031979472343039
 51
276.373881855483603
  0
ARC
  5
1856E
  8
0
 10
22.6060903217890505
 20
10.6393848857503492
 30
0.0
 40
0.0321858654072695
 50
181.8401495200835996
 51
239.5181319168032985
  0
ARC
  5
1856F
  8
0
 10
22.6066996875697015
 20
10.6327242452697401
 30
0.0
 40
0.0332581300445969
 50
117.2618319524503931
 51
170.2589713429773042
  0
ARC
  5
18570
  8
0
 10
22.6227808997851092
 20
10.6291744264348296
 30
0.0
 40
0.0753694866800651
 50
65.3021891177785676
 51
107.1194323416330008
  0
ARC
  5
18571
  8
0
 10
22.6426620887037195
 20
10.6688136948596295
 30
0.0
 40
0.0310854604470904
 50
3.69168938740563
 51
68.0679641846162866
  0
ARC
  5
18572
  8
0
 10
22.6442186610300311
 20
10.67268758163884
 30
0.0
 40
0.0295238164869721
 50
316.0491886885560007
 51
356.3639210663915264
  0
ARC
  5
18573
  8
0
 10
22.6151647046843003
 20
10.6478928297936495
 30
0.0
 40
0.0552668074524299
 50
105.2854724758166043
 51
139.1880333163626062
  0
ARC
  5
18574
  8
0
 10
22.5936017499231205
 20
10.6660927085198498
 30
0.0
 40
0.027053520624848
 50
138.5137867456490142
 51
193.0441000420265141
  0
ARC
  5
18575
  8
0
 10
22.5950647208515214
 20
10.6672973171764696
 30
0.0
 40
0.0287629892135407
 50
194.7242549239990979
 51
222.3221870094803876
  0
LINE
  5
18576
  8
0
 10
22.6658525742174604
 20
10.6895141111077798
 30
0.0
 11
22.6653499230440296
 21
10.6399771245360206
 31
0.0
  0
LINE
  5
18577
  8
0
 10
22.5733355479931994
 20
10.6840140376428501
 30
0.0
 11
22.5739210544986797
 21
10.6383513606996392
 31
0.0
  0
ARC
  5
18578
  8
0
 10
22.5985216918941205
 20
10.4036761153757507
 30
0.0
 40
0.0158521365013653
 50
60.2494308834470189
 51
138.2820601621473031
  0
ARC
  5
18579
  8
0
 10
22.6028281177796018
 20
10.4106204712120807
 30
0.0
 40
0.0076917093726403
 50
352.7116549243847885
 51
62.4313976866142113
  0
ARC
  5
1857A
  8
0
 10
22.6000150010520606
 20
10.4124859952015303
 30
0.0
 40
0.010822320685494
 50
287.3408905779199927
 51
344.7790380450525731
  0
ARC
  5
1857B
  8
0
 10
22.5972082951974009
 20
10.4175372210964792
 30
0.0
 40
0.016522249040295
 50
240.7623847447019045
 51
291.4140810841387861
  0
ARC
  5
1857C
  8
0
 10
22.5928149091241686
 20
10.4097533944987308
 30
0.0
 40
0.007584262992167
 50
143.870743445594087
 51
241.0026264836913015
  0
ARC
  5
1857D
  8
0
 10
22.5987332477822207
 20
10.3849067547769796
 30
0.0
 40
0.0628233457853047
 50
62.093627453850452
 51
114.9037031457067002
  0
ARC
  5
1857E
  8
0
 10
22.6169125877343618
 20
10.4165939169966499
 30
0.0
 40
0.0263414879195938
 50
2.3202593781273091
 51
64.7805472974319798
  0
ARC
  5
1857F
  8
0
 10
22.6092435315246796
 20
10.4199454625080499
 30
0.0
 40
0.0340656761882154
 50
311.0230495076888815
 51
356.1537408337658803
  0
ARC
  5
18580
  8
0
 10
22.600207685967419
 20
10.4358901259801407
 30
0.0
 40
0.0521536183226712
 50
276.3737216479374865
 51
307.0116245277990856
  0
ARC
  5
18581
  8
0
 10
22.5962490378631209
 20
10.4413763431429292
 30
0.0
 40
0.058140549227322
 50
243.5963552191367114
 51
279.6523343774122168
  0
ARC
  5
18582
  8
0
 10
22.5836147609903399
 20
10.4178377791772405
 30
0.0
 40
0.0314505412651799
 50
183.7584992570340887
 51
245.143043763876193
  0
ARC
  5
18583
  8
0
 10
22.5827478644797992
 20
10.4130999644194695
 30
0.0
 40
0.0306331251335826
 50
109.9841416032296024
 51
174.9880910752337968
  0
ARC
  5
18584
  8
0
 10
22.600610935224779
 20
10.4072610418651408
 30
0.0
 40
0.0749786628425713
 50
62.3626297663637814
 51
104.4695790984585955
  0
ARC
  5
18585
  8
0
 10
22.6231076840346894
 20
10.4479259534842797
 30
0.0
 40
0.028537848020442
 50
3.1606247429102821
 51
64.5043612830627211
  0
ARC
  5
18586
  8
0
 10
22.625149357345709
 20
10.4511451272834002
 30
0.0
 40
0.0265039097243816
 50
314.0945104077645169
 51
356.4399938840832078
  0
ARC
  5
18587
  8
0
 10
22.5938180478588109
 20
10.4233431911228909
 30
0.0
 40
0.0577660317167133
 50
101.9305416548432959
 51
137.1294020023381961
  0
ARC
  5
18588
  8
0
 10
22.5702143687347991
 20
10.4451549267760395
 30
0.0
 40
0.0256276828023012
 50
136.9662121203895992
 51
202.7548606644413951
  0
ARC
  5
18589
  8
0
 10
22.5724392752649905
 20
10.4473535181029806
 30
0.0
 40
0.0285536659427923
 50
205.0970164287948023
 51
224.4226272916401967
  0
LINE
  5
1858A
  8
0
 10
22.6444564941631796
 20
10.4668636691789008
 30
0.0
 11
22.6432324793832791
 21
10.4176603547178601
 31
0.0
  0
LINE
  5
1858B
  8
0
 10
22.5514817782808983
 20
10.4626440142509196
 30
0.0
 11
22.5522318632236782
 21
10.4157761600001901
 31
0.0
  0
ARC
  5
1858C
  8
0
 10
22.2770852888023398
 20
10.4478106310851295
 30
0.0
 40
0.0158521365013653
 50
60.2494308834470189
 51
138.2820601621473031
  0
ARC
  5
1858D
  8
0
 10
22.2813917146878104
 20
10.4547549869214702
 30
0.0
 40
0.0076917093726403
 50
352.7116549243847885
 51
62.4313976866142113
  0
ARC
  5
1858E
  8
0
 10
22.2785785979598892
 20
10.4566205109109092
 30
0.0
 40
0.010822320685494
 50
287.3408905779199927
 51
344.7790380450525731
  0
ARC
  5
1858F
  8
0
 10
22.2757718921056203
 20
10.4616717368058492
 30
0.0
 40
0.016522249040295
 50
240.7623847447019045
 51
291.4140810841387861
  0
ARC
  5
18590
  8
0
 10
22.2713785060320113
 20
10.4538879102081097
 30
0.0
 40
0.007584262992167
 50
143.870743445594087
 51
241.0026264836913015
  0
ARC
  5
18591
  8
0
 10
22.2776223949740384
 20
10.4297815411865091
 30
0.0
 40
0.0633727315090113
 50
64.3867168601644551
 51
117.3724081425998946
  0
ARC
  5
18592
  8
0
 10
22.2922099237964915
 20
10.4591800627890699
 30
0.0
 40
0.0305602643428124
 50
9.3096620221166724
 51
65.2214613369302612
  0
ARC
  5
18593
  8
0
 10
22.2918769786636304
 20
10.4630134143004803
 30
0.0
 40
0.0305108954615689
 50
304.2920163120230086
 51
2.0856383670941141
  0
ARC
  5
18594
  8
0
 10
22.2781008550626112
 20
10.4812200256901793
 30
0.0
 40
0.0533262351510118
 50
273.916882437057609
 51
305.4994632911840995
  0
ARC
  5
18595
  8
0
 10
22.2773024762106893
 20
10.4906938980120703
 30
0.0
 40
0.0628326925428312
 50
241.2190121962281069
 51
274.0530814555380061
  0
ARC
  5
18596
  8
0
 10
22.2617770121463003
 20
10.4626507081357403
 30
0.0
 40
0.0307790237299578
 50
181.1672332452212117
 51
241.4159510180878954
  0
ARC
  5
18597
  8
0
 10
22.2643145088292513
 20
10.4561715537454294
 30
0.0
 40
0.0338203022789301
 50
117.9069116884779049
 51
170.0355529021315988
  0
ARC
  5
18598
  8
0
 10
22.2780996457904692
 20
10.4513814531875795
 30
0.0
 40
0.0760483620553143
 50
65.4898628851122453
 51
105.4950021284007988
  0
ARC
  5
18599
  8
0
 10
22.2980012606917093
 20
10.4898062256940694
 30
0.0
 40
0.0329013354916134
 50
4.7858039956716487
 51
69.2672775251594857
  0
ARC
  5
1859A
  8
0
 10
22.3047321564158203
 20
10.4939749409765
 30
0.0
 40
0.0260945995885189
 50
312.8894057327199221
 51
356.8723793713235182
  0
ARC
  5
1859B
  8
0
 10
22.2704360007236986
 20
10.4719097480330898
 30
0.0
 40
0.05425212921521
 50
103.487070419858199
 51
136.7112644025216071
  0
ARC
  5
1859C
  8
0
 10
22.2494415077243204
 20
10.4911925406202808
 30
0.0
 40
0.0257508518620233
 50
135.9117638036929918
 51
196.5423112084104105
  0
ARC
  5
1859D
  8
0
 10
22.2522841320161007
 20
10.4934537811200599
 30
0.0
 40
0.0291513085042536
 50
199.2129366496482987
 51
223.0741456063269084
  0
LINE
  5
1859E
  8
0
 10
22.3229131320551701
 20
10.5112980041759894
 30
0.0
 11
22.3223676621035416
 21
10.4641238039750597
 31
0.0
  0
LINE
  5
1859F
  8
0
 10
22.2309454648480695
 20
10.5091090907778604
 30
0.0
 11
22.2310043751651385
 21
10.4620237192880108
 31
0.0
  0
ARC
  5
185A0
  8
0
 10
22.4225641192657115
 20
10.1612283532187107
 30
0.0
 40
0.0158521365013653
 50
60.2494308834470189
 51
138.2820601621473031
  0
ARC
  5
185A1
  8
0
 10
22.4268705451511892
 20
10.1681727090550496
 30
0.0
 40
0.0076917093726403
 50
352.7116549243847885
 51
62.4313976866142113
  0
ARC
  5
185A2
  8
0
 10
22.4240574284232714
 20
10.1700382330444992
 30
0.0
 40
0.010822320685494
 50
287.3408905779199927
 51
344.7790380450525731
  0
ARC
  5
185A3
  8
0
 10
22.421250722568999
 20
10.1750894589394392
 30
0.0
 40
0.016522249040295
 50
240.7623847447019045
 51
291.4140810841387861
  0
ARC
  5
185A4
  8
0
 10
22.41685733649539
 20
10.1673056323416908
 30
0.0
 40
0.007584262992167
 50
143.870743445594087
 51
241.0026264836913015
  0
ARC
  5
185A5
  8
0
 10
22.4237958818474503
 20
10.1436031034755398
 30
0.0
 40
0.0627099070792176
 50
64.7995285356257398
 51
118.0814431039969037
  0
ARC
  5
185A6
  8
0
 10
22.4387732939434699
 20
10.1739548987748893
 30
0.0
 40
0.0288765455066083
 50
7.3392193173816711
 51
66.0467198059555898
  0
ARC
  5
185A7
  8
0
 10
22.4324844096355207
 20
10.1809890692558902
 30
0.0
 40
0.0350886903552396
 50
305.7983597010701828
 51
354.529073574689221
  0
ARC
  5
185A8
  8
0
 10
22.4216137126715616
 20
10.1941746772061297
 30
0.0
 40
0.0521536183226712
 50
276.3737216479374865
 51
307.0116245277990856
  0
ARC
  5
185A9
  8
0
 10
22.4195084087521508
 20
10.1953766864290198
 30
0.0
 40
0.0536177082253866
 50
239.790190296779798
 51
278.4674131376524997
  0
ARC
  5
185AA
  8
0
 10
22.4072558426096684
 20
10.1760684302693303
 30
0.0
 40
0.0307790237299578
 50
181.1672332452212117
 51
241.4159510180878954
  0
ARC
  5
185AB
  8
0
 10
22.4071094632585606
 20
10.1707256934334396
 30
0.0
 40
0.0309871898611432
 50
114.4646416795172001
 51
171.2464983582923992
  0
ARC
  5
185AC
  8
0
 10
22.4246914325372089
 20
10.1611770941972299
 30
0.0
 40
0.0785435980552961
 50
66.4360928249125351
 51
105.5759645275938965
  0
ARC
  5
185AD
  8
0
 10
22.4469208137446614
 20
10.2056495268921896
 30
0.0
 40
0.0290093087679468
 50
4.3699123811461922
 51
71.5721760357901928
  0
ARC
  5
185AE
  8
0
 10
22.4518843377346009
 20
10.2094217448821194
 30
0.0
 40
0.0240122994192839
 50
311.3890387948777061
 51
356.2706563146838903
  0
ARC
  5
185AF
  8
0
 10
22.4143335348649408
 20
10.1842118930000201
 30
0.0
 40
0.0537075416617962
 50
101.5269283376717055
 51
136.5683654287192894
  0
ARC
  5
185B0
  8
0
 10
22.3913334163359607
 20
10.20520023193348
 30
0.0
 40
0.0225829349036225
 50
135.1203043411366025
 51
200.349161289054706
  0
ARC
  5
185B1
  8
0
 10
22.3947529305285506
 20
10.2074577132115998
 30
0.0
 40
0.0265902382277102
 50
202.3480945653377034
 51
225.4986815775426123
  0
LINE
  5
185B2
  8
0
 10
22.4686060230291389
 20
10.2249184576740806
 30
0.0
 11
22.4674132606613917
 21
10.1776436908264092
 31
0.0
  0
LINE
  5
185B3
  8
0
 10
22.3751983970284414
 20
10.2210005515757896
 30
0.0
 11
22.3764832056289009
 21
10.1754414414215901
 31
0.0
  0
ARC
  5
185B4
  8
0
 10
22.8781823238235091
 20
10.12888546594613
 30
0.0
 40
0.0983121195512345
 50
76.2240504217312491
 51
114.9996799024369949
  0
ARC
  5
185B5
  8
0
 10
22.8909871428214409
 20
10.1737879221397503
 30
0.0
 40
0.0516815909849999
 50
28.9505585893989199
 51
78.1579205992946697
  0
ARC
  5
185B6
  8
0
 10
22.9077697015521196
 20
10.1875904467602396
 30
0.0
 40
0.0305718218390535
 50
342.2693881364762092
 51
21.5193044300937686
  0
ARC
  5
185B7
  8
0
 10
22.8919378024125386
 20
10.1939764649438107
 30
0.0
 40
0.0476132057087947
 50
302.4984552416549946
 51
340.7515377753185248
  0
ARC
  5
185B8
  8
0
 10
22.8706533791655708
 20
10.2299378189600407
 30
0.0
 40
0.0893893492137631
 50
251.9303111190284881
 51
301.6204251592761238
  0
ARC
  5
185B9
  8
0
 10
22.8534790574057496
 20
10.18788078629583
 30
0.0
 40
0.0442015877174639
 50
191.4885615835667068
 51
256.1888795054092043
  0
ARC
  5
185BA
  8
0
 10
22.8529635784204785
 20
10.1784181510351193
 30
0.0
 40
0.0428055787531467
 50
112.4250713961322958
 51
179.1180151309658868
  0
ARC
  5
185BB
  8
0
 10
22.8657410121447811
 20
10.1881791276475404
 30
0.0
 40
0.0716412903828211
 50
103.6388716642001953
 51
142.1580187765731864
  0
ARC
  5
185BC
  8
0
 10
22.8778726738901312
 20
10.1521382513885605
 30
0.0
 40
0.1095759568236989
 50
84.3692753014057359
 51
105.359987470116593
  0
ARC
  5
185BD
  8
0
 10
22.8866425260260407
 20
10.1876145639338205
 30
0.0
 40
0.0735976080296029
 50
44.1538239011827329
 51
88.4573196112442162
  0
ARC
  5
185BE
  8
0
 10
22.9161419149078114
 20
10.2189876178758592
 30
0.0
 40
0.0306413273758323
 50
316.966398452423789
 51
40.4855918495503033
  0
ARC
  5
185BF
  8
0
 10
22.8359721813964995
 20
10.2119190091170893
 30
0.0
 40
0.0335720933908757
 50
142.9853692783185863
 51
219.1691288197982033
  0
LINE
  5
185C0
  8
0
 10
22.9383270244917803
 20
10.1885318846617796
 30
0.0
 11
22.9394467665354718
 21
10.2388817083042092
 31
0.0
  0
LINE
  5
185C1
  8
0
 10
22.8101630711950207
 20
10.1790770543972098
 30
0.0
 11
22.809165475568129
 21
10.2321300451439292
 31
0.0
  0
ARC
  5
185C2
  8
0
 10
22.8756603340483586
 20
10.1681986828502797
 30
0.0
 40
0.0190489959012523
 50
64.7679358012633628
 51
116.750862380030199
  0
ARC
  5
185C3
  8
0
 10
22.8806682012142986
 20
10.1787271019595096
 30
0.0
 40
0.0073904450770823
 50
6.4137732447566549
 51
65.0931344761630442
  0
ARC
  5
185C4
  8
0
 10
22.8764968575356704
 20
10.1819542883815704
 30
0.0
 40
0.0117633010435556
 50
290.9238344192195882
 51
348.2195679375442978
  0
ARC
  5
185C5
  8
0
 10
22.8730044924858902
 20
10.1877678542753696
 30
0.0
 40
0.0184788051550607
 50
248.7974198146499987
 51
294.6033452442561043
  0
ARC
  5
185C6
  8
0
 10
22.8680668995526801
 20
10.1773261072688399
 30
0.0
 40
0.0070070885245046
 50
148.0620959164876069
 51
255.5748344283431095
  0
ARC
  5
185C7
  8
0
 10
22.8724914605320393
 20
10.1737413411199409
 30
0.0
 40
0.0126776329243119
 50
115.2371286074188959
 51
144.8900039619715869
  0
ARC
  5
185C8
  8
0
 10
22.5423915112910187
 20
9.9110501872469783
 30
0.0
 40
0.0935961044782651
 50
77.0285352474251539
 51
116.420138800080295
  0
ARC
  5
185C9
  8
0
 10
22.5517002995148097
 20
9.946209200879899
 30
0.0
 40
0.057256920261783
 50
34.9593229684818212
 51
78.208670769689391
  0
ARC
  5
185CA
  8
0
 10
22.5640067874156891
 20
9.966530009787359
 30
0.0
 40
0.0368021567006866
 50
347.0645761035730743
 51
19.834452578999791
  0
ARC
  5
185CB
  8
0
 10
22.5466104664936005
 20
9.9757681129723732
 30
0.0
 40
0.0560583225035373
 50
308.4707823635785076
 51
341.8350762394472895
  0
ARC
  5
185CC
  8
0
 10
22.5321590941066709
 20
9.9955658319704614
 30
0.0
 40
0.0805551174253542
 50
247.8452584834614072
 51
307.7579948097377951
  0
ARC
  5
185CD
  8
0
 10
22.5166901735745597
 20
9.9626064269215178
 30
0.0
 40
0.044236388553091
 50
184.3001424330205111
 51
250.3037312528635141
  0
ARC
  5
185CE
  8
0
 10
22.5179782453373996
 20
9.9522888808722865
 30
0.0
 40
0.0459365100061
 50
112.0325581381090956
 51
171.2340599185424139
  0
ARC
  5
185CF
  8
0
 10
22.5290340091703705
 20
9.9710774806159428
 30
0.0
 40
0.0715234949966739
 50
104.8932041468966929
 51
143.4772654026432122
  0
ARC
  5
185D0
  8
0
 10
22.5401790560671387
 20
9.9415638917724358
 30
0.0
 40
0.1029593794236627
 50
83.8108089245216377
 51
106.6659706410958961
  0
ARC
  5
185D1
  8
0
 10
22.546106457181569
 20
9.9694456203266455
 30
0.0
 40
0.0746569571117796
 50
41.6840582233266232
 51
86.0269033865798747
  0
ARC
  5
185D2
  8
0
 10
22.5752406273974806
 20
9.9980904380993945
 30
0.0
 40
0.0339095151159377
 50
319.1792460250856038
 51
38.2727442768943504
  0
ARC
  5
185D3
  8
0
 10
22.5003212604844798
 20
9.9928188651444039
 30
0.0
 40
0.0355122016398358
 50
144.0963014599778944
 51
218.0581966381053007
  0
LINE
  5
185D4
  8
0
 10
22.6007422660904886
 20
9.9687443594341811
 30
0.0
 11
22.6018620081345603
 21
10.0190941830766107
 31
0.0
  0
LINE
  5
185D5
  8
0
 10
22.4725783127937397
 20
9.9592895291696166
 30
0.0
 11
22.4715562426564013
 21
10.0136440953870292
 31
0.0
  0
ARC
  5
185D6
  8
0
 10
22.5380422418273305
 20
9.9449393210213035
 30
0.0
 40
0.0190489959012523
 50
64.7679358012633628
 51
116.750862380030199
  0
ARC
  5
185D7
  8
0
 10
22.5430501089932704
 20
9.9554677401305423
 30
0.0
 40
0.0073904450770823
 50
6.4137732447566549
 51
65.0931344761630442
  0
ARC
  5
185D8
  8
0
 10
22.5406803114101102
 20
9.9571601557104366
 30
0.0
 40
0.0097525871102308
 50
284.2427871818023277
 51
354.90061517496531
  0
ARC
  5
185D9
  8
0
 10
22.5353864002648585
 20
9.9645084924464005
 30
0.0
 40
0.0184788051550607
 50
248.7974198146499987
 51
294.6033452442561043
  0
ARC
  5
185DA
  8
0
 10
22.5304488073316485
 20
9.9540667454398672
 30
0.0
 40
0.0070070885245046
 50
148.0620959164876069
 51
255.5748344283431095
  0
ARC
  5
185DB
  8
0
 10
22.5348733683110112
 20
9.9504819792909682
 30
0.0
 40
0.0126776329243119
 50
115.2371286074188959
 51
144.8900039619715869
  0
ARC
  5
185DC
  8
0
 10
22.1858052339551399
 20
10.8884255373556904
 30
0.0
 40
0.3287566720144089
 50
35.5798501216989678
 51
52.7519649721565926
  0
ARC
  5
185DD
  8
0
 10
22.0711834887486908
 20
10.6814276349448303
 30
0.0
 40
0.5677392630035955
 50
69.970690031651543
 51
84.1417712884482825
  0
ARC
  5
185DE
  8
0
 10
22.1632697071532796
 20
11.0230731272613909
 30
0.0
 40
0.3625123504878356
 50
304.5185736519355828
 51
321.1361123492499132
  0
ARC
  5
185DF
  8
0
 10
22.2803278200983499
 20
10.9431263165342099
 30
0.0
 40
0.2182773033890473
 50
346.5633576293761848
 51
6.6860356802346459
  0
ARC
  5
185E0
  8
0
 10
22.0713235258658891
 20
11.2041446792557
 30
0.0
 40
0.5670193951510722
 50
275.8475682354156788
 51
290.034744520901711
  0
ARC
  5
185E1
  8
0
 10
22.0637346541440991
 20
9.9612130026958621
 30
0.0
 40
2.1646501772584772
 50
73.2029678302095164
 51
75.1765317197751273
  0
ARC
  5
185E2
  8
0
 10
22.0637346541440991
 20
9.9612130026958621
 30
0.0
 40
2.1646501772584772
 50
79.007059623880636
 51
100.929363814236396
  0
ARC
  5
185E3
  8
0
 10
22.2298485309513687
 20
10.4742634635040606
 30
0.0
 40
1.625520972328697
 50
49.5910646553179788
 51
73.5823791833694116
  0
ARC
  5
185E4
  8
0
 10
22.71572180887215
 20
11.0528020420821207
 30
0.0
 40
0.9128140340004842
 50
315.812222088563999
 51
353.4424276927350093
  0
ARC
  5
185E5
  8
0
 10
22.7213855148667214
 20
10.9944590723646503
 30
0.0
 40
0.9066007441997649
 50
5.0147439685678581
 51
44.3329707070710128
  0
ARC
  5
185E6
  8
0
 10
22.0667236512677185
 20
12.0918711354594102
 30
0.0
 40
2.1736651255834438
 50
270.2333950822147131
 51
280.7691681573419942
  0
ARC
  5
185E7
  8
0
 10
20.7023870592949883
 20
12.1057255222407107
 30
0.0
 40
1.662879339245916
 50
329.5252777438379894
 51
333.6963201486369144
  0
ARC
  5
185E8
  8
0
 10
22.0524551480375806
 20
11.4226857203279408
 30
0.0
 40
0.1505835131280682
 50
339.054780580199008
 51
28.7072594555341816
  0
ARC
  5
185E9
  8
0
 10
22.2012588222449985
 20
11.5838764532209506
 30
0.0
 40
0.0587137572416068
 50
145.4389876168910973
 51
210.7969034446732053
  0
ARC
  5
185EA
  8
0
 10
-3.8184667484515411
 20
50.7562248043278075
 30
0.0
 40
46.9656266920176293
 50
303.6010092055827272
 51
303.7793043481452742
  0
ARC
  5
185EB
  8
0
 10
22.2208465411939713
 20
11.5726707748131208
 30
0.0
 40
0.0812233274899702
 50
126.438471434605205
 51
146.7678605497889066
  0
LINE
  5
185EC
  8
0
 10
22.1508244346407892
 20
11.5538152184425602
 30
0.0
 11
22.1845297355826894
 21
11.4950161962753103
 31
0.0
  0
ARC
  5
185ED
  8
0
 10
22.26120473648173
 20
11.7752903053586593
 30
0.0
 40
0.0651789729460681
 50
300.4195363496667142
 51
41.2700857023977221
  0
ARC
  5
185EE
  8
0
 10
22.2222361062996683
 20
11.7387561300301009
 30
0.0
 40
0.1185794073615578
 50
42.1182649772477404
 51
51.4563982209488486
  0
LINE
  5
185EF
  8
0
 10
22.2961241228261393
 20
11.8315011399444092
 30
0.0
 11
22.2253822732521087
 21
11.8894087972325799
 31
0.0
  0
ARC
  5
185F0
  8
0
 10
22.2655554128560489
 20
11.9442345118748996
 30
0.0
 40
0.0679686702215615
 50
173.0360862975308009
 51
233.7681765094511093
  0
ARC
  5
185F1
  8
0
 10
22.2794927835979806
 20
11.9362548908280708
 30
0.0
 40
0.0830049025212335
 50
109.9387888805615034
 51
168.731015123326614
  0
ARC
  5
185F2
  8
0
 10
-7.3948684624287777
 20
105.3614350076914974
 30
0.0
 40
97.9417129842688752
 50
287.6192905820574879
 51
287.7576439699108164
  0
ARC
  5
185F3
  8
0
 10
23.3147196926080404
 20
9.4085383706352328
 30
0.0
 40
2.8058692189544399
 50
106.7954185095049979
 51
108.4034069523124941
  0
ARC
  5
185F4
  8
0
 10
21.1641083818428193
 20
10.7793763542391297
 30
0.0
 40
1.9330492437186191
 50
40.1826090252669204
 51
42.1302575280293965
  0
ARC
  5
185F5
  8
0
 10
26.4797699711885812
 20
15.2686936937505209
 30
0.0
 40
5.0246966777191728
 50
220.1826090252669132
 51
221.8099844255085884
  0
ARC
  5
185F6
  8
0
 10
22.4960480939950784
 20
11.7055858843118692
 30
0.0
 40
0.3199995022814122
 50
36.8020529680066275
 51
41.8099844255086097
  0
ARC
  5
185F7
  8
0
 10
22.6952246089589593
 20
11.8634918322741392
 30
0.0
 40
0.0663063251845521
 50
308.9970205781118011
 51
30.6379760848672191
  0
ARC
  5
185F8
  8
0
 10
22.6605644465319216
 20
11.8980218563443803
 30
0.0
 40
0.115078292784543
 50
277.1762057381179147
 51
311.6700541372487123
  0
ARC
  5
185F9
  8
0
 10
20.0506931076862216
 20
25.8381175535614815
 30
0.0
 40
14.2971762716216304
 50
280.1731788341541005
 51
280.5766074125970135
  0
ARC
  5
185FA
  8
0
 10
22.5918530313864991
 20
11.6596421013046907
 30
0.0
 40
0.10726402618203
 50
98.543645211434864
 51
140.6223109620748062
  0
ARC
  5
185FB
  8
0
 10
22.5568972553946203
 20
11.6883323108906207
 30
0.0
 40
0.0620419696025447
 50
140.6223109620748062
 51
201.3455245699018974
  0
ARC
  5
185FC
  8
0
 10
70.0282439422803122
 20
27.1224068368397297
 30
0.0
 40
49.9792628108608668
 50
198.0147252523923953
 51
198.144804998972603
  0
ARC
  5
185FD
  8
0
 10
22.4740876311876185
 20
11.5419519446921104
 30
0.0
 40
0.0623086909213929
 50
329.3522760364410829
 51
14.8140056814686698
  0
ARC
  5
185FE
  8
0
 10
22.4428100538540711
 20
11.5666944239731606
 30
0.0
 40
0.1019700713859823
 50
289.0266367546382753
 51
326.3490737843736724
  0
ARC
  5
185FF
  8
0
 10
22.6981329481540008
 20
10.9292543658270294
 30
0.0
 40
0.5848459018812417
 50
112.3165708630373985
 51
123.7885755723892061
  0
ARC
  5
18600
  8
0
 10
22.4907055275911283
 20
11.2527859676894
 30
0.0
 40
0.2007451031805867
 50
125.9392963120027957
 51
158.3372601318374961
  0
ARC
  5
18601
  8
0
 10
49.0468394898483382
 20
2.6759539055351449
 30
0.0
 40
28.1071297696780107
 50
162.0742422433287118
 51
162.2801515559727932
  0
LINE
  5
18602
  8
0
 10
22.1353192975848287
 20
10.6256612566335296
 30
0.0
 11
22.1828821927826709
 21
10.5493117498625697
 31
0.0
  0
ARC
  5
18603
  8
0
 10
22.0823359234059495
 20
10.4828133055467294
 30
0.0
 40
0.1205470670817179
 50
350.6487017798343118
 51
33.4795170800711404
  0
ARC
  5
18604
  8
0
 10
22.0995167166453186
 20
10.4771535108265699
 30
0.0
 40
0.1027129297286622
 50
325.8115624553635143
 51
352.2068520831996921
  0
ARC
  5
18605
  8
0
 10
24.8585332540356205
 20
8.602941624832642
 30
0.0
 40
3.2326794680550459
 50
145.8115624553637133
 51
146.8701327177988958
  0
ARC
  5
18606
  8
0
 10
22.1869862676545289
 20
10.3434286031471707
 30
0.0
 40
0.044266228362349
 50
143.5539384125785034
 51
228.3783168366049097
  0
ARC
  5
18607
  8
0
 10
28.2276597347483005
 20
21.7233519753946602
 30
0.0
 40
12.9303338721601104
 50
242.1058295375113971
 51
242.6428171111249128
  0
ARC
  5
18608
  8
0
 10
22.2487286584149686
 20
10.1558767348366406
 30
0.0
 40
0.091121145128834
 50
46.0480941859122481
 51
66.060297581775103
  0
ARC
  5
18609
  8
0
 10
22.28179100307052
 20
10.1889129113020598
 30
0.0
 40
0.0443991827582039
 50
300.6906164404462061
 51
47.1753013310597709
  0
ARC
  5
1860A
  8
0
 10
19.2672667627534189
 20
14.6032703479924901
 30
0.0
 40
5.3897671993243668
 50
303.2803238327052213
 51
304.2988606677812982
  0
ARC
  5
1860B
  8
0
 10
22.2520067304169196
 20
10.0493266067625395
 30
0.0
 40
0.0552671920699977
 50
119.4608336418433936
 51
169.3481191263786059
  0
ARC
  5
1860C
  8
0
 10
22.2497882853680906
 20
10.0595125071879892
 30
0.0
 40
0.0520964122539887
 50
179.9672698164170015
 51
248.7018853073398077
  0
ARC
  5
1860D
  8
0
 10
22.2829008405263309
 20
10.1127869888465103
 30
0.0
 40
0.1143394386371334
 50
242.9291011151370867
 51
254.7350968763284129
  0
ARC
  5
1860E
  8
0
 10
24.3436482798500187
 20
19.8194690209687501
 30
0.0
 40
10.0371759135755703
 50
257.9766276807213785
 51
259.2569646021029826
  0
ARC
  5
1860F
  8
0
 10
22.2156604886160913
 20
10.3688927996594096
 30
0.0
 40
0.0824716402195825
 50
225.2353182259764139
 51
243.0892939982715859
  0
LINE
  5
18610
  8
0
 10
22.2843488457351988
 20
10.6254562912113393
 30
0.0
 11
22.3003632055873489
 21
10.5802852160217693
 31
0.0
  0
ARC
  5
18611
  8
0
 10
22.4682719259102015
 20
10.6465715872798903
 30
0.0
 40
0.1805193102553058
 50
201.5429283167954964
 51
247.4897896721612938
  0
LINE
  5
18612
  8
0
 10
22.3991604572538705
 20
10.4798058045929192
 30
0.0
 11
22.4892573272085983
 21
10.4462222026659592
 31
0.0
  0
ARC
  5
18613
  8
0
 10
22.4676619091270311
 20
10.3751652970956592
 30
0.0
 40
0.0742660481737734
 50
29.3149375077527203
 51
73.0950693425819651
  0
ARC
  5
18614
  8
0
 10
22.4907011148711184
 20
10.3922903109162696
 30
0.0
 40
0.0459380081793812
 50
331.0581995753793194
 51
24.7554608408968306
  0
LINE
  5
18615
  8
0
 10
22.5309020038984791
 20
10.3700599461667498
 30
0.0
 11
22.4986401488772501
 21
10.2857835797939803
 31
0.0
  0
ARC
  5
18616
  8
0
 10
22.5440932490457406
 20
10.2683836681579397
 30
0.0
 40
0.0486697158390112
 50
159.0526429536984949
 51
254.8149484652284116
  0
ARC
  5
18617
  8
0
 10
22.5926942187524489
 20
10.3657809237599903
 30
0.0
 40
0.1568622619912163
 50
246.9768167132515941
 51
270.1471248732598269
  0
ARC
  5
18618
  8
0
 10
24.4592032438645504
 20
34.2130278815786468
 30
0.0
 40
24.0765360274328302
 50
265.5547030110139985
 51
265.7751772110175921
  0
ARC
  5
18619
  8
0
 10
22.683879917818679
 20
10.10838363028342
 30
0.0
 40
0.0935461623520866
 50
47.4421441298635571
 51
89.0208871007328355
  0
ARC
  5
1861A
  8
0
 10
22.7180688859348514
 20
10.1456187863588294
 30
0.0
 40
0.0429957678054895
 50
322.4706312386791183
 51
47.4421441298635571
  0
ARC
  5
1861B
  8
0
 10
17.7952121462328989
 20
15.1277121739035092
 30
0.0
 40
7.0465816870542506
 50
312.9987919835677985
 51
314.7048724417227845
  0
LINE
  5
1861C
  8
0
 10
22.3869496149093301
 20
10.7153242266393196
 30
0.0
 11
22.4904565377764385
 21
10.6749570467725707
 31
0.0
  0
ARC
  5
1861D
  8
0
 10
22.3916933353058987
 20
10.4217148035935896
 30
0.0
 40
0.2718194325146406
 50
47.555646864347203
 51
68.69446624989979
  0
ARC
  5
1861E
  8
0
 10
22.4903701379329597
 20
10.5296118344582492
 30
0.0
 40
0.125604246415105
 50
20.837664071164351
 51
47.555646864347203
  0
ARC
  5
1861F
  8
0
 10
21.8814033485789494
 20
10.2978288615320803
 30
0.0
 40
0.7771899254125552
 50
16.5773285397282883
 51
20.837664071164351
  0
ARC
  5
18620
  8
0
 10
22.7055405724241304
 20
10.5594150132547906
 30
0.0
 40
0.0887042812408707
 50
206.6929435501004946
 51
274.6316379025066112
  0
ARC
  5
18621
  8
0
 10
22.7359959193890298
 20
23.4323667761073402
 30
0.0
 40
12.9613873042920797
 50
269.897035345679285
 51
270.5637331838830733
  0
ARC
  5
18622
  8
0
 10
22.8701045537872112
 20
10.3658959665103705
 30
0.0
 40
0.105915682414446
 50
46.6533005607176818
 51
93.5637388742455158
  0
ARC
  5
18623
  8
0
 10
22.8910905644975493
 20
10.4057253233850897
 30
0.0
 40
0.0637016912439417
 50
333.2476358923495923
 51
35.7237040941197534
  0
ARC
  5
18624
  8
0
 10
25.6597076837297706
 20
9.8099075159109361
 30
0.0
 40
2.770406673447134
 50
168.1871919632048957
 51
169.1705062362858882
  0
ARC
  5
18625
  8
0
 10
22.9838108722201611
 20
10.3271340461783598
 30
0.0
 40
0.0452908984667164
 50
175.8257939064515085
 51
235.2518022340724997
  0
ARC
  5
18626
  8
0
 10
23.0262213871857711
 20
10.3942960253678702
 30
0.0
 40
0.1246955672670825
 50
236.8294811340950048
 51
282.460074546393912
  0
ARC
  5
18627
  8
0
 10
20.6711399701544316
 20
19.9866542091416086
 30
0.0
 40
10.0018958067050505
 50
283.7775789889611815
 51
284.9315409633687182
  0
LINE
  5
18628
  8
0
 10
23.3709601087899514
 20
10.4047020289422605
 30
0.0
 11
23.3618217242458392
 21
10.5602778789978498
 31
0.0
  0
ARC
  5
18629
  8
0
 10
23.3024516468117291
 20
10.5567905344143202
 30
0.0
 40
0.0594724109716394
 50
3.3616395523035041
 51
82.4536212799403359
  0
ARC
  5
1862A
  8
0
 10
23.2757736590056616
 20
10.4811944981545508
 30
0.0
 40
0.1389030420572732
 50
75.6235749566401552
 51
100.7099160960051023
  0
ARC
  5
1862B
  8
0
 10
23.757433811886191
 20
9.0660650010447181
 30
0.0
 40
1.632492571009291
 50
108.110947232624099
 51
112.7944188139152999
  0
ARC
  5
1862C
  8
0
 10
23.0744768725994298
 20
10.6865542119678203
 30
0.0
 40
0.1260458552437744
 50
234.6617131497364142
 51
293.6123452431257874
  0
ARC
  5
1862D
  8
0
 10
24.198688245100211
 20
11.4345052494649799
 30
0.0
 40
1.468639902083487
 50
210.6501134198686032
 51
215.4008451888724096
  0
ARC
  5
1862E
  8
0
 10
22.8827327466633506
 20
10.6516525852330002
 30
0.0
 40
0.0626204011766151
 50
33.0471921288316679
 51
53.6427544268381027
  0
ARC
  5
1862F
  8
0
 10
22.7982107846483508
 20
11.21189924662918
 30
0.0
 40
0.5209616894891301
 50
238.3636939161752082
 51
248.4737866758759992
  0
ARC
  5
18630
  8
0
 10
22.7182716074209488
 20
11.0602119878893195
 30
0.0
 40
0.3510215555149383
 50
251.5284169596708068
 51
277.8561064843869985
  0
ARC
  5
18631
  8
0
 10
28.6687509090267199
 20
-39.2576138711475409
 30
0.0
 40
50.3174947639763914
 50
96.6501330751204648
 51
96.7365986794013821
  0
ARC
  5
18632
  8
0
 10
22.8525550455513304
 20
10.5816973990649092
 30
0.0
 40
0.1400619173892907
 50
75.2150358266732439
 51
94.4579990794920121
  0
LINE
  5
18633
  8
0
 10
22.5156291156506292
 20
10.8926792648256399
 30
0.0
 11
22.6372072166051197
 21
10.9039182146743503
 31
0.0
  0
ARC
  5
18634
  8
0
 10
22.6748923699537492
 20
10.5302237387941808
 30
0.0
 40
0.3755898455579788
 50
84.4725912910425762
 51
95.7585146658705639
  0
ARC
  5
18635
  8
0
 10
22.69263911082232
 20
10.6145339696657004
 30
0.0
 40
0.2891252296264133
 50
58.460745720402862
 51
73.8409047868386921
  0
ARC
  5
18636
  8
0
 10
23.1605313631860383
 20
11.3768918477225593
 30
0.0
 40
0.6053649570481625
 50
238.4607457204029117
 51
242.7535463478039901
  0
ARC
  5
18637
  8
0
 10
22.9465374502888793
 20
10.9523144643570802
 30
0.0
 40
0.1299914978186119
 50
240.9332200276953131
 51
296.8618861339339787
  0
ARC
  5
18638
  8
0
 10
22.0414091414990985
 20
12.8994535927355507
 30
0.0
 40
2.2771545748712589
 50
295.0415598138378073
 51
298.5863461436862849
  0
ARC
  5
18639
  8
0
 10
23.1899445588098203
 20
10.7916956562888
 30
0.0
 40
0.1232156306327568
 50
86.6303249522596843
 51
118.5863461436862991
  0
ARC
  5
1863A
  8
0
 10
23.1981621253877499
 20
10.8126525983447195
 30
0.0
 40
0.1020503178623926
 50
50.6924817375904624
 51
90.5475279932146151
  0
ARC
  5
1863B
  8
0
 10
20.1214818181550612
 20
8.1795791067202135
 30
0.0
 40
4.1500692912057398
 50
39.6158691783886709
 51
40.8053779459792523
  0
ARC
  5
1863C
  8
0
 10
23.3886345317396902
 20
10.8913845603982207
 30
0.0
 40
0.0960586663074538
 50
223.0443145847106905
 51
274.9317138778739036
  0
ARC
  5
1863D
  8
0
 10
23.3951246497432095
 20
10.9262068602800895
 30
0.0
 40
0.1305373159683791
 50
270.775991371801183
 51
313.1595335644386751
  0
ARC
  5
1863E
  8
0
 10
12.4983931661253607
 20
22.0432908633127802
 30
0.0
 40
15.69740368113691
 50
314.4159683496919229
 51
314.9810986735940901
  0
ARC
  5
1863F
  8
0
 10
23.2820624572811816
 20
10.3977658047002794
 30
0.0
 40
0.0891678397823138
 50
352.4808936218133795
 51
4.4614547515741023
  0
ARC
  5
18640
  8
0
 10
22.6202218655591594
 20
11.7235978554799498
 30
0.0
 40
0.731895750445318
 50
265.6449427404426729
 51
275.0973727011843266
  0
ARC
  5
18641
  8
0
 10
22.6589638571607814
 20
11.2892774232476594
 30
0.0
 40
0.2958508218339098
 50
275.0973727011843266
 51
293.6754781141802937
  0
ARC
  5
18642
  8
0
 10
22.6265407006808914
 20
11.3632254101083703
 30
0.0
 40
0.3765946503094233
 50
293.6754781141802937
 51
306.4305848775488244
  0
ARC
  5
18643
  8
0
 10
23.1456598006876888
 20
10.6598957384598307
 30
0.0
 40
0.4975662427835634
 50
117.9721038229217953
 51
126.4305848775488954
  0
ARC
  5
18644
  8
0
 10
22.9580197453927184
 20
10.9482908258571001
 30
0.0
 40
0.1596861154800454
 50
65.9659486546101448
 51
90.2581031640657443
  0
ARC
  5
18645
  8
0
 10
23.0941175279295798
 20
11.2534831839063898
 30
0.0
 40
0.1744769911358474
 50
245.9659486546100879
 51
252.2974080129550032
  0
ARC
  5
18646
  8
0
 10
27.6729766025109605
 20
23.2679809970513389
 30
0.0
 40
13.0316686857222503
 50
249.1798827375660892
 51
249.5617205726267969
  0
ARC
  5
18647
  8
0
 10
23.1730532476260507
 20
11.1729887187536594
 30
0.0
 40
0.1268922841606765
 50
246.4441952972470062
 51
288.752106331120217
  0
ARC
  5
18648
  8
0
 10
23.1730540827528309
 20
11.17298625884664
 30
0.0
 40
0.1268896863578985
 50
288.752106331120217
 51
332.5104227121308895
  0
ARC
  5
18649
  8
0
 10
24.5896511117004408
 20
10.2184969813727395
 30
0.0
 40
1.5821423572287581
 50
142.8879545588752933
 51
145.5095210008408912
  0
ARC
  5
1864A
  8
0
 10
23.4092801338751002
 20
11.0942832721609008
 30
0.0
 40
0.1132634849988755
 50
104.6781055955526938
 51
135.8870528475692936
  0
ARC
  5
1864B
  8
0
 10
23.4176138482464715
 20
11.0624675152961895
 30
0.0
 40
0.1461525892752565
 50
74.9030375513005566
 51
104.6781055955526938
  0
ARC
  5
1864C
  8
0
 10
23.4376701528216387
 20
11.1368151559776702
 30
0.0
 40
0.0691472191500911
 50
46.282268952875782
 51
74.9030375513005566
  0
ARC
  5
1864D
  8
0
 10
33.3831039818302173
 20
23.2156810156855897
 30
0.0
 40
15.5774700686139091
 50
230.5516695624031058
 51
231.3178675935778017
  0
LINE
  5
1864E
  8
0
 10
22.4722361652801297
 20
11.0896773751680495
 30
0.0
 11
22.5637298037126683
 21
11.1494568943326104
 31
0.0
  0
ARC
  5
1864F
  8
0
 10
22.7435437991176599
 20
10.8742483126873903
 30
0.0
 40
0.3287443328098704
 50
114.5058868669896981
 51
123.1595369441180026
  0
ARC
  5
18650
  8
0
 10
22.7513988159519194
 20
10.8410036220105592
 30
0.0
 40
0.362597921857647
 50
95.2823408029835406
 51
104.5539579086406974
  0
ARC
  5
18651
  8
0
 10
22.7759762065094691
 20
9.6234467131124575
 30
0.0
 40
1.579678566011987
 50
87.7777381585123635
 51
92.1026935152803503
  0
ARC
  5
18652
  8
0
 10
22.8413756637474705
 20
11.3170627299937898
 30
0.0
 40
0.1152001077855696
 50
267.9376332633456741
 51
321.4106184878802992
  0
ARC
  5
18653
  8
0
 10
17.767388275484489
 20
14.0692149767649397
 30
0.0
 40
5.885765795978644
 50
331.3274805405741859
 51
332.5466403550610721
  0
ARC
  5
18654
  8
0
 10
23.0717059386568515
 20
11.3124896355959308
 30
0.0
 40
0.0921407474220412
 50
116.174364731826202
 51
152.0180192105690935
  0
ARC
  5
18655
  8
0
 10
23.090966705025771
 20
11.2786056302392605
 30
0.0
 40
0.1310670309451761
 50
85.7388212032539627
 51
117.1970428778321036
  0
ARC
  5
18656
  8
0
 10
23.0917526456901996
 20
11.2900186643361806
 30
0.0
 40
0.1196271652790516
 50
79.2455068257883539
 51
85.7080459611354968
  0
ARC
  5
18657
  8
0
 10
21.3381294676318483
 20
4.8057059548122369
 30
0.0
 40
6.8365384283953334
 50
74.1850491629550817
 51
74.9434272907755741
  0
ARC
  5
18658
  8
0
 10
23.2650801265410188
 20
11.5711278297022098
 30
0.0
 40
0.1982094104773912
 50
251.2293967313183032
 51
264.5397564051456811
  0
ARC
  5
18659
  8
0
 10
23.2576202687308999
 20
11.4842595952545601
 30
0.0
 40
0.1110286778221809
 50
264.1063043990325241
 51
336.3985621080383908
  0
ARC
  5
1865A
  8
0
 10
17.1778744939138583
 20
11.8792904416420608
 30
0.0
 40
6.1970904364872652
 50
355.9332993720022955
 51
357.9297725580408951
  0
LINE
  5
1865B
  8
0
 10
22.3999483278820293
 20
11.1784370202999597
 30
0.0
 11
22.4894370959176193
 21
11.2207512362319104
 31
0.0
  0
ARC
  5
1865C
  8
0
 10
22.3706480646251293
 20
11.4719737587902397
 30
0.0
 40
0.2778913273133928
 50
295.3068389683000987
 51
315.3472914898566728
  0
ARC
  5
1865D
  8
0
 10
22.44541228411072
 20
11.39811043832999
 30
0.0
 40
0.1727938552946274
 50
315.3472914898566728
 51
347.3720239357945729
  0
ARC
  5
1865E
  8
0
 10
30.3100545512592099
 20
9.1472422610431607
 30
0.0
 40
8.0079103084776282
 50
163.6070111563093121
 51
163.956729207178995
  0
ARC
  5
1865F
  8
0
 10
22.7078038522267107
 20
11.3760458039462193
 30
0.0
 40
0.0859940936100855
 50
112.3367398325385977
 51
158.711440697859814
  0
ARC
  5
18660
  8
0
 10
22.7280577313084713
 20
11.3384523100936292
 30
0.0
 40
0.1285412178726758
 50
94.2578362372806708
 51
114.3192326248315993
  0
ARC
  5
18661
  8
0
 10
20.8200466734287915
 20
30.4479180684421209
 30
0.0
 40
19.0759834130083412
 50
275.7116080813557915
 51
276.1462375093233845
  0
ARC
  5
18662
  8
0
 10
22.8495239764564317
 20
11.6015723847564693
 30
0.0
 40
0.1206800983029317
 50
276.1462375093233845
 51
320.6392431728435213
  0
ARC
  5
18663
  8
0
 10
22.8807245629960114
 20
11.5654928411896307
 30
0.0
 40
0.074119927416599
 50
326.9194957713910981
 51
20.9524132984874001
  0
ARC
  5
18664
  8
0
 10
24.2972251890047808
 20
11.8473443989616403
 30
0.0
 40
1.3712658083354241
 50
187.7196817288765089
 51
190.7318318827836947
  0
ARC
  5
18665
  8
0
 10
23.0287125828259818
 20
11.6515380049619104
 30
0.0
 40
0.0910685316291001
 50
99.6844526664715858
 51
172.6763116726095859
  0
ARC
  5
18666
  8
0
 10
23.0486997680706587
 20
11.5620422241674703
 30
0.0
 40
0.1827103138857806
 50
75.6690687505251134
 51
101.1419166244665035
  0
ARC
  5
18667
  8
0
 10
25.3016145593789901
 20
26.5272872157296504
 30
0.0
 40
14.9521019243770592
 50
261.5091880272195795
 51
262.3749811082288943
  0
ARC
  5
18668
  8
0
 10
21.9757416316307506
 20
10.6591099954169408
 30
0.0
 40
0.1718969974091748
 50
304.6891749859005927
 51
321.1920267943789895
  0
ARC
  5
18669
  8
0
 10
22.0616705777024009
 20
10.5947945905604097
 30
0.0
 40
0.064737376869821
 50
317.8846229933769791
 51
354.4062104252648169
  0
ARC
  5
1866A
  8
0
 10
22.1534862206274283
 20
10.6581610026707505
 30
0.0
 40
0.1706773338806396
 50
219.9287966783701052
 51
235.350996619963496
  0
ARC
  5
1866B
  8
0
 10
22.0706545394409304
 20
10.5954880225878405
 30
0.0
 40
0.0671270666155175
 50
186.0722591349509116
 51
224.2894564974544096
  0
ARC
  5
1866C
  8
0
 10
22.0347594221319802
 20
10.5892899365000002
 30
0.0
 40
0.0308685224609916
 50
156.4051411841138872
 51
181.6759314133354053
  0
ARC
  5
1866D
  8
0
 10
22.0525612860032787
 20
10.5779100675189905
 30
0.0
 40
0.0518424381881511
 50
105.6268369434158956
 51
152.7522206291066027
  0
ARC
  5
1866E
  8
0
 10
22.0649983994008316
 20
10.5465272194902298
 30
0.0
 40
0.085488117767474
 50
71.9496082312102203
 51
107.9892027347534054
  0
ARC
  5
1866F
  8
0
 10
22.0754403074034293
 20
10.5744265038023908
 30
0.0
 40
0.0557412291071699
 50
36.227680722815613
 51
73.2688315392950926
  0
ARC
  5
18670
  8
0
 10
22.0939322744761313
 20
10.5890860053034803
 30
0.0
 40
0.0321730256964404
 50
358.9284057695554111
 51
34.6304251235699496
  0
ARC
  5
18671
  8
0
 10
22.0414335390527505
 20
10.6213379177166605
 30
0.0
 40
0.0468560784286409
 50
179.1245523400353079
 51
216.522400534090707
  0
ARC
  5
18672
  8
0
 10
22.0313374531041397
 20
10.6183911678023897
 30
0.0
 40
0.0369365675127334
 50
141.1076856345194983
 51
174.3091565319720928
  0
ARC
  5
18673
  8
0
 10
22.0508702564724892
 20
10.6017372900784395
 30
0.0
 40
0.0625996596599978
 50
111.3103074203854987
 51
140.4685104751993094
  0
ARC
  5
18674
  8
0
 10
22.0653742137766713
 20
10.5660564730689401
 30
0.0
 40
0.101113312657191
 50
71.1713787906579256
 51
111.6192352083077992
  0
ARC
  5
18675
  8
0
 10
22.0778708650627884
 20
10.5994557249021799
 30
0.0
 40
0.0654765641488941
 50
40.8122773751080032
 51
72.0890970630183432
  0
ARC
  5
18676
  8
0
 10
22.0983297021527285
 20
10.6182351522075802
 30
0.0
 40
0.0377276715049576
 50
317.6372059080545114
 51
39.5338181089499727
  0
LINE
  5
18677
  8
0
 10
22.0649801171919897
 20
11.35943308207729
 30
0.0
 11
22.0649801171919897
 21
11.3130629332076005
 31
0.0
  0
ARC
  5
18678
  8
0
 10
21.591986990658441
 20
11.9813436085486291
 30
0.0
 40
0.0814285851948779
 50
58.7877506561842793
 51
109.4195158504124947
  0
ARC
  5
18679
  8
0
 10
21.5837263637302996
 20
12.0047754524195796
 30
0.0
 40
0.0565832785065955
 50
109.4195158504124947
 51
156.6815811648768886
  0
ARC
  5
1867A
  8
0
 10
21.5663837930374491
 20
12.0146863139168598
 30
0.0
 40
0.0368021567006866
 50
160.1655474210002126
 51
192.9354238964263004
  0
ARC
  5
1867B
  8
0
 10
21.5803899524215517
 20
12.0167940837309395
 30
0.0
 40
0.0509361844305115
 50
191.7193245628172917
 51
229.4800090289186016
  0
ARC
  5
1867C
  8
0
 10
21.5955567905842187
 20
12.0367805205648501
 30
0.0
 40
0.0759975046978977
 50
230.5777316173679026
 51
295.9719285671454259
  0
ARC
  5
1867D
  8
0
 10
21.6077733403388308
 20
12.0144501664789498
 30
0.0
 40
0.0505866405458331
 50
294.6085294226576821
 51
348.6202333811327776
  0
ARC
  5
1867E
  8
0
 10
21.6111590113217495
 20
12.0104766915805907
 30
0.0
 40
0.0465954191423054
 50
352.5918795774260275
 51
60.3863557014552015
  0
ARC
  5
1867F
  8
0
 10
21.5936071771833404
 20
12.00094389034461
 30
0.0
 40
0.0160721939856908
 50
49.9931622487439995
 51
132.6314346812218048
  0
ARC
  5
18680
  8
0
 10
21.5892039157784694
 20
12.0065640013079804
 30
0.0
 40
0.0089730138911748
 50
136.2530265547939905
 51
232.308944012355397
  0
ARC
  5
18681
  8
0
 10
21.5938992693481389
 20
12.0112938024536504
 30
0.0
 40
0.015608301111903
 50
229.2838374631199088
 51
322.4433319958906736
  0
ARC
  5
18682
  8
0
 10
21.598363151771089
 20
12.0061462256967602
 30
0.0
 40
0.0090347874771952
 50
331.0996821387213913
 51
51.8861874499511018
  0
ARC
  5
18683
  8
0
 10
21.598817961782629
 20
12.0272354010118505
 30
0.0
 40
0.0727541913364428
 50
33.5128671168583168
 51
68.051791527699578
  0
ARC
  5
18684
  8
0
 10
21.5905362392779594
 20
12.01160841808219
 30
0.0
 40
0.0903627565946906
 50
66.8846465300141659
 51
97.6362368953813728
  0
ARC
  5
18685
  8
0
 10
21.5857330184742118
 20
12.0326411606491099
 30
0.0
 40
0.0689063154543858
 50
96.0015097288326302
 51
146.4255835562613868
  0
ARC
  5
18686
  8
0
 10
21.5640731072616916
 20
12.0472578939971005
 30
0.0
 40
0.0427770920595609
 50
146.6932552186530927
 51
216.1277094701931105
  0
ARC
  5
18687
  8
0
 10
21.62508096841254
 20
12.0453945939164502
 30
0.0
 40
0.0408359832320164
 50
324.0099674795754936
 51
32.6148653483363091
  0
LINE
  5
18688
  8
0
 10
21.5296483143626496
 20
12.0169006635636908
 30
0.0
 11
21.5283224637608406
 21
12.0707477023053595
 31
0.0
  0
LINE
  5
18689
  8
0
 10
21.6577538548488384
 20
12.0107082984826707
 30
0.0
 11
21.6594033710437515
 21
12.0675166688879294
 31
0.0
  0
ARC
  5
1868A
  8
0
 10
21.2537369840920185
 20
11.7283204701177706
 30
0.0
 40
0.0814285851948779
 50
58.7877506561842793
 51
109.4195158504124947
  0
ARC
  5
1868B
  8
0
 10
21.2454763571638807
 20
11.7517523139887103
 30
0.0
 40
0.0565832785065955
 50
109.4195158504124947
 51
156.6815811648768886
  0
ARC
  5
1868C
  8
0
 10
21.2281337864710302
 20
11.7616631754859906
 30
0.0
 40
0.0368021567006866
 50
160.1655474210002126
 51
192.9354238964263004
  0
ARC
  5
1868D
  8
0
 10
21.2421399458551292
 20
11.7637709453000596
 30
0.0
 40
0.0509361844305115
 50
191.7193245628172917
 51
229.4800090289186016
  0
ARC
  5
1868E
  8
0
 10
21.2573067840177892
 20
11.7837573821339792
 30
0.0
 40
0.0759975046978977
 50
230.5777316173679026
 51
295.9719285671454259
  0
ARC
  5
1868F
  8
0
 10
21.2695233337727814
 20
11.7614270280480699
 30
0.0
 40
0.0505866405458331
 50
294.6085294226576821
 51
348.6202333811327776
  0
ARC
  5
18690
  8
0
 10
21.2729090047557108
 20
11.7574535531497197
 30
0.0
 40
0.0465954191423054
 50
352.5918795774260275
 51
60.3863557014552015
  0
ARC
  5
18691
  8
0
 10
21.2553571706173017
 20
11.7479207519137407
 30
0.0
 40
0.0160721939856908
 50
49.9931622487439995
 51
132.6314346812218048
  0
ARC
  5
18692
  8
0
 10
21.25095390921242
 20
11.7535408628771094
 30
0.0
 40
0.0089730138911748
 50
136.2530265547939905
 51
232.308944012355397
  0
ARC
  5
18693
  8
0
 10
21.25564926278172
 20
11.7582706640227794
 30
0.0
 40
0.015608301111903
 50
229.2838374631199088
 51
322.4433319958906736
  0
ARC
  5
18694
  8
0
 10
21.2601131452050502
 20
11.7531230872658892
 30
0.0
 40
0.0090347874771952
 50
331.0996821387213913
 51
51.8861874499511018
  0
ARC
  5
18695
  8
0
 10
21.2587221888894398
 20
11.7721796487778398
 30
0.0
 40
0.0734279109226896
 50
35.3476094122900975
 51
67.3440795529694611
  0
ARC
  5
18696
  8
0
 10
21.2502692531215303
 20
11.7554003690735005
 30
0.0
 40
0.0921781530616727
 50
66.5127862733798167
 51
96.1464240654371167
  0
ARC
  5
18697
  8
0
 10
21.2443220608363283
 20
11.7824679720053709
 30
0.0
 40
0.0646996658841093
 50
93.4755795245134209
 51
146.9803279196814003
  0
ARC
  5
18698
  8
0
 10
21.2258231006952585
 20
11.7942347555662295
 30
0.0
 40
0.0427770920595609
 50
146.6932552186530927
 51
216.1277094701931105
  0
ARC
  5
18699
  8
0
 10
21.283096489395021
 20
11.7877645908392008
 30
0.0
 40
0.0445520661492122
 50
325.1026998779078099
 51
37.1347642154658288
  0
LINE
  5
1869A
  8
0
 10
21.1913983077962307
 20
11.7638775251328198
 30
0.0
 11
21.1900724571947912
 21
11.8177245638744903
 31
0.0
  0
LINE
  5
1869B
  8
0
 10
21.3195038482824195
 20
11.7576851600517998
 30
0.0
 11
21.3210545369423983
 21
11.8110899681046906
 31
0.0
  0
ARC
  5
1869C
  8
0
 10
21.7076373283712307
 20
11.7175848022383597
 30
0.0
 40
0.0153840837052413
 50
41.1016958909784478
 51
121.3054935444731939
  0
ARC
  5
1869D
  8
0
 10
21.7043937460355814
 20
11.72291840590335
 30
0.0
 40
0.0091416359143461
 50
121.3054935444731939
 51
181.722789251308086
  0
ARC
  5
1869E
  8
0
 10
21.7055114173950585
 20
11.7245790162782804
 30
0.0
 40
0.0104362136290162
 50
190.6876320937448952
 51
252.0938711784262125
  0
ARC
  5
1869F
  8
0
 10
21.7081857848299293
 20
11.7292030897591602
 30
0.0
 40
0.0156987869764311
 50
247.9913400818192883
 51
304.2135764775441089
  0
ARC
  5
186A0
  8
0
 10
21.7123533437945007
 20
11.7230738375592907
 30
0.0
 40
0.0082868857189146
 50
304.2135764775441089
 51
33.9204413518200383
  0
ARC
  5
186A1
  8
0
 10
21.7073686835292108
 20
11.7065804773069502
 30
0.0
 40
0.0575127863930342
 50
58.3125204431690989
 51
120.5149930794261053
  0
ARC
  5
186A2
  8
0
 10
21.6932471132658407
 20
11.72931937700125
 30
0.0
 40
0.0307591285550357
 50
119.3606026732282004
 51
176.9350478131590876
  0
ARC
  5
186A3
  8
0
 10
21.6962024850281487
 20
11.7313035619927195
 30
0.0
 40
0.0336722134492841
 50
180.5777895506998902
 51
229.5895700861404976
  0
ARC
  5
186A4
  8
0
 10
21.7072593648514811
 20
11.7432424436074001
 30
0.0
 40
0.0499350597163345
 50
228.8099397477668902
 51
264.1054657855938785
  0
ARC
  5
186A5
  8
0
 10
21.7090058199346814
 20
11.74542290172311
 30
0.0
 40
0.0523052415904863
 50
262.4475554141587281
 51
303.4080710787316093
  0
ARC
  5
186A6
  8
0
 10
21.7198238549833285
 20
11.7302267210086093
 30
0.0
 40
0.0336700686953934
 50
302.2787907366591185
 51
357.5063079853795216
  0
ARC
  5
186A7
  8
0
 10
21.7218031393394817
 20
11.7280626028020603
 30
0.0
 40
0.0316666184850566
 50
1.265111992918972
 51
60.1192659915996188
  0
ARC
  5
186A8
  8
0
 10
21.7053690352512412
 20
11.7451803871984204
 30
0.0
 40
0.0595209512502818
 50
66.7851347966877853
 51
126.2374143130689959
  0
ARC
  5
186A9
  8
0
 10
21.6934476875281312
 20
11.7614465456864803
 30
0.0
 40
0.0393539870888603
 50
126.2374143130689959
 51
180.3822980567857996
  0
ARC
  5
186AA
  8
0
 10
21.6891934963940614
 20
11.7614181597712602
 30
0.0
 40
0.0350997012536916
 50
180.3822980567846059
 51
220.083103839570299
  0
ARC
  5
186AB
  8
0
 10
21.70909265840789
 20
11.7481864025176996
 30
0.0
 40
0.055335788349246
 50
34.4458860179218931
 51
69.1022293213635521
  0
ARC
  5
186AC
  8
0
 10
21.7243028873539785
 20
11.7586189657546001
 30
0.0
 40
0.0368915632287984
 50
346.9038424868800234
 51
34.4458860178853072
  0
ARC
  5
186AD
  8
0
 10
21.7286833320438113
 20
11.7575999140177903
 30
0.0
 40
0.0323941459564176
 50
320.4648164003203874
 51
346.9038424868791139
  0
LINE
  5
186AE
  8
0
 10
21.6612232220246383
 20
11.7840368117940102
 30
0.0
 11
21.6625319836907693
 21
11.7309640060351708
 31
0.0
  0
LINE
  5
186AF
  8
0
 10
21.7547259124058883
 20
11.7794858530203594
 30
0.0
 11
21.75346203872326
 21
11.7287617566303606
 31
0.0
  0
ARC
  5
186B0
  8
0
 10
21.8528585356400384
 20
11.3580252026350692
 30
0.0
 40
0.0592961474366655
 50
63.8303538363823009
 51
121.3231844264910961
  0
ARC
  5
186B1
  8
0
 10
21.8370623620982407
 20
11.3831456557708499
 30
0.0
 40
0.0296283499728172
 50
120.4826824359104052
 51
175.223604915136292
  0
ARC
  5
186B2
  8
0
 10
21.8387608826098294
 20
11.3850409432977795
 30
0.0
 40
0.0312292135216509
 50
178.9508956355172984
 51
224.8578553379230982
  0
ARC
  5
186B3
  8
0
 10
21.8518256131968087
 20
11.3989247143650907
 30
0.0
 40
0.0502870881294772
 50
225.5716022599727069
 51
267.6883600858054137
  0
ARC
  5
186B4
  8
0
 10
21.8546353979466588
 20
11.39763388592886
 30
0.0
 40
0.0491938236022433
 50
264.3559635451591134
 51
320.0884254303770149
  0
ARC
  5
186B5
  8
0
 10
21.86890591143856
 20
11.3841438580080094
 30
0.0
 40
0.0296165378261604
 50
322.3937290005800946
 51
5.7302640299888594
  0
ARC
  5
186B6
  8
0
 10
21.8656006551052116
 20
11.3806501234416793
 30
0.0
 40
0.0334026173727088
 50
11.1350846600105893
 51
66.3315067065645962
  0
ARC
  5
186B7
  8
0
 10
21.8530281208953703
 20
11.3706495205073495
 30
0.0
 40
0.0161965119161254
 50
59.770461572476691
 51
128.463642642467903
  0
ARC
  5
186B8
  8
0
 10
21.8476794354403303
 20
11.3775901523175005
 30
0.0
 40
0.007436119940705
 50
129.4588816932956945
 51
229.8757313269387055
  0
ARC
  5
186B9
  8
0
 10
21.8531611029606694
 20
11.3840467629909092
 30
0.0
 40
0.0159058343624177
 50
229.7654978382479953
 51
283.8855472707696777
  0
ARC
  5
186BA
  8
0
 10
21.8552866959223984
 20
11.3794204716132707
 30
0.0
 40
0.0109462157055779
 50
278.8896497492463027
 51
340.9376476219167102
  0
ARC
  5
186BB
  8
0
 10
21.8574543572410391
 20
11.3772333135884693
 30
0.0
 40
0.0082952258727516
 50
350.3687697872044851
 51
63.2926916740733887
  0
ARC
  5
186BC
  8
0
 10
21.8748031415903412
 20
11.4134341562115296
 30
0.0
 40
0.0315454635445796
 50
318.8089322337897897
 51
25.3701756518696087
  0
ARC
  5
186BD
  8
0
 10
21.8590794078687303
 20
11.4048645176620393
 30
0.0
 40
0.0494348041205298
 50
26.5363454277158013
 51
67.6944984326057977
  0
ARC
  5
186BE
  8
0
 10
21.8510434948036085
 20
11.3898839438702097
 30
0.0
 40
0.0663674662265247
 50
66.1845561571513343
 51
110.6516816749987981
  0
ARC
  5
186BF
  8
0
 10
21.8445715414902715
 20
11.4067386768849293
 30
0.0
 40
0.0483133509000514
 50
110.5192718953540947
 51
142.408216128458804
  0
ARC
  5
186C0
  8
0
 10
21.8336450744205415
 20
11.4152551306575791
 30
0.0
 40
0.0344602622068042
 50
142.5458075668350091
 51
183.7680847470620904
  0
ARC
  5
186C1
  8
0
 10
21.8339809662320299
 20
11.4160026497371305
 30
0.0
 40
0.0348520706923801
 50
184.9581238160558883
 51
220.1504835105203881
  0
LINE
  5
186C2
  8
0
 10
21.8062891472067513
 20
11.4362113449538398
 30
0.0
 11
21.8075369040188889
 21
11.3856127283398507
 31
0.0
  0
LINE
  5
186C3
  8
0
 10
21.8997539950434899
 20
11.4329603859808309
 30
0.0
 11
21.89837445452984
 21
11.3871009310347802
 31
0.0
  0
ARC
  5
186C4
  8
0
 10
21.5318243826305107
 20
11.4411307495703092
 30
0.0
 40
0.0153840837052413
 50
41.1016958909784478
 51
121.3054935444731939
  0
ARC
  5
186C5
  8
0
 10
21.5285808002948613
 20
11.4464643532352994
 30
0.0
 40
0.0091416359143461
 50
121.3054935444731939
 51
181.722789251308086
  0
ARC
  5
186C6
  8
0
 10
21.5296984716547186
 20
11.4481249636102298
 30
0.0
 40
0.0104362136290162
 50
190.6876320937448952
 51
252.0938711784262125
  0
ARC
  5
186C7
  8
0
 10
21.5323728390891986
 20
11.4527490370911096
 30
0.0
 40
0.0156987869764311
 50
247.9913400818192883
 51
304.2135764775441089
  0
ARC
  5
186C8
  8
0
 10
21.5365403980537806
 20
11.4466197848912401
 30
0.0
 40
0.0082868857189146
 50
304.2135764775441089
 51
33.9204413518200383
  0
ARC
  5
186C9
  8
0
 10
21.5315557377884801
 20
11.4301264246388996
 30
0.0
 40
0.0575127863930342
 50
58.3125204431690989
 51
120.5149930794261053
  0
ARC
  5
186CA
  8
0
 10
21.5174341675251206
 20
11.4528653243331995
 30
0.0
 40
0.0307591285550357
 50
119.3606026732282004
 51
176.9350478131590876
  0
ARC
  5
186CB
  8
0
 10
21.5203895392878017
 20
11.4548495093246707
 30
0.0
 40
0.0336722134492841
 50
180.5777895506998902
 51
229.5895700861404976
  0
ARC
  5
186CC
  8
0
 10
21.5314464191107504
 20
11.4667883909393495
 30
0.0
 40
0.0499350597163345
 50
228.8099397477668902
 51
264.1054657855938785
  0
ARC
  5
186CD
  8
0
 10
21.5331928741939613
 20
11.4689688490550701
 30
0.0
 40
0.0523052415904863
 50
262.4475554141587281
 51
303.4080710787316093
  0
ARC
  5
186CE
  8
0
 10
21.5440109092429815
 20
11.4537726683405605
 30
0.0
 40
0.0336700686953934
 50
302.2787907366591185
 51
357.5063079853795216
  0
ARC
  5
186CF
  8
0
 10
21.5459901935987617
 20
11.4516085501340097
 30
0.0
 40
0.0316666184850566
 50
1.265111992918972
 51
60.1192659915996188
  0
ARC
  5
186D0
  8
0
 10
21.5295560895105211
 20
11.4687263345303698
 30
0.0
 40
0.0595209512502818
 50
66.7851347966877853
 51
126.2374143130689959
  0
ARC
  5
186D1
  8
0
 10
21.5176347417874005
 20
11.4849924930184297
 30
0.0
 40
0.0393539870888603
 50
126.2374143130689959
 51
180.3822980567857996
  0
ARC
  5
186D2
  8
0
 10
21.5133805506533413
 20
11.4849641071032096
 30
0.0
 40
0.0350997012536916
 50
180.3822980567848902
 51
220.083103839570299
  0
ARC
  5
186D3
  8
0
 10
21.53327971266717
 20
11.4717323498496508
 30
0.0
 40
0.055335788349246
 50
34.4458860179218931
 51
69.1022293213635521
  0
ARC
  5
186D4
  8
0
 10
21.5484899416136315
 20
11.4821649130865495
 30
0.0
 40
0.0368915632287984
 50
346.9038424868800234
 51
34.4458860178853072
  0
ARC
  5
186D5
  8
0
 10
21.5528703863030913
 20
11.4811458613497397
 30
0.0
 40
0.0323941459564176
 50
320.4648164003203874
 51
346.9038424868791139
  0
LINE
  5
186D6
  8
0
 10
21.4854102762842913
 20
11.5075827591259596
 30
0.0
 11
21.4867190379500492
 21
11.4545099533671202
 31
0.0
  0
LINE
  5
186D7
  8
0
 10
21.5789129666651682
 20
11.5030318003523107
 30
0.0
 11
21.5776490929829201
 21
11.45230770396231
 31
0.0
  0
ARC
  5
186D8
  8
0
 10
21.1300295204691508
 20
11.4216907484722601
 30
0.0
 40
0.0153840837052413
 50
41.1016958909784478
 51
121.3054935444731939
  0
ARC
  5
186D9
  8
0
 10
21.126785938133871
 20
11.4270243521372503
 30
0.0
 40
0.0091416359143461
 50
121.3054935444731939
 51
181.722789251308086
  0
ARC
  5
186DA
  8
0
 10
21.1279036094933588
 20
11.42868496251217
 30
0.0
 40
0.0104362136290162
 50
190.6876320937448952
 51
252.0938711784262125
  0
ARC
  5
186DB
  8
0
 10
21.1305779769282083
 20
11.4333090359930498
 30
0.0
 40
0.0156987869764311
 50
247.9913400818192883
 51
304.2135764775441089
  0
ARC
  5
186DC
  8
0
 10
21.1347455358927903
 20
11.4271797837931892
 30
0.0
 40
0.0082868857189146
 50
304.2135764775441089
 51
33.9204413518200383
  0
ARC
  5
186DD
  8
0
 10
21.1279779529278393
 20
11.4055338731957097
 30
0.0
 40
0.061187437405535
 50
59.4437542845653226
 51
116.623835664170997
  0
ARC
  5
186DE
  8
0
 10
21.1156393053637501
 20
11.4334253232351504
 30
0.0
 40
0.0307591285550357
 50
119.3606026732282004
 51
176.9350478131590876
  0
ARC
  5
186DF
  8
0
 10
21.1185946771264383
 20
11.4354095082266092
 30
0.0
 40
0.0336722134492841
 50
180.5777895506998902
 51
229.5895700861404976
  0
ARC
  5
186E0
  8
0
 10
21.12965155694976
 20
11.4473483898413004
 30
0.0
 40
0.0499350597163345
 50
228.8099397477668902
 51
264.1054657855938785
  0
ARC
  5
186E1
  8
0
 10
21.131398012032971
 20
11.4495288479570103
 30
0.0
 40
0.0523052415904863
 50
262.4475554141587281
 51
303.4080710787316093
  0
ARC
  5
186E2
  8
0
 10
21.142216047081611
 20
11.4343326672425007
 30
0.0
 40
0.0336700686953934
 50
302.2787907366591185
 51
357.5063079853795216
  0
ARC
  5
186E3
  8
0
 10
21.1429725695153508
 20
11.4293449438468109
 30
0.0
 40
0.0330698273561249
 50
6.115027887276292
 51
60.8423463133755504
  0
ARC
  5
186E4
  8
0
 10
21.1241881254665209
 20
11.44039448588852
 30
0.0
 40
0.0650914677957835
 50
66.043413026820744
 51
119.0550622331085009
  0
ARC
  5
186E5
  8
0
 10
21.1110585102183812
 20
11.4679562397309809
 30
0.0
 40
0.0346744089484047
 50
122.2095318573063025
 51
184.4101805125270914
  0
ARC
  5
186E6
  8
0
 10
21.1188129436927916
 20
11.4713769867918192
 30
0.0
 40
0.0427616370856684
 50
188.1837964595119956
 51
217.0034071861051927
  0
ARC
  5
186E7
  8
0
 10
21.1297439753889691
 20
11.4452545532474304
 30
0.0
 40
0.0584765883074092
 50
35.8914155501627476
 51
69.0859970788977762
  0
ARC
  5
186E8
  8
0
 10
21.1492508470646783
 20
11.4593980025581406
 30
0.0
 40
0.0343818924162075
 50
351.4028859149976256
 51
35.8545826225244397
  0
ARC
  5
186E9
  8
0
 10
21.151720315950751
 20
11.4598892417504992
 30
0.0
 40
0.0320250157490446
 50
319.3589933316360998
 51
349.8732619406359845
  0
LINE
  5
186EA
  8
0
 10
21.0835913364164114
 20
11.48911915539143
 30
0.0
 11
21.0849241757890589
 21
11.4350699522690604
 31
0.0
  0
LINE
  5
186EB
  8
0
 10
21.1771175838007508
 20
11.4795365106903606
 30
0.0
 11
21.1758542308215603
 21
11.4328677028642502
 31
0.0
  0
ARC
  5
186EC
  8
0
 10
21.5101069120006905
 20
11.18174323045832
 30
0.0
 40
0.0592961474366655
 50
63.8303538363823009
 51
121.3231844264910961
  0
ARC
  5
186ED
  8
0
 10
21.4943107384588714
 20
11.20686368359409
 30
0.0
 40
0.0296283499728172
 50
120.4826824359104052
 51
175.223604915136292
  0
ARC
  5
186EE
  8
0
 10
21.4960092589704708
 20
11.2087589711210196
 30
0.0
 40
0.0312292135216509
 50
178.9508956355172984
 51
224.8578553379230982
  0
ARC
  5
186EF
  8
0
 10
21.5090739895574501
 20
11.2226427421883308
 30
0.0
 40
0.0502870881294772
 50
225.5716022599727069
 51
267.6883600858054137
  0
ARC
  5
186F0
  8
0
 10
21.5118837743073108
 20
11.2213519137521001
 30
0.0
 40
0.0491938236022433
 50
264.3559635451591134
 51
320.0884254303770149
  0
ARC
  5
186F1
  8
0
 10
21.5261542877992014
 20
11.2078618858312602
 30
0.0
 40
0.0296165378261604
 50
322.3937290005800946
 51
5.7302640299888594
  0
ARC
  5
186F2
  8
0
 10
21.5228490314658494
 20
11.20436815126493
 30
0.0
 40
0.0334026173727088
 50
11.1350846600105893
 51
66.3315067065645962
  0
ARC
  5
186F3
  8
0
 10
21.5102764972560117
 20
11.1943675483306002
 30
0.0
 40
0.0161965119161254
 50
59.770461572476691
 51
128.463642642467903
  0
ARC
  5
186F4
  8
0
 10
21.5049278118009788
 20
11.2013081801407495
 30
0.0
 40
0.007436119940705
 50
129.4588816932956945
 51
229.8757313269387055
  0
ARC
  5
186F5
  8
0
 10
21.5104094793213108
 20
11.20776479081416
 30
0.0
 40
0.0159058343624177
 50
229.7654978382479953
 51
283.8855472707696777
  0
ARC
  5
186F6
  8
0
 10
21.5125350722830397
 20
11.2031384994365197
 30
0.0
 40
0.0109462157055779
 50
278.8896497492463027
 51
340.9376476219167102
  0
ARC
  5
186F7
  8
0
 10
21.5147027336016805
 20
11.2009513414117094
 30
0.0
 40
0.0082952258727516
 50
350.3687697872044851
 51
63.2926916740733887
  0
ARC
  5
186F8
  8
0
 10
21.5340904255727317
 20
11.2362208180727396
 30
0.0
 40
0.0294047850838485
 50
317.5580814845138775
 51
28.6700846966813216
  0
ARC
  5
186F9
  8
0
 10
21.5153357158977094
 20
11.2246720955734602
 30
0.0
 40
0.0514133136047341
 50
29.9349930939505988
 51
68.3744172182107235
  0
ARC
  5
186FA
  8
0
 10
21.5050525081806398
 20
11.2049548210924197
 30
0.0
 40
0.0735682357919842
 50
66.5884725446649242
 51
105.9103709158106028
  0
ARC
  5
186FB
  8
0
 10
21.5002244703881509
 20
11.2297381508339598
 30
0.0
 40
0.0484585439834781
 50
108.4543028838384942
 51
139.285725193974514
  0
ARC
  5
186FC
  8
0
 10
21.487971364095479
 20
11.2410964066699197
 30
0.0
 40
0.0317681749888255
 50
140.3980371999221859
 51
187.9392379828782111
  0
ARC
  5
186FD
  8
0
 10
21.4947607804110099
 20
11.2438504586700994
 30
0.0
 40
0.0389140981740049
 50
190.5755275957536128
 51
219.0460391668596003
  0
LINE
  5
186FE
  8
0
 10
21.4635023326705188
 20
11.26135642223616
 30
0.0
 11
21.4647852803795303
 21
11.2093307561630997
 31
0.0
  0
LINE
  5
186FF
  8
0
 10
21.5569478922251285
 20
11.2548673865493996
 30
0.0
 11
21.5556228308904814
 21
11.2108189588580291
 31
0.0
  0
ARC
  5
18700
  8
0
 10
20.8273759987726592
 20
11.5878789595249199
 30
0.0
 40
0.081866589659302
 50
58.4160227385440365
 51
107.279380837597202
  0
ARC
  5
18701
  8
0
 10
20.8151794737180182
 20
11.6184591831130408
 30
0.0
 40
0.0491106846302378
 50
104.2881061013327013
 51
158.5117607384920859
  0
ARC
  5
18702
  8
0
 10
20.8041012754816101
 20
11.6239618246705998
 30
0.0
 40
0.0368021567006866
 50
160.1655474210002126
 51
192.9354238964263004
  0
ARC
  5
18703
  8
0
 10
20.8206045064952114
 20
11.6305548361865707
 30
0.0
 40
0.0544310242119485
 50
195.8117956100774109
 51
230.5545608989561117
  0
ARC
  5
18704
  8
0
 10
20.8358191504820809
 20
11.6490949984905505
 30
0.0
 40
0.0784148182914397
 50
230.5765989125607973
 51
293.3062608770283077
  0
ARC
  5
18705
  8
0
 10
20.8503504720321615
 20
11.6192135229654099
 30
0.0
 40
0.0452479626365586
 50
291.3772154336579092
 51
356.8426505961469957
  0
ARC
  5
18706
  8
0
 10
20.8481403430244505
 20
11.6156925027187299
 30
0.0
 40
0.0474005740237669
 50
1.243716917502693
 51
62.1916650079786208
  0
ARC
  5
18707
  8
0
 10
20.8387442248738708
 20
11.6343248723618995
 30
0.0
 40
0.0709163335663502
 50
37.3457698386505683
 51
70.3904681988914405
  0
ARC
  5
18708
  8
0
 10
20.8249489791216007
 20
11.6017139286434894
 30
0.0
 40
0.1062854786950816
 50
69.2849515190808063
 51
94.5577120797891268
  0
ARC
  5
18709
  8
0
 10
20.8186092405585086
 20
11.6419476626770297
 30
0.0
 40
0.0657493871196272
 50
91.8355802099831635
 51
142.8318051473220862
  0
ARC
  5
1870A
  8
0
 10
20.8021718146554697
 20
11.6577362404621692
 30
0.0
 40
0.0431935970845182
 50
146.3499879989253998
 51
216.0242653681009131
  0
ARC
  5
1870B
  8
0
 10
20.8635655929469088
 20
11.6526445854460192
 30
0.0
 40
0.0400734798767562
 50
323.5490614950979875
 51
38.0510294504951574
  0
LINE
  5
1870C
  8
0
 10
20.7673657968067999
 20
11.6261761743174308
 30
0.0
 11
20.7662158281685088
 21
11.6816706062328493
 31
0.0
  0
LINE
  5
1870D
  8
0
 10
20.8955297501035595
 20
11.6167213440528592
 30
0.0
 11
20.8968206158060887
 21
11.6747286538803596
 31
0.0
  0
ARC
  5
1870E
  8
0
 10
20.8306854427380905
 20
11.6083093594773405
 30
0.0
 40
0.0167278778278162
 50
57.0498995522310821
 51
123.0586464376793998
  0
ARC
  5
1870F
  8
0
 10
20.8258856211835308
 20
11.6156839000543108
 30
0.0
 40
0.007928892904741
 50
123.0586464376793998
 51
183.7183486581749889
  0
ARC
  5
18710
  8
0
 10
20.8293048336735289
 20
11.6167188729617905
 30
0.0
 40
0.0114368220125904
 50
187.784940291613907
 51
248.3429169050768053
  0
ARC
  5
18711
  8
0
 10
20.8324821891836507
 20
11.6216306543025496
 30
0.0
 40
0.0172123003155422
 50
244.5441143658615886
 51
293.6145141077591916
  0
ARC
  5
18712
  8
0
 10
20.8363592864152913
 20
11.6139551645827002
 30
0.0
 40
0.008639674937377
 50
290.4444167793964766
 51
18.3762995769710216
  0
ARC
  5
18713
  8
0
 10
20.8329253141883299
 20
11.6117237639532291
 30
0.0
 40
0.0126444338016829
 50
23.0715964212356113
 51
57.1516393822362474
  0
ARC
  5
18714
  8
0
 10
21.2022297688189205
 20
11.1199797212765805
 30
0.0
 40
0.0158521365013653
 50
41.7179398378526969
 51
119.7505691165529953
  0
ARC
  5
18715
  8
0
 10
21.1979233429334393
 20
11.1269240771129194
 30
0.0
 40
0.0076917093726403
 50
117.5686023133857958
 51
187.2883450756145862
  0
ARC
  5
18716
  8
0
 10
21.2007364596613606
 20
11.1287896011023602
 30
0.0
 40
0.010822320685494
 50
195.2209619549468869
 51
252.6591094220800073
  0
ARC
  5
18717
  8
0
 10
21.2035431655156401
 20
11.1338408269973002
 30
0.0
 40
0.016522249040295
 50
248.5859189158612992
 51
299.2376152552977828
  0
ARC
  5
18718
  8
0
 10
21.2079365515888689
 20
11.1260570003995607
 30
0.0
 40
0.007584262992167
 50
298.9973735163088122
 51
36.1292565544058633
  0
ARC
  5
18719
  8
0
 10
21.2004181262795015
 20
11.1042584148324792
 30
0.0
 40
0.061187437405535
 50
59.4437542845653226
 51
116.623835664170997
  0
ARC
  5
1871A
  8
0
 10
21.1880794787157889
 20
11.1321498648719306
 30
0.0
 40
0.0307591285550357
 50
119.3606026732282004
 51
176.9350478131590876
  0
ARC
  5
1871B
  8
0
 10
21.1922932001669686
 20
11.1371398723353305
 30
0.0
 40
0.0350886903552396
 50
185.4709264253100969
 51
234.2016402989297035
  0
ARC
  5
1871C
  8
0
 10
21.2031638971309206
 20
11.15032548028557
 30
0.0
 40
0.0521536183226712
 50
232.988375472200886
 51
263.6262783520625135
  0
ARC
  5
1871D
  8
0
 10
21.2052692010503314
 20
11.1515274895084495
 30
0.0
 40
0.0536177082253866
 50
261.5325868623473866
 51
300.2098097032198893
  0
ARC
  5
1871E
  8
0
 10
21.2175217671928102
 20
11.13221923334876
 30
0.0
 40
0.0307790237299578
 50
298.584048981911792
 51
358.8327667547773103
  0
ARC
  5
1871F
  8
0
 10
21.2154127428673895
 20
11.1280694854835893
 30
0.0
 40
0.0330698273561249
 50
6.115027887276292
 51
60.8423463133755504
  0
ARC
  5
18720
  8
0
 10
21.1977049157226496
 20
11.1332240866617607
 30
0.0
 40
0.0701228108541883
 50
68.8041422985682658
 51
117.4608017982993005
  0
ARC
  5
18721
  8
0
 10
21.1800644489245791
 20
11.16827271331106
 30
0.0
 40
0.0308926827110687
 50
118.405851799127106
 51
187.7726473473234989
  0
ARC
  5
18722
  8
0
 10
21.1875170777717301
 20
11.1706628930843799
 30
0.0
 40
0.0386240566200159
 50
189.7909746466762044
 51
217.9020353755913959
  0
ARC
  5
18723
  8
0
 10
21.2034809939326507
 20
11.14345657636912
 30
0.0
 40
0.0585184515135889
 50
37.921905711691501
 51
70.4548462877736341
  0
ARC
  5
18724
  8
0
 10
21.225184094799161
 20
11.1603186103152101
 30
0.0
 40
0.0310348160716966
 50
346.4909969634464915
 51
37.9899166448626531
  0
ARC
  5
18725
  8
0
 10
21.2251050171239193
 20
11.1614065890804
 30
0.0
 40
0.0313830729986076
 50
318.3272964917766217
 51
344.5930170662387013
  0
LINE
  5
18726
  8
0
 10
21.1560353449923184
 20
11.1876881713099898
 30
0.0
 11
21.1573643491407211
 21
11.1337944939058406
 31
0.0
  0
LINE
  5
18727
  8
0
 10
21.2496432258084589
 20
11.1794212467528595
 30
0.0
 11
21.2482944041735884
 21
11.1315922445010198
 31
0.0
  0
ARC
  5
18728
  8
0
 10
20.7507532684110494
 20
11.2341143847494909
 30
0.0
 40
0.0862984784170319
 50
59.8365417835664317
 51
105.633179007573105
  0
ARC
  5
18729
  8
0
 10
20.7371761818558298
 20
11.2718088482663497
 30
0.0
 40
0.0464314585850505
 50
102.031251629496694
 51
159.3102724209230132
  0
ARC
  5
1872A
  8
0
 10
20.7283581483690007
 20
11.2757263083663002
 30
0.0
 40
0.0368021567006866
 50
160.1655474210002126
 51
192.9354238964263004
  0
ARC
  5
1872B
  8
0
 10
20.7457544692911
 20
11.2849644115513108
 30
0.0
 40
0.0560583225035373
 50
198.164923760551801
 51
231.5292176364214924
  0
ARC
  5
1872C
  8
0
 10
20.7602058416780189
 20
11.3047621305494008
 30
0.0
 40
0.0805551174253542
 50
232.2420051902620912
 51
292.1547415165385928
  0
ARC
  5
1872D
  8
0
 10
20.7756747622105102
 20
11.27180272550045
 30
0.0
 40
0.044236388553091
 50
289.6962687471365143
 51
355.6998575669791762
  0
ARC
  5
1872E
  8
0
 10
20.7706857767583202
 20
11.2654723678819604
 30
0.0
 40
0.0491932316597287
 50
3.5120013950788578
 51
61.5572530734775114
  0
ARC
  5
1872F
  8
0
 10
20.7540537388488318
 20
11.2741146060062203
 30
0.0
 40
0.081723621992237
 50
39.7170522458135622
 51
67.4567984837616592
  0
ARC
  5
18730
  8
0
 10
20.7463145376816911
 20
11.2581493368670191
 30
0.0
 40
0.0994413552654253
 50
66.8650024566255325
 51
93.1352615612743762
  0
ARC
  5
18731
  8
0
 10
20.7415181641483315
 20
11.2911781941053508
 30
0.0
 40
0.0662667680435961
 50
90.555447407561843
 51
140.3810690009703137
  0
ARC
  5
18732
  8
0
 10
20.7264286875428603
 20
11.3095007241578696
 30
0.0
 40
0.0431935970845182
 50
146.3499879989253998
 51
216.0242653681009131
  0
ARC
  5
18733
  8
0
 10
20.7872080020997991
 20
11.2990528524506804
 30
0.0
 40
0.0403353421767154
 50
324.24825872595909
 51
42.5630768179621271
  0
LINE
  5
18734
  8
0
 10
20.6916226696942012
 20
11.2779406580131205
 30
0.0
 11
20.69047270105591
 21
11.3334350899285496
 31
0.0
  0
LINE
  5
18735
  8
0
 10
20.8197866229909607
 20
11.2684858277485596
 30
0.0
 11
20.8209583679560097
 21
11.3211402387397406
 31
0.0
  0
ARC
  5
18736
  8
0
 10
20.7549423156254917
 20
11.2600738431730303
 30
0.0
 40
0.0167278778278162
 50
57.0498995522310821
 51
123.0586464376793998
  0
ARC
  5
18737
  8
0
 10
20.7501424940709214
 20
11.2674483837500095
 30
0.0
 40
0.007928892904741
 50
123.0586464376793998
 51
183.7183486581749889
  0
ARC
  5
18738
  8
0
 10
20.7535617065609301
 20
11.2684833566574891
 30
0.0
 40
0.0114368220125904
 50
187.784940291613907
 51
248.3429169050768053
  0
ARC
  5
18739
  8
0
 10
20.7567390620710412
 20
11.27339513799825
 30
0.0
 40
0.0172123003155422
 50
244.5441143658615886
 51
293.6145141077591916
  0
ARC
  5
1873A
  8
0
 10
20.760616159302689
 20
11.2657196482784006
 30
0.0
 40
0.008639674937377
 50
290.4444167793964766
 51
18.3762995769710216
  0
ARC
  5
1873B
  8
0
 10
20.7571821870761006
 20
11.2634882476489206
 30
0.0
 40
0.0126444338016829
 50
23.0715964212356113
 51
57.1516393822362474
  0
ARC
  5
1873C
  8
0
 10
20.9090496570139592
 20
10.9401811233940194
 30
0.0
 40
0.0158521365013653
 50
41.7179398378526969
 51
119.7505691165529953
  0
ARC
  5
1873D
  8
0
 10
20.9047432311284886
 20
10.9471254792303601
 30
0.0
 40
0.0076917093726403
 50
117.5686023133857958
 51
187.2883450756145862
  0
ARC
  5
1873E
  8
0
 10
20.9075563478564099
 20
10.9489910032198097
 30
0.0
 40
0.010822320685494
 50
195.2209619549468869
 51
252.6591094220800073
  0
ARC
  5
1873F
  8
0
 10
20.9103630537106788
 20
10.9540422291147497
 30
0.0
 40
0.016522249040295
 50
248.5859189158612992
 51
299.2376152552977828
  0
ARC
  5
18740
  8
0
 10
20.9147564397842913
 20
10.9462584025169996
 30
0.0
 40
0.007584262992167
 50
298.9973735163088122
 51
36.1292565544058633
  0
ARC
  5
18741
  8
0
 10
20.9072380144749204
 20
10.9244598169499305
 30
0.0
 40
0.061187437405535
 50
59.4437542845653226
 51
116.623835664170997
  0
ARC
  5
18742
  8
0
 10
20.8948993669108383
 20
10.9523512669893694
 30
0.0
 40
0.0307591285550357
 50
119.3606026732282004
 51
176.9350478131590876
  0
ARC
  5
18743
  8
0
 10
20.8991130883620109
 20
10.9573412744527694
 30
0.0
 40
0.0350886903552396
 50
185.4709264253100969
 51
234.2016402989297035
  0
ARC
  5
18744
  8
0
 10
20.9099837853259807
 20
10.9705268824030107
 30
0.0
 40
0.0521536183226712
 50
232.988375472200886
 51
263.6262783520625135
  0
ARC
  5
18745
  8
0
 10
20.9120890892453808
 20
10.9717288916259008
 30
0.0
 40
0.0536177082253866
 50
261.5325868623473866
 51
300.2098097032198893
  0
ARC
  5
18746
  8
0
 10
20.9243416553878596
 20
10.9524206354662006
 30
0.0
 40
0.0307790237299578
 50
298.584048981911792
 51
358.8327667547773103
  0
ARC
  5
18747
  8
0
 10
20.9222326310624389
 20
10.94827088760103
 30
0.0
 40
0.0330698273561249
 50
6.115027887276292
 51
60.8423463133755504
  0
ARC
  5
18748
  8
0
 10
20.9027026480530083
 20
10.9489612899994793
 30
0.0
 40
0.0727903376100383
 50
68.7152013800858015
 51
114.3299991640928965
  0
ARC
  5
18749
  8
0
 10
20.8853406267607085
 20
10.9887343568771598
 30
0.0
 40
0.0294020539197609
 50
115.4332367946318953
 51
188.681999283534509
  0
ARC
  5
1874A
  8
0
 10
20.8973614907052614
 20
10.9952344841059908
 30
0.0
 40
0.0425171528480206
 50
194.9081167566791919
 51
217.8988152150201927
  0
ARC
  5
1874B
  8
0
 10
20.9095288127870305
 20
10.9604924068666705
 30
0.0
 40
0.0596075444115648
 50
38.1589725813203984
 51
70.8060176383283846
  0
ARC
  5
1874C
  8
0
 10
20.9324297401505106
 20
10.9783562628961597
 30
0.0
 40
0.0305636263152084
 50
350.2781478413489253
 51
38.3518620163007569
  0
ARC
  5
1874D
  8
0
 10
20.9346139924833885
 20
10.9791699114124803
 30
0.0
 40
0.0285721370810018
 50
316.4765588765807252
 51
347.929665491637877
  0
LINE
  5
1874E
  8
0
 10
20.8628602856177601
 20
11.0076846876602108
 30
0.0
 11
20.8641842373357704
 21
10.9539958960232795
 31
0.0
  0
LINE
  5
1874F
  8
0
 10
20.9563981958317314
 20
10.9973206607457801
 30
0.0
 11
20.9551142923686413
 21
10.9517936466184693
 31
0.0
  0
ARC
  5
18750
  8
0
 10
20.5341362459676198
 20
10.94444119744632
 30
0.0
 40
0.0890371202900475
 50
60.7341779655421306
 51
104.0607350561894009
  0
ARC
  5
18751
  8
0
 10
20.5229897675226489
 20
10.9827587522337495
 30
0.0
 40
0.0491825462512925
 50
102.3092284624978987
 51
155.2413442388699991
  0
ARC
  5
18752
  8
0
 10
20.5129470241814396
 20
10.9908691464581008
 30
0.0
 40
0.0368021567006866
 50
160.1655474210002126
 51
192.9354238964263004
  0
ARC
  5
18753
  8
0
 10
20.5303433451039083
 20
11.0001072496431096
 30
0.0
 40
0.0560583225035373
 50
198.164923760551801
 51
231.5292176364214924
  0
ARC
  5
18754
  8
0
 10
20.5447947174908307
 20
11.0199049686411996
 30
0.0
 40
0.0805551174253542
 50
232.2420051902620912
 51
292.1547415165385928
  0
ARC
  5
18755
  8
0
 10
20.5602636380229491
 20
10.9869455635922595
 30
0.0
 40
0.044236388553091
 50
289.6962687471365143
 51
355.6998575669791762
  0
ARC
  5
18756
  8
0
 10
20.5553937300725416
 20
10.9781435626668298
 30
0.0
 40
0.0492879298087027
 50
6.3895076653078648
 51
63.1393271436527925
  0
ARC
  5
18757
  8
0
 10
20.5469957766386386
 20
10.9976004517050292
 30
0.0
 40
0.0725393090640524
 50
38.758796848790162
 51
73.8009126384935854
  0
ARC
  5
18758
  8
0
 10
20.53618046364139
 20
10.9697236233376607
 30
0.0
 40
0.1023598401536645
 50
72.3403904286149384
 51
95.9492708501865366
  0
ARC
  5
18759
  8
0
 10
20.5308238589652987
 20
10.9929249256769896
 30
0.0
 40
0.0787825410512952
 50
93.8229958375762152
 51
135.056197555803692
  0
ARC
  5
1875A
  8
0
 10
20.5074862655307406
 20
11.0256716009104103
 30
0.0
 40
0.0396996253951902
 50
144.7608163125273109
 51
217.6134370545429135
  0
ARC
  5
1875B
  8
0
 10
20.5742551890610592
 20
11.0185831573084005
 30
0.0
 40
0.0381531423726703
 50
322.7864932945557825
 51
39.8153249161910878
  0
LINE
  5
1875C
  8
0
 10
20.47621154550664
 20
10.9930834961049193
 30
0.0
 11
20.4750615768683488
 21
11.0485779280203609
 31
0.0
  0
LINE
  5
1875D
  8
0
 10
20.6043754988033889
 20
10.9836286658403601
 30
0.0
 11
20.6056362599031111
 21
11.0402831726474702
 31
0.0
  0
ARC
  5
1875E
  8
0
 10
20.5390903231678017
 20
10.9730430014513392
 30
0.0
 40
0.0176971824567109
 50
59.5072723493722577
 51
118.0503098536732978
  0
ARC
  5
1875F
  8
0
 10
20.5345102799751409
 20
10.9819405760652504
 30
0.0
 40
0.0076923220545077
 50
119.1080953176062991
 51
178.9836658847511899
  0
ARC
  5
18760
  8
0
 10
20.5381505823733583
 20
10.9836261947492897
 30
0.0
 40
0.0114368220125904
 50
187.784940291613907
 51
248.3429169050768053
  0
ARC
  5
18761
  8
0
 10
20.5413279378834801
 20
10.9885379760900506
 30
0.0
 40
0.0172123003155422
 50
244.5441143658615886
 51
293.6145141077591916
  0
ARC
  5
18762
  8
0
 10
20.54577728776923
 20
10.9802363910332392
 30
0.0
 40
0.007859545527707
 50
288.1291284671642074
 51
23.5252248087539613
  0
ARC
  5
18763
  8
0
 10
20.5420872907320913
 20
10.9774033132361595
 30
0.0
 40
0.0124246895757921
 50
28.7189769650948712
 51
61.2133860824818825
  0
ARC
  5
18764
  8
0
 10
21.3781139964822593
 20
10.9090873556391905
 30
0.0
 40
0.0158521365013653
 50
41.7179398378526969
 51
119.7505691165529953
  0
ARC
  5
18765
  8
0
 10
21.3738075705967887
 20
10.9160317114755294
 30
0.0
 40
0.0076917093726403
 50
117.5686023133857958
 51
187.2883450756145862
  0
ARC
  5
18766
  8
0
 10
21.3766206873243299
 20
10.9178972354649808
 30
0.0
 40
0.010822320685494
 50
195.2209619549468869
 51
252.6591094220800073
  0
ARC
  5
18767
  8
0
 10
21.3794273931789789
 20
10.9229484613599208
 30
0.0
 40
0.016522249040295
 50
248.5859189158612992
 51
299.2376152552977828
  0
ARC
  5
18768
  8
0
 10
21.3838207792522113
 20
10.9151646347621707
 30
0.0
 40
0.007584262992167
 50
298.9973735163088122
 51
36.1292565544058633
  0
ARC
  5
18769
  8
0
 10
21.3763023539428509
 20
10.8933660491950999
 30
0.0
 40
0.061187437405535
 50
59.4437542845653226
 51
116.623835664170997
  0
ARC
  5
1876A
  8
0
 10
21.3639637063791383
 20
10.9212574992345406
 30
0.0
 40
0.0307591285550357
 50
119.3606026732282004
 51
176.9350478131590876
  0
ARC
  5
1876B
  8
0
 10
21.3681774278303216
 20
10.9262475066979494
 30
0.0
 40
0.0350886903552396
 50
185.4709264253100969
 51
234.2016402989297035
  0
ARC
  5
1876C
  8
0
 10
21.3790481247938899
 20
10.9394331146481907
 30
0.0
 40
0.0521536183226712
 50
232.988375472200886
 51
263.6262783520625135
  0
ARC
  5
1876D
  8
0
 10
21.3811534287136702
 20
10.9406351238710702
 30
0.0
 40
0.0536177082253866
 50
261.5325868623473866
 51
300.2098097032198893
  0
ARC
  5
1876E
  8
0
 10
21.393405994856149
 20
10.92132686771137
 30
0.0
 40
0.0307790237299578
 50
298.584048981911792
 51
358.8327667547773103
  0
ARC
  5
1876F
  8
0
 10
21.3912969705303588
 20
10.9171771198461993
 30
0.0
 40
0.0330698273561249
 50
6.115027887276292
 51
60.8423463133755504
  0
ARC
  5
18770
  8
0
 10
21.373589143385999
 20
10.9223317210243707
 30
0.0
 40
0.0701228108541883
 50
68.8041422985682658
 51
117.4608017982993005
  0
ARC
  5
18771
  8
0
 10
21.3559486765879285
 20
10.9573803476736806
 30
0.0
 40
0.0308926827110687
 50
118.405851799127106
 51
187.7726473473234989
  0
ARC
  5
18772
  8
0
 10
21.3634013054346887
 20
10.9597705274470005
 30
0.0
 40
0.0386240566200159
 50
189.7909746466762044
 51
217.9020353755913959
  0
ARC
  5
18773
  8
0
 10
21.3793652215959895
 20
10.9325642107317407
 30
0.0
 40
0.0585184515135889
 50
37.921905711691501
 51
70.4548462877736341
  0
ARC
  5
18774
  8
0
 10
21.4010683224624998
 20
10.9494262446778201
 30
0.0
 40
0.0310348160716966
 50
346.4909969634464915
 51
37.9899166448626531
  0
ARC
  5
18775
  8
0
 10
21.4009892447872616
 20
10.95051422344301
 30
0.0
 40
0.0313830729986076
 50
318.3272964917766217
 51
344.5930170662387013
  0
LINE
  5
18776
  8
0
 10
21.3319195726556607
 20
10.9767958056726105
 30
0.0
 11
21.3332485768040705
 21
10.9229021282684595
 31
0.0
  0
LINE
  5
18777
  8
0
 10
21.4255274534718083
 20
10.9685288811154802
 30
0.0
 11
21.4241786318369307
 21
10.9206998788636405
 31
0.0
  0
ARC
  5
18778
  8
0
 10
21.2021942970438388
 20
10.7239312739740207
 30
0.0
 40
0.0158521365013653
 50
41.7179398378526969
 51
119.7505691165529953
  0
ARC
  5
18779
  8
0
 10
21.1978878711587413
 20
10.7308756298103596
 30
0.0
 40
0.0076917093726403
 50
117.5686023133857958
 51
187.2883450756145862
  0
ARC
  5
1877A
  8
0
 10
21.2007009878862789
 20
10.7327411537998003
 30
0.0
 40
0.010822320685494
 50
195.2209619549468869
 51
252.6591094220800073
  0
ARC
  5
1877B
  8
0
 10
21.2035076937409386
 20
10.7377923796947492
 30
0.0
 40
0.016522249040295
 50
248.5859189158612992
 51
299.2376152552977828
  0
ARC
  5
1877C
  8
0
 10
21.2079010798141709
 20
10.7300085530970009
 30
0.0
 40
0.007584262992167
 50
298.9973735163088122
 51
36.1292565544058633
  0
ARC
  5
1877D
  8
0
 10
21.2003826545048
 20
10.70820996752993
 30
0.0
 40
0.061187437405535
 50
59.4437542845653226
 51
116.623835664170997
  0
ARC
  5
1877E
  8
0
 10
21.1880440069410909
 20
10.7361014175693708
 30
0.0
 40
0.0307591285550357
 50
119.3606026732282004
 51
176.9350478131590876
  0
ARC
  5
1877F
  8
0
 10
21.1922577283919011
 20
10.7410914250327707
 30
0.0
 40
0.0350886903552396
 50
185.4709264253100969
 51
234.2016402989297035
  0
ARC
  5
18780
  8
0
 10
21.2031284253558496
 20
10.7542770329830102
 30
0.0
 40
0.0521536183226712
 50
232.988375472200886
 51
263.6262783520625135
  0
ARC
  5
18781
  8
0
 10
21.2052337292752604
 20
10.7554790422058897
 30
0.0
 40
0.0536177082253866
 50
261.5325868623473866
 51
300.2098097032198893
  0
ARC
  5
18782
  8
0
 10
21.2174862954177392
 20
10.7361707860462001
 30
0.0
 40
0.0307790237299578
 50
298.584048981911792
 51
358.8327667547773103
  0
ARC
  5
18783
  8
0
 10
21.2153772710923114
 20
10.7320210381810295
 30
0.0
 40
0.0330698273561249
 50
6.115027887276292
 51
60.8423463133755504
  0
ARC
  5
18784
  8
0
 10
21.1981539843216389
 20
10.7300153190417404
 30
0.0
 40
0.0745308811149214
 50
71.1206062234961536
 51
115.0150782257933031
  0
ARC
  5
18785
  8
0
 10
21.17727405876105
 20
10.7715713967205104
 30
0.0
 40
0.0280761192202467
 50
112.2609748528203966
 51
187.2128890692983134
  0
ARC
  5
18786
  8
0
 10
21.190506130735141
 20
10.7789846346859903
 30
0.0
 40
0.0425171528480206
 50
194.9081167566791919
 51
218.0464345311559953
  0
ARC
  5
18787
  8
0
 10
21.2056668409286395
 20
10.7459077679950301
 30
0.0
 40
0.0570962949348799
 50
39.6698250553655569
 51
73.0941113474995063
  0
ARC
  5
18788
  8
0
 10
21.2280693182275115
 20
10.7642563091754404
 30
0.0
 40
0.0281398428490613
 50
345.201974874761504
 51
40.0309758479143483
  0
ARC
  5
18789
  8
0
 10
21.2279203606571016
 20
10.7653405777744204
 30
0.0
 40
0.0285786575169296
 50
316.1823984082615766
 51
343.1761377145334109
  0
LINE
  5
1878A
  8
0
 10
21.1562632039483098
 20
10.7901942979585108
 30
0.0
 11
21.1573288773660195
 21
10.7377460466032808
 31
0.0
  0
LINE
  5
1878B
  8
0
 10
21.2495802866526908
 20
10.7823988104567299
 30
0.0
 11
21.2482589323985209
 21
10.7355437971984706
 31
0.0
  0
ARC
  5
1878C
  8
0
 10
20.7494389168475202
 20
10.6283830289488197
 30
0.0
 40
0.0890371202900475
 50
60.7341779655421306
 51
104.0607350561894009
  0
ARC
  5
1878D
  8
0
 10
20.7382924384029295
 20
10.6667005837362492
 30
0.0
 40
0.0491825462512925
 50
102.3092284624978987
 51
155.2413442388699991
  0
ARC
  5
1878E
  8
0
 10
20.7282496950613506
 20
10.6748109779606004
 30
0.0
 40
0.0368021567006866
 50
160.1655474210002126
 51
192.9354238964263004
  0
ARC
  5
1878F
  8
0
 10
20.7456460159838088
 20
10.6840490811456093
 30
0.0
 40
0.0560583225035373
 50
198.164923760551801
 51
231.5292176364214924
  0
ARC
  5
18790
  8
0
 10
20.7600973883707383
 20
10.7038468001436993
 30
0.0
 40
0.0805551174253542
 50
232.2420051902620912
 51
292.1547415165385928
  0
ARC
  5
18791
  8
0
 10
20.7755663089028495
 20
10.6708873950947591
 30
0.0
 40
0.044236388553091
 50
289.6962687471365143
 51
355.6998575669791762
  0
ARC
  5
18792
  8
0
 10
20.7706964009524384
 20
10.6620853941693294
 30
0.0
 40
0.0492879298087027
 50
6.3895076653078648
 51
63.1393271436527925
  0
ARC
  5
18793
  8
0
 10
20.7602658270930291
 20
10.6733342230842592
 30
0.0
 40
0.0754018868362789
 50
36.4813810504619482
 51
74.1825500074993442
  0
ARC
  5
18794
  8
0
 10
20.7425190629149903
 20
10.6197555836568505
 30
0.0
 40
0.1318122233030543
 50
73.1085397274097062
 51
90.6396233889852567
  0
ARC
  5
18795
  8
0
 10
20.7404886216110604
 20
10.6832160392645505
 30
0.0
 40
0.0683458401806528
 50
89.5313885316489433
 51
137.1968931603504132
  0
ARC
  5
18796
  8
0
 10
20.7186201430843013
 20
10.7081453454862601
 30
0.0
 40
0.0355281773003495
 50
142.7390435079414033
 51
219.8089661901117893
  0
ARC
  5
18797
  8
0
 10
20.793227783743589
 20
10.6970690502824599
 30
0.0
 40
0.0347908025997955
 50
319.9219301814595156
 51
37.3277706494171824
  0
LINE
  5
18798
  8
0
 10
20.6915142163865404
 20
10.6770253276074207
 30
0.0
 11
20.6903437556560306
 21
10.7296557452103603
 31
0.0
  0
LINE
  5
18799
  8
0
 10
20.8196781696833
 20
10.6675704973428598
 30
0.0
 11
20.82089272272081
 21
10.7181652844703592
 31
0.0
  0
ARC
  5
1879A
  8
0
 10
20.7543929940480787
 20
10.6569848329538406
 30
0.0
 40
0.0176971824567109
 50
59.5072723493722577
 51
118.0503098536732978
  0
ARC
  5
1879B
  8
0
 10
20.7498129508550484
 20
10.6658824075677501
 30
0.0
 40
0.0076923220545077
 50
119.1080953176062991
 51
178.9836658847511899
  0
ARC
  5
1879C
  8
0
 10
20.7534532532536495
 20
10.6675680262517893
 30
0.0
 40
0.0114368220125904
 50
187.784940291613907
 51
248.3429169050768053
  0
ARC
  5
1879D
  8
0
 10
20.7566306087637606
 20
10.6724798075925502
 30
0.0
 40
0.0172123003155422
 50
244.5441143658615886
 51
293.6145141077591916
  0
ARC
  5
1879E
  8
0
 10
20.7610799586495105
 20
10.6641782225357407
 30
0.0
 40
0.007859545527707
 50
288.1291284671642074
 51
23.5252248087539613
  0
ARC
  5
1879F
  8
0
 10
20.7573899616119988
 20
10.6613451447386591
 30
0.0
 40
0.0124246895757921
 50
28.7189769650948712
 51
61.2133860824818825
  0
ARC
  5
187A0
  8
0
 10
21.1296204217996717
 20
10.45906047589202
 30
0.0
 40
0.0158521365013653
 50
41.7179398378526969
 51
119.7505691165529953
  0
ARC
  5
187A1
  8
0
 10
21.1253139959141905
 20
10.4660048317283607
 30
0.0
 40
0.0076917093726403
 50
117.5686023133857958
 51
187.2883450756145862
  0
ARC
  5
187A2
  8
0
 10
21.1281271126421117
 20
10.4678703557178192
 30
0.0
 40
0.010822320685494
 50
195.2209619549468869
 51
252.6591094220800073
  0
ARC
  5
187A3
  8
0
 10
21.1309338184963913
 20
10.4729215816127503
 30
0.0
 40
0.016522249040295
 50
248.5859189158612992
 51
299.2376152552977828
  0
ARC
  5
187A4
  8
0
 10
21.1353272045699896
 20
10.4651377550150002
 30
0.0
 40
0.007584262992167
 50
298.9973735163088122
 51
36.1292565544058633
  0
ARC
  5
187A5
  8
0
 10
21.1283886592179293
 20
10.4414352261488492
 30
0.0
 40
0.0627099070792176
 50
61.9185568960031105
 51
115.2004714643742034
  0
ARC
  5
187A6
  8
0
 10
21.1134112471219098
 20
10.4717870214482005
 30
0.0
 40
0.0288765455066083
 50
113.953280194044396
 51
172.6607806826179115
  0
ARC
  5
187A7
  8
0
 10
21.1197001314298589
 20
10.4788211919292102
 30
0.0
 40
0.0350886903552396
 50
185.4709264253100969
 51
234.2016402989297035
  0
ARC
  5
187A8
  8
0
 10
21.1305708283938216
 20
10.4920067998794497
 30
0.0
 40
0.0521536183226712
 50
232.988375472200886
 51
263.6262783520625135
  0
ARC
  5
187A9
  8
0
 10
21.1326761323132288
 20
10.4932088091023399
 30
0.0
 40
0.0536177082253866
 50
261.5325868623473866
 51
300.2098097032198893
  0
ARC
  5
187AA
  8
0
 10
21.1449286984557006
 20
10.4739005529426397
 30
0.0
 40
0.0307790237299578
 50
298.584048981911792
 51
358.8327667547773103
  0
ARC
  5
187AB
  8
0
 10
21.1450750778068191
 20
10.4685578161067596
 30
0.0
 40
0.0309871898611432
 50
8.7535016417076026
 51
65.535358320482743
  0
ARC
  5
187AC
  8
0
 10
21.1247968844565115
 20
10.4617582968994096
 30
0.0
 40
0.0766920188271759
 50
71.9314248854046241
 51
112.5796257615164961
  0
ARC
  5
187AD
  8
0
 10
21.1037760986775389
 20
10.5068073581516792
 30
0.0
 40
0.0271072341797504
 50
108.1107640315707954
 51
182.2274307255985093
  0
ARC
  5
187AE
  8
0
 10
21.1062565189506408
 20
10.5106198024678807
 30
0.0
 40
0.0299649072156871
 50
189.3456446640693969
 51
223.3737079600448965
  0
ARC
  5
187AF
  8
0
 10
21.1325534426623705
 20
10.4779037894652909
 30
0.0
 40
0.0589844793454047
 50
41.2095105800818189
 51
74.2307367378677867
  0
ARC
  5
187B0
  8
0
 10
21.1568196159940811
 20
10.4990707102130898
 30
0.0
 40
0.0267839050315999
 50
350.5903771460638723
 51
41.3440888393616319
  0
ARC
  5
187B1
  8
0
 10
21.1582346460266884
 20
10.5001534835967494
 30
0.0
 40
0.025597947931374
 50
313.756205204027026
 51
347.6803489646961793
  0
LINE
  5
187B2
  8
0
 10
21.0837631744501515
 20
10.5250908208638094
 30
0.0
 11
21.0847712804039986
 21
10.4754758134997203
 31
0.0
  0
LINE
  5
187B3
  8
0
 10
21.1769277945484902
 20
10.5167636105962199
 30
0.0
 11
21.1757013354368588
 21
10.4732735640949102
 31
0.0
  0
ARC
  5
187B4
  8
0
 10
20.8259731539185893
 20
10.3034225529153005
 30
0.0
 40
0.0935961044782651
 50
63.579861199919641
 51
102.9714647525748035
  0
ARC
  5
187B5
  8
0
 10
20.8166643656951784
 20
10.3385815665482195
 30
0.0
 40
0.057256920261783
 50
101.7913292303105948
 51
145.0406770315181859
  0
ARC
  5
187B6
  8
0
 10
20.8043578777939295
 20
10.3589023754556795
 30
0.0
 40
0.0368021567006866
 50
160.1655474210002126
 51
192.9354238964263004
  0
ARC
  5
187B7
  8
0
 10
20.8217541987160217
 20
10.3681404786406901
 30
0.0
 40
0.0560583225035373
 50
198.1649237605521137
 51
231.5292176364214924
  0
ARC
  5
187B8
  8
0
 10
20.8362055711033207
 20
10.3879381976387908
 30
0.0
 40
0.0805551174253542
 50
232.2420051902620912
 51
292.1547415165385928
  0
ARC
  5
187B9
  8
0
 10
20.8516744916354284
 20
10.35497879258984
 30
0.0
 40
0.044236388553091
 50
289.6962687471365143
 51
355.6998575669791762
  0
ARC
  5
187BA
  8
0
 10
20.8503864198722191
 20
10.3446612465406105
 30
0.0
 40
0.0459365100061
 50
8.7659400814578863
 51
67.9674418618909044
  0
ARC
  5
187BB
  8
0
 10
20.8393306560392517
 20
10.3634498462842704
 30
0.0
 40
0.0715234949966739
 50
36.5227345973567523
 51
75.1067958531032644
  0
ARC
  5
187BC
  8
0
 10
20.8281856091424693
 20
10.3339362574407598
 30
0.0
 40
0.1029593794236627
 50
73.3340293589040613
 51
96.1891910754783765
  0
ARC
  5
187BD
  8
0
 10
20.8222582080280496
 20
10.3618179859949606
 30
0.0
 40
0.0746569571117796
 50
93.9730966134201253
 51
138.3159417766734123
  0
ARC
  5
187BE
  8
0
 10
20.7931240378121416
 20
10.3904628037677202
 30
0.0
 40
0.0339095151159377
 50
141.7272557231055998
 51
220.8207539749141972
  0
ARC
  5
187BF
  8
0
 10
20.868043404725519
 20
10.3851912308127297
 30
0.0
 40
0.0355122016398358
 50
321.9418033618945856
 51
35.9036985400221127
  0
LINE
  5
187C0
  8
0
 10
20.7676223991191193
 20
10.3611167251025105
 30
0.0
 11
20.7665026570754314
 21
10.41146654874494
 31
0.0
  0
LINE
  5
187C1
  8
0
 10
20.8957863524158789
 20
10.3516618948379406
 30
0.0
 11
20.8968084225535904
 21
10.4060164610553603
 31
0.0
  0
ARC
  5
187C2
  8
0
 10
20.8303224233822917
 20
10.3373116866896293
 30
0.0
 40
0.0190489959012523
 50
63.2491376199697299
 51
115.2320641987078034
  0
ARC
  5
187C3
  8
0
 10
20.8253145562163517
 20
10.3478401057988698
 30
0.0
 40
0.0073904450770823
 50
114.906865523836899
 51
173.5862267552433025
  0
ARC
  5
187C4
  8
0
 10
20.8276843537995084
 20
10.3495325213787606
 30
0.0
 40
0.0097525871102308
 50
185.0993848250344058
 51
255.7572128181977007
  0
ARC
  5
187C5
  8
0
 10
20.8329782649447601
 20
10.3568808581147191
 30
0.0
 40
0.0184788051550607
 50
245.3966547557438957
 51
291.2025801853499729
  0
ARC
  5
187C6
  8
0
 10
20.8379158578783397
 20
10.3464391111081895
 30
0.0
 40
0.0070070885245046
 50
284.4251655716568052
 51
31.9379040835121408
  0
ARC
  5
187C7
  8
0
 10
20.8334912968986217
 20
10.3428543449592905
 30
0.0
 40
0.0126776329243119
 50
35.1099960380283775
 51
64.7628713925811041
  0
ARC
  5
187C8
  8
0
 10
21.5099582662484785
 20
10.6241382724967597
 30
0.0
 40
0.0158521365013653
 50
41.7179398378526969
 51
119.7505691165529953
  0
ARC
  5
187C9
  8
0
 10
21.5056518403630008
 20
10.6310826283330897
 30
0.0
 40
0.0076917093726403
 50
117.5686023133857958
 51
187.2883450756145862
  0
ARC
  5
187CA
  8
0
 10
21.5084649570905384
 20
10.6329481523225393
 30
0.0
 40
0.010822320685494
 50
195.2209619549468869
 51
252.6591094220800073
  0
ARC
  5
187CB
  8
0
 10
21.5112716629452017
 20
10.63799937821749
 30
0.0
 40
0.016522249040295
 50
248.5859189158612992
 51
299.2376152552977828
  0
ARC
  5
187CC
  8
0
 10
21.5156650490184198
 20
10.6302155516197399
 30
0.0
 40
0.007584262992167
 50
298.9973735163088122
 51
36.1292565544058633
  0
ARC
  5
187CD
  8
0
 10
21.5091669841932216
 20
10.60799272677977
 30
0.0
 40
0.061709858333143
 50
61.6242782573504471
 51
116.1621617714741035
  0
ARC
  5
187CE
  8
0
 10
21.4953848713716411
 20
10.6352964219659896
 30
0.0
 40
0.031128484088954
 50
115.551851290137094
 51
171.3517938603905861
  0
ARC
  5
187CF
  8
0
 10
21.4962699242222612
 20
10.6398939324906507
 30
0.0
 40
0.0316597221837966
 50
179.8494440826019058
 51
236.8421793947501897
  0
ARC
  5
187D0
  8
0
 10
21.5093993227332909
 20
10.6566813003511598
 30
0.0
 40
0.0529255906474707
 50
234.8826664563067936
 51
265.250273874291679
  0
ARC
  5
187D1
  8
0
 10
21.5112408188804594
 20
10.6596542030950303
 30
0.0
 40
0.0560632895369287
 50
263.6261181445162265
 51
301.0968020527654971
  0
ARC
  5
187D2
  8
0
 10
21.5238699125952984
 20
10.6393848857503492
 30
0.0
 40
0.0321858654072695
 50
300.4818680831966731
 51
358.1598504799158036
  0
ARC
  5
187D3
  8
0
 10
21.5232605468142815
 20
10.6327242452697401
 30
0.0
 40
0.0332581300445969
 50
9.7410286570222944
 51
62.7381680475496211
  0
ARC
  5
187D4
  8
0
 10
21.5071793345992397
 20
10.6291744264348296
 30
0.0
 40
0.0753694866800651
 50
72.880567658366985
 51
114.697810882221404
  0
ARC
  5
187D5
  8
0
 10
21.4872981456802599
 20
10.6688136948596295
 30
0.0
 40
0.0310854604470904
 50
111.9320358153836992
 51
176.3083106125939139
  0
ARC
  5
187D6
  8
0
 10
21.4857415733543284
 20
10.67268758163884
 30
0.0
 40
0.0295238164869721
 50
183.6360789336073083
 51
223.950811311444113
  0
ARC
  5
187D7
  8
0
 10
21.5147955296996791
 20
10.6478928297936495
 30
0.0
 40
0.0552668074524299
 50
40.8119666836373227
 51
74.7145275241833531
  0
ARC
  5
187D8
  8
0
 10
21.5363584844608589
 20
10.6660927085198498
 30
0.0
 40
0.027053520624848
 50
346.9558999579733154
 51
41.4862132543510427
  0
ARC
  5
187D9
  8
0
 10
21.5348955135324616
 20
10.6672973171764696
 30
0.0
 40
0.0287629892135407
 50
317.6778129905194987
 51
345.2757450760003053
  0
LINE
  5
187DA
  8
0
 10
21.4641076601665191
 20
10.6895141111077798
 30
0.0
 11
21.4646103113403193
 21
10.6399771245360206
 31
0.0
  0
LINE
  5
187DB
  8
0
 10
21.5566246863907693
 20
10.6840140376428501
 30
0.0
 11
21.5560391798852997
 21
10.6383513606996392
 31
0.0
  0
ARC
  5
187DC
  8
0
 10
21.5314385424898589
 20
10.4036761153757507
 30
0.0
 40
0.0158521365013653
 50
41.7179398378526969
 51
119.7505691165529953
  0
ARC
  5
187DD
  8
0
 10
21.5271321166043812
 20
10.4106204712120807
 30
0.0
 40
0.0076917093726403
 50
117.5686023133857958
 51
187.2883450756145862
  0
ARC
  5
187DE
  8
0
 10
21.5299452333322989
 20
10.4124859952015303
 30
0.0
 40
0.010822320685494
 50
195.2209619549468869
 51
252.6591094220800073
  0
ARC
  5
187DF
  8
0
 10
21.5327519391865714
 20
10.4175372210964792
 30
0.0
 40
0.016522249040295
 50
248.5859189158612992
 51
299.2376152552977828
  0
ARC
  5
187E0
  8
0
 10
21.5371453252601803
 20
10.4097533944987308
 30
0.0
 40
0.007584262992167
 50
298.9973735163088122
 51
36.1292565544058633
  0
ARC
  5
187E1
  8
0
 10
21.5312269866017587
 20
10.3849067547769796
 30
0.0
 40
0.0628233457853047
 50
65.096296854293314
 51
117.9063725461494982
  0
ARC
  5
187E2
  8
0
 10
21.5130476466496212
 20
10.4165939169966499
 30
0.0
 40
0.0263414879195938
 50
115.219452702568006
 51
177.6797406218726962
  0
ARC
  5
187E3
  8
0
 10
21.5207167028596693
 20
10.4199454625080499
 30
0.0
 40
0.0340656761882154
 50
183.8462591662336081
 51
228.9769504923108059
  0
ARC
  5
187E4
  8
0
 10
21.5297525484169405
 20
10.4358901259801407
 30
0.0
 40
0.0521536183226712
 50
232.988375472200886
 51
263.6262783520625135
  0
ARC
  5
187E5
  8
0
 10
21.5337111965208585
 20
10.4413763431429292
 30
0.0
 40
0.058140549227322
 50
260.3476656225878969
 51
296.4036447808632033
  0
ARC
  5
187E6
  8
0
 10
21.546345473394009
 20
10.4178377791772405
 30
0.0
 40
0.0314505412651799
 50
294.8569562361237217
 51
356.2415007429656839
  0
ARC
  5
187E7
  8
0
 10
21.5472123699045497
 20
10.4130999644194695
 30
0.0
 40
0.0306331251335826
 50
5.0119089247661348
 51
70.0158583967703407
  0
ARC
  5
187E8
  8
0
 10
21.5293492991592004
 20
10.4072610418651408
 30
0.0
 40
0.0749786628425713
 50
75.5304209015413477
 51
117.6373702336362044
  0
ARC
  5
187E9
  8
0
 10
21.5068525503496595
 20
10.4479259534842797
 30
0.0
 40
0.028537848020442
 50
115.4956387169372931
 51
176.8393752570896993
  0
ARC
  5
187EA
  8
0
 10
21.5048108770386399
 20
10.4511451272834002
 30
0.0
 40
0.0265039097243816
 50
183.5600061159161953
 51
225.9054895922353126
  0
ARC
  5
187EB
  8
0
 10
21.5361421865255309
 20
10.4233431911228909
 30
0.0
 40
0.0577660317167133
 50
42.8705979976617968
 51
78.0694583451567183
  0
ARC
  5
187EC
  8
0
 10
21.5597458656491803
 20
10.4451549267760395
 30
0.0
 40
0.0256276828023012
 50
337.2451393355581786
 51
43.033787879610351
  0
ARC
  5
187ED
  8
0
 10
21.5575209591189783
 20
10.4473535181029806
 30
0.0
 40
0.0285536659427923
 50
315.577372708359519
 51
334.9029835712046861
  0
LINE
  5
187EE
  8
0
 10
21.4855037402211693
 20
10.4668636691789008
 30
0.0
 11
21.4867277550010805
 21
10.4176603547178601
 31
0.0
  0
LINE
  5
187EF
  8
0
 10
21.5784784561030705
 20
10.4626440142509196
 30
0.0
 11
21.5777283711606813
 21
10.4157761600001901
 31
0.0
  0
ARC
  5
187F0
  8
0
 10
21.8528749455820197
 20
10.4478106310851295
 30
0.0
 40
0.0158521365013653
 50
41.7179398378526969
 51
119.7505691165529953
  0
ARC
  5
187F1
  8
0
 10
21.8485685196965385
 20
10.4547549869214702
 30
0.0
 40
0.0076917093726403
 50
117.5686023133857958
 51
187.2883450756145862
  0
ARC
  5
187F2
  8
0
 10
21.8513816364240796
 20
10.4566205109109092
 30
0.0
 40
0.010822320685494
 50
195.2209619549468869
 51
252.6591094220800073
  0
ARC
  5
187F3
  8
0
 10
21.8541883422787393
 20
10.4616717368058492
 30
0.0
 40
0.016522249040295
 50
248.5859189158612992
 51
299.2376152552977828
  0
ARC
  5
187F4
  8
0
 10
21.858581728351961
 20
10.4538879102081097
 30
0.0
 40
0.007584262992167
 50
298.9973735163088122
 51
36.1292565544058633
  0
ARC
  5
187F5
  8
0
 10
21.852337839409941
 20
10.4297815411865091
 30
0.0
 40
0.0633727315090113
 50
62.6275918574000769
 51
115.6132831398355023
  0
ARC
  5
187F6
  8
0
 10
21.837750310587861
 20
10.4591800627890699
 30
0.0
 40
0.0305602643428124
 50
114.7785386630697957
 51
170.6903379778829049
  0
ARC
  5
187F7
  8
0
 10
21.8380832557207185
 20
10.4630134143004803
 30
0.0
 40
0.0305108954615689
 50
177.914361632906008
 51
235.7079836879769914
  0
ARC
  5
187F8
  8
0
 10
21.8518593793213682
 20
10.4812200256901793
 30
0.0
 40
0.0533262351510118
 50
234.5005367088155879
 51
266.083117562942391
  0
ARC
  5
187F9
  8
0
 10
21.8526577581736703
 20
10.4906938980120703
 30
0.0
 40
0.0628326925428312
 50
265.9469185444619939
 51
298.7809878037718931
  0
ARC
  5
187FA
  8
0
 10
21.8681832222380592
 20
10.4626507081357403
 30
0.0
 40
0.0307790237299578
 50
298.584048981911792
 51
358.8327667547773103
  0
ARC
  5
187FB
  8
0
 10
21.8656457255551011
 20
10.4561715537454294
 30
0.0
 40
0.0338203022789301
 50
9.9644470978683444
 51
62.0930883115220311
  0
ARC
  5
187FC
  8
0
 10
21.8518605885938797
 20
10.4513814531875795
 30
0.0
 40
0.0760483620553143
 50
74.5049978715991728
 51
114.5101371148877973
  0
ARC
  5
187FD
  8
0
 10
21.8319589736922701
 20
10.4898062256940694
 30
0.0
 40
0.0329013354916134
 50
110.7327224748405001
 51
175.2141960043283007
  0
ARC
  5
187FE
  8
0
 10
21.8252280779681591
 20
10.4939749409765
 30
0.0
 40
0.0260945995885189
 50
183.1276206286759987
 51
227.1105942672799927
  0
ARC
  5
187FF
  8
0
 10
21.8595242336602702
 20
10.4719097480330898
 30
0.0
 40
0.05425212921521
 50
43.2887355974783574
 51
76.51292958014173
  0
ARC
  5
18800
  8
0
 10
21.8805187266600392
 20
10.4911925406202808
 30
0.0
 40
0.0257508518620233
 50
343.4576887915890779
 51
44.0882361963066671
  0
ARC
  5
18801
  8
0
 10
21.8776761023682518
 20
10.4934537811200599
 30
0.0
 40
0.0291513085042536
 50
316.9258543936730916
 51
340.7870633503512749
  0
LINE
  5
18802
  8
0
 10
21.8070471023291788
 20
10.5112980041759894
 30
0.0
 11
21.8075925722808215
 21
10.4641238039750597
 31
0.0
  0
LINE
  5
18803
  8
0
 10
21.8990147695359099
 20
10.5091090907778604
 30
0.0
 11
21.8989558592188409
 21
10.4620237192880108
 31
0.0
  0
ARC
  5
18804
  8
0
 10
21.7073961151182715
 20
10.1612283532187107
 30
0.0
 40
0.0158521365013653
 50
41.7179398378526969
 51
119.7505691165529953
  0
ARC
  5
18805
  8
0
 10
21.7030896892331704
 20
10.1681727090550496
 30
0.0
 40
0.0076917093726403
 50
117.5686023133857958
 51
187.2883450756145862
  0
ARC
  5
18806
  8
0
 10
21.7059028059607115
 20
10.1700382330444992
 30
0.0
 40
0.010822320685494
 50
195.2209619549468869
 51
252.6591094220800073
  0
ARC
  5
18807
  8
0
 10
21.7087095118153606
 20
10.1750894589394392
 30
0.0
 40
0.016522249040295
 50
248.5859189158612992
 51
299.2376152552977828
  0
ARC
  5
18808
  8
0
 10
21.7131028978885894
 20
10.1673056323416908
 30
0.0
 40
0.007584262992167
 50
298.9973735163088122
 51
36.1292565544058633
  0
ARC
  5
18809
  8
0
 10
21.7061643525369092
 20
10.1436031034755398
 30
0.0
 40
0.0627099070792176
 50
61.9185568960031105
 51
115.2004714643742034
  0
ARC
  5
1880A
  8
0
 10
21.6911869404404989
 20
10.1739548987748893
 30
0.0
 40
0.0288765455066083
 50
113.953280194044396
 51
172.6607806826183094
  0
ARC
  5
1880B
  8
0
 10
21.6974758247488317
 20
10.1809890692558902
 30
0.0
 40
0.0350886903552396
 50
185.4709264253100969
 51
234.2016402989297035
  0
ARC
  5
1880C
  8
0
 10
21.7083465217124214
 20
10.1941746772061297
 30
0.0
 40
0.0521536183226712
 50
232.988375472200886
 51
263.6262783520625135
  0
ARC
  5
1880D
  8
0
 10
21.7104518256322017
 20
10.1953766864290198
 30
0.0
 40
0.0536177082253866
 50
261.5325868623473866
 51
300.2098097032198893
  0
ARC
  5
1880E
  8
0
 10
21.7227043917746805
 20
10.1760684302693303
 30
0.0
 40
0.0307790237299578
 50
298.584048981911792
 51
358.8327667547773103
  0
ARC
  5
1880F
  8
0
 10
21.7228507711257883
 20
10.1707256934334396
 30
0.0
 40
0.0309871898611432
 50
8.7535016417076026
 51
65.535358320482743
  0
ARC
  5
18810
  8
0
 10
21.70526880184714
 20
10.1611770941972299
 30
0.0
 40
0.0785435980552961
 50
74.4240354724060325
 51
113.5639071750873939
  0
ARC
  5
18811
  8
0
 10
21.683039420639691
 20
10.2056495268921896
 30
0.0
 40
0.0290093087679468
 50
108.427823964209793
 51
175.6300876188539064
  0
ARC
  5
18812
  8
0
 10
21.6780758966497515
 20
10.2094217448821194
 30
0.0
 40
0.0240122994192839
 50
183.7293436853155129
 51
228.6109612051220097
  0
ARC
  5
18813
  8
0
 10
21.7156266995190315
 20
10.1842118930000201
 30
0.0
 40
0.0537075416617962
 50
43.4316345712806324
 51
78.4730716623282945
  0
ARC
  5
18814
  8
0
 10
21.7386268180480116
 20
10.20520023193348
 30
0.0
 40
0.0225829349036225
 50
339.6508387109453224
 51
44.879695658863362
  0
ARC
  5
18815
  8
0
 10
21.7352073038554288
 20
10.2074577132115998
 30
0.0
 40
0.0265902382277102
 50
314.5013184224574161
 51
337.6519054346622966
  0
LINE
  5
18816
  8
0
 10
21.6613542113552207
 20
10.2249184576740806
 30
0.0
 11
21.6625469737225913
 21
10.1776436908264092
 31
0.0
  0
LINE
  5
18817
  8
0
 10
21.7547618373559111
 20
10.2210005515757896
 30
0.0
 11
21.7534770287554586
 21
10.1754414414215901
 31
0.0
  0
ARC
  5
18818
  8
0
 10
21.2517779105608398
 20
10.12888546594613
 30
0.0
 40
0.0983121195512345
 50
65.0003200975629483
 51
103.775949578268694
  0
ARC
  5
18819
  8
0
 10
21.2389730915629116
 20
10.1737879221397503
 30
0.0
 40
0.0516815909849999
 50
101.8420794007053019
 51
151.049441410601105
  0
ARC
  5
1881A
  8
0
 10
21.22219053283224
 20
10.1875904467602396
 30
0.0
 40
0.0305718218390535
 50
158.4806955699060893
 51
197.7306118635231087
  0
ARC
  5
1881B
  8
0
 10
21.2380224319718103
 20
10.1939764649438107
 30
0.0
 40
0.0476132057087947
 50
199.248462224680992
 51
237.5015447583450054
  0
ARC
  5
1881C
  8
0
 10
21.2593068552184015
 20
10.2299378189600407
 30
0.0
 40
0.0893893492137631
 50
238.379574840723393
 51
288.0696888809713982
  0
ARC
  5
1881D
  8
0
 10
21.2764811769785993
 20
10.18788078629583
 30
0.0
 40
0.0442015877174639
 50
283.811120494590682
 51
348.5114384164319858
  0
ARC
  5
1881E
  8
0
 10
21.276996655963881
 20
10.1784181510351193
 30
0.0
 40
0.0428055787531467
 50
0.8819848690340716
 51
67.5749286038676615
  0
ARC
  5
1881F
  8
0
 10
21.2642192222391984
 20
10.1881791276475404
 30
0.0
 40
0.0716412903828211
 50
37.8419812234268207
 51
76.3611283357998047
  0
ARC
  5
18820
  8
0
 10
21.2520875604942105
 20
10.1521382513885605
 30
0.0
 40
0.1095759568236989
 50
74.6400125298833643
 51
95.6307246985942641
  0
ARC
  5
18821
  8
0
 10
21.2433177083583189
 20
10.1876145639338205
 30
0.0
 40
0.0735976080296029
 50
91.5426803887557838
 51
135.8461760988172955
  0
ARC
  5
18822
  8
0
 10
21.2138183194761609
 20
10.2189876178758592
 30
0.0
 40
0.0306413273758323
 50
139.5144081504496967
 51
223.0336015475758131
  0
ARC
  5
18823
  8
0
 10
21.2939880529874799
 20
10.2119190091170893
 30
0.0
 40
0.0335720933908757
 50
320.8308711802018252
 51
37.0146307216813284
  0
LINE
  5
18824
  8
0
 10
21.1916332098925793
 20
10.1885318846617796
 30
0.0
 11
21.1905134678485112
 21
10.2388817083042092
 31
0.0
  0
LINE
  5
18825
  8
0
 10
21.3197971631893317
 20
10.1790770543972098
 30
0.0
 11
21.3207947588158504
 21
10.2321300451439292
 31
0.0
  0
ARC
  5
18826
  8
0
 10
21.2542999003359903
 20
10.1681986828502797
 30
0.0
 40
0.0190489959012523
 50
63.2491376199697299
 51
115.2320641987365946
  0
ARC
  5
18827
  8
0
 10
21.2492920331696702
 20
10.1787271019595096
 30
0.0
 40
0.0073904450770823
 50
114.906865523836899
 51
173.5862267552433025
  0
ARC
  5
18828
  8
0
 10
21.253463376848309
 20
10.1819542883815704
 30
0.0
 40
0.0117633010435556
 50
191.7804320624555032
 51
249.0761655807800992
  0
ARC
  5
18829
  8
0
 10
21.2569557418980786
 20
10.1877678542753696
 30
0.0
 40
0.0184788051550607
 50
245.3966547557438957
 51
291.2025801853499729
  0
ARC
  5
1882A
  8
0
 10
21.2618933348316617
 20
10.1773261072688399
 30
0.0
 40
0.0070070885245046
 50
284.4251655716568052
 51
31.9379040835124215
  0
ARC
  5
1882B
  8
0
 10
21.2574687738523203
 20
10.1737413411199409
 30
0.0
 40
0.0126776329243119
 50
35.1099960380283775
 51
64.7628713925811041
  0
ARC
  5
1882C
  8
0
 10
21.5875687230929501
 20
9.9110501872469783
 30
0.0
 40
0.0935961044782651
 50
63.579861199919641
 51
102.9714647525748035
  0
ARC
  5
1882D
  8
0
 10
21.5782599348695392
 20
9.946209200879899
 30
0.0
 40
0.057256920261783
 50
101.7913292303105948
 51
145.0406770315181859
  0
ARC
  5
1882E
  8
0
 10
21.5659534469682903
 20
9.966530009787359
 30
0.0
 40
0.0368021567006866
 50
160.1655474210002126
 51
192.9354238964263004
  0
ARC
  5
1882F
  8
0
 10
21.5833497678907484
 20
9.9757681129723732
 30
0.0
 40
0.0560583225035373
 50
198.1649237605521137
 51
231.5292176364214924
  0
ARC
  5
18830
  8
0
 10
21.5978011402776815
 20
9.9955658319704614
 30
0.0
 40
0.0805551174253542
 50
232.2420051902620912
 51
249.5267870340414049
  0
ARC
  5
18831
  8
0
 10
21.5978011402776815
 20
9.9955658319704614
 30
0.0
 40
0.0805551174253542
 50
265.5589670322714824
 51
292.1547415165385928
  0
ARC
  5
18832
  8
0
 10
21.6132700608097892
 20
9.9626064269215178
 30
0.0
 40
0.044236388553091
 50
289.6962687471365143
 51
355.6998575669791762
  0
ARC
  5
18833
  8
0
 10
21.6119819890469493
 20
9.9522888808722865
 30
0.0
 40
0.0459365100061
 50
8.7659400814575541
 51
67.9674418618909044
  0
ARC
  5
18834
  8
0
 10
21.6009262252136089
 20
9.9710774806159428
 30
0.0
 40
0.0715234949966739
 50
36.5227345973567523
 51
75.1067958531032644
  0
ARC
  5
18835
  8
0
 10
21.5897811783168301
 20
9.9415638917724358
 30
0.0
 40
0.1029593794236627
 50
73.3340293589040613
 51
96.1891910754783765
  0
ARC
  5
18836
  8
0
 10
21.5838537772027905
 20
9.9694456203266455
 30
0.0
 40
0.0746569571117796
 50
93.9730966134201253
 51
138.3159417766734123
  0
ARC
  5
18837
  8
0
 10
21.5547196069864988
 20
9.9980904380993945
 30
0.0
 40
0.0339095151159377
 50
141.7272557231055998
 51
220.8207539749141972
  0
ARC
  5
18838
  8
0
 10
21.6296389738998798
 20
9.9928188651444039
 30
0.0
 40
0.0355122016398358
 50
321.9418033618945856
 51
35.9036985400221127
  0
LINE
  5
18839
  8
0
 10
21.5292179682934801
 20
9.9687443594341811
 30
0.0
 11
21.5280982262497886
 21
10.0190941830766107
 31
0.0
  0
LINE
  5
1883A
  8
0
 10
21.6573819215902397
 20
9.9592895291696166
 30
0.0
 11
21.6584039917279512
 21
10.0136440953870292
 31
0.0
  0
ARC
  5
1883B
  8
0
 10
21.591917992557029
 20
9.9449393210213035
 30
0.0
 40
0.0190489959012523
 50
63.2491376199697299
 51
115.2320641987365946
  0
ARC
  5
1883C
  8
0
 10
21.5869101253910785
 20
9.9554677401305423
 30
0.0
 40
0.0073904450770823
 50
114.906865523836899
 51
173.5862267552433025
  0
ARC
  5
1883D
  8
0
 10
21.5892799229738692
 20
9.9571601557104366
 30
0.0
 40
0.0097525871102308
 50
185.0993848250344058
 51
255.7572128181977007
  0
ARC
  5
1883E
  8
0
 10
21.5945738341191102
 20
9.9645084924464005
 30
0.0
 40
0.0184788051550607
 50
245.3966547557438957
 51
291.2025801853499729
  0
ARC
  5
1883F
  8
0
 10
21.5995114270527004
 20
9.9540667454398672
 30
0.0
 40
0.0070070885245046
 50
284.4251655716568052
 51
31.9379040835124215
  0
ARC
  5
18840
  8
0
 10
21.5950868660733484
 20
9.9504819792909682
 30
0.0
 40
0.0126776329243119
 50
35.1099960380283775
 51
64.7628713925811041
  0
ARC
  5
18841
  8
0
 10
22.0587767456356616
 20
10.6814276349448303
 30
0.0
 40
0.5677392630035955
 50
95.8047996738484926
 51
110.0293099683484002
  0
ARC
  5
18842
  8
0
 10
22.066225580239891
 20
9.9612130026958621
 30
0.0
 40
2.1646501772584772
 50
104.8234682802249012
 51
106.7970321697904978
  0
ARC
  5
18843
  8
0
 10
21.9001117034329802
 20
10.4742634635040606
 30
0.0
 40
1.625520972328697
 50
106.4176208166306026
 51
130.4089353446819928
  0
ARC
  5
18844
  8
0
 10
21.4142384255121989
 20
11.0528020420821207
 30
0.0
 40
0.9128140340004842
 50
186.5575723072645076
 51
224.187777911435802
  0
ARC
  5
18845
  8
0
 10
21.408574719517631
 20
10.9944590723646503
 30
0.0
 40
0.9066007441997649
 50
135.6670292929289872
 51
174.9852560314321011
  0
ARC
  5
18846
  8
0
 10
21.9233656466850988
 20
11.6104045665159195
 30
0.0
 40
1.6720642725822299
 50
230.8491682429248897
 51
255.774894472630308
  0
ARC
  5
18847
  8
0
 10
22.0634895738858603
 20
12.0936722737633495
 30
0.0
 40
2.1754818159235159
 50
259.2331498319272214
 51
270.3183772401874876
  0
ARC
  5
18848
  8
0
 10
23.4275790197991398
 20
12.1057285446511091
 30
0.0
 40
1.662885918099803
 50
206.3036839689829094
 51
210.5358549305557005
  0
ARC
  5
18849
  8
0
 10
22.077505086346779
 20
11.4226857203279408
 30
0.0
 40
0.1505835131280682
 50
151.2927405444658007
 51
200.9452194198005088
  0
ARC
  5
1884A
  8
0
 10
21.9287014121389809
 20
11.5838764532209506
 30
0.0
 40
0.0587137572416068
 50
329.2030965553267947
 51
34.5610123831092366
  0
ARC
  5
1884B
  8
0
 10
47.9484269828358975
 20
50.7562248043278075
 30
0.0
 40
46.9656266920176293
 50
236.2206956518544132
 51
236.3989907944171875
  0
ARC
  5
1884C
  8
0
 10
21.909113693190001
 20
11.5726707748131208
 30
0.0
 40
0.0812233274899702
 50
33.2321394502107665
 51
53.5615285653947666
  0
LINE
  5
1884D
  8
0
 10
21.9791357997435597
 20
11.5538152184425602
 30
0.0
 11
21.9454304988016595
 21
11.4950161962753103
 31
0.0
  0
ARC
  5
1884E
  8
0
 10
21.8687554979026189
 20
11.7752903053586593
 30
0.0
 40
0.0651789729460681
 50
138.7299142976023063
 51
239.5804636503333995
  0
ARC
  5
1884F
  8
0
 10
21.9077241280843111
 20
11.7387561300301009
 30
0.0
 40
0.1185794073615578
 50
128.5436017790511016
 51
137.8817350227525083
  0
LINE
  5
18850
  8
0
 10
21.8338361115578294
 20
11.8315011399444092
 30
0.0
 11
21.9045779611318814
 21
11.8894087972325799
 31
0.0
  0
ARC
  5
18851
  8
0
 10
21.8644048215279199
 20
11.9442345118748996
 30
0.0
 40
0.0679686702215615
 50
306.2318234905488907
 51
6.9639137024691591
  0
ARC
  5
18852
  8
0
 10
21.8504674507859917
 20
11.9362548908280708
 30
0.0
 40
0.0830049025212335
 50
11.2689848766734197
 51
70.0612111194384255
  0
ARC
  5
18853
  8
0
 10
51.5248286968127616
 20
105.3614350076914974
 30
0.0
 40
97.9417129842688752
 50
252.271602560763796
 51
252.3807094179423984
  0
ARC
  5
18854
  8
0
 10
20.815240541775939
 20
9.4085383706352328
 30
0.0
 40
2.8058692189544399
 50
71.5965930476874632
 51
73.2045814904949594
  0
ARC
  5
18855
  8
0
 10
22.9658518525415296
 20
10.7793763542391297
 30
0.0
 40
1.9330492437186191
 50
137.8697424719705964
 51
139.8173909747330868
  0
ARC
  5
18856
  8
0
 10
17.6501902631957712
 20
15.2686936937505209
 30
0.0
 40
5.0246966777191728
 50
318.1900155744913263
 51
319.8173909747330868
  0
ARC
  5
18857
  8
0
 10
21.6339121403892705
 20
11.7055858843118692
 30
0.0
 40
0.3199995022814122
 50
138.1900155744912979
 51
143.197947031993408
  0
ARC
  5
18858
  8
0
 10
21.4347356254253896
 20
11.8634918322741392
 30
0.0
 40
0.0663063251845521
 50
149.3620239151327951
 51
231.0029794218881989
  0
ARC
  5
18859
  8
0
 10
21.4693957878524309
 20
11.8980218563443803
 30
0.0
 40
0.115078292784543
 50
228.3299458627514014
 51
262.823794261882199
  0
ARC
  5
1885A
  8
0
 10
24.0792671266977507
 20
25.8381175535614815
 30
0.0
 40
14.2971762716216304
 50
259.4233925874029865
 51
259.8268211658458995
  0
ARC
  5
1885B
  8
0
 10
21.5381072029978604
 20
11.6596421013046907
 30
0.0
 40
0.10726402618203
 50
39.3776890379251725
 51
81.456354788565136
  0
ARC
  5
1885C
  8
0
 10
21.5730629789897286
 20
11.6883323108906207
 30
0.0
 40
0.0620419696025447
 50
338.6544754300977047
 51
39.3776890379251725
  0
ARC
  5
1885D
  8
0
 10
-25.8982837078963293
 20
27.1224068368397297
 30
0.0
 40
49.9792628108608668
 50
341.8551950010273117
 51
341.9852747476069794
  0
ARC
  5
1885E
  8
0
 10
21.655872603196741
 20
11.5419519446921104
 30
0.0
 40
0.0623086909213929
 50
165.1859943185313
 51
210.6477239635588035
  0
ARC
  5
1885F
  8
0
 10
21.6871501805299083
 20
11.5666944239731606
 30
0.0
 40
0.1019700713859823
 50
213.6509262156262139
 51
250.9733632453616963
  0
ARC
  5
18860
  8
0
 10
21.4318272862303516
 20
10.9292543658270294
 30
0.0
 40
0.5848459018812417
 50
56.211424427610801
 51
67.6834291369626158
  0
ARC
  5
18861
  8
0
 10
21.6392547067928511
 20
11.2527859676894
 30
0.0
 40
0.2007451031805867
 50
21.6627398681624683
 51
54.0607036879972185
  0
ARC
  5
18862
  8
0
 10
-4.916879255464365
 20
2.6759539055351449
 30
0.0
 40
28.1071297696780107
 50
17.7198484440271606
 51
17.9257577566712705
  0
LINE
  5
18863
  8
0
 10
21.9953831299886815
 20
10.6268526492876507
 30
0.0
 11
21.9470780416016815
 21
10.5493117498625697
 31
0.0
  0
ARC
  5
18864
  8
0
 10
22.0476243109783994
 20
10.4828133055467294
 30
0.0
 40
0.1205470670817179
 50
146.5204829199288099
 51
189.3512982201654893
  0
ARC
  5
18865
  8
0
 10
22.0304435177386608
 20
10.4771535108265699
 30
0.0
 40
0.1027129297286622
 50
187.793147916800109
 51
214.1884375446362867
  0
ARC
  5
18866
  8
0
 10
19.2714269803487284
 20
8.602941624832642
 30
0.0
 40
3.2326794680550459
 50
33.1298672822012534
 51
34.1884375446363222
  0
ARC
  5
18867
  8
0
 10
21.9429739667294506
 20
10.3434286031471707
 30
0.0
 40
0.044266228362349
 50
311.6216831633947777
 51
36.4460615874214611
  0
ARC
  5
18868
  8
0
 10
15.9023004996356807
 20
21.7233519753946602
 30
0.0
 40
12.9303338721601104
 50
297.3571828888748882
 51
297.8941704624883187
  0
ARC
  5
18869
  8
0
 10
21.8812315759693803
 20
10.1558767348366406
 30
0.0
 40
0.091121145128834
 50
113.939702418224897
 51
133.951905814087695
  0
ARC
  5
1886A
  8
0
 10
21.8481692313138289
 20
10.1889129113020598
 30
0.0
 40
0.0443991827582039
 50
132.8246986689401865
 51
239.3093835595537087
  0
ARC
  5
1886B
  8
0
 10
24.8626934716305605
 20
14.6032703479924901
 30
0.0
 40
5.3897671993243668
 50
235.7011393322187018
 51
236.7196761672944092
  0
ARC
  5
1886C
  8
0
 10
21.8779535039674293
 20
10.0493266067625395
 30
0.0
 40
0.0552671920699977
 50
10.6518808736213497
 51
60.5391663581565709
  0
ARC
  5
1886D
  8
0
 10
21.8801719490158888
 20
10.0595125071879892
 30
0.0
 40
0.0520964122539887
 50
291.2981146926600786
 51
0.0327301835829686
  0
ARC
  5
1886E
  8
0
 10
21.8470593938576485
 20
10.1127869888465103
 30
0.0
 40
0.1143394386371334
 50
285.2649031236716155
 51
297.0708988848627996
  0
ARC
  5
1886F
  8
0
 10
19.7863119545343409
 20
19.8194690209687501
 30
0.0
 40
10.0371759135755703
 50
280.7430353978970174
 51
282.0233723192786215
  0
ARC
  5
18870
  8
0
 10
21.9142997457682682
 20
10.3688927996594096
 30
0.0
 40
0.0824716402195825
 50
296.9107060017283857
 51
314.7646817740231882
  0
LINE
  5
18871
  8
0
 10
21.8456113886491501
 20
10.6254562912113393
 30
0.0
 11
21.829597028797
 21
10.5802852160217693
 31
0.0
  0
ARC
  5
18872
  8
0
 10
21.6616883084737815
 20
10.6465715872798903
 30
0.0
 40
0.1805193102553058
 50
292.5102103278384789
 51
338.4570716832039921
  0
LINE
  5
18873
  8
0
 10
21.7307997771304784
 20
10.4798058045929192
 30
0.0
 11
21.6407029071757506
 21
10.4462222026659592
 31
0.0
  0
ARC
  5
18874
  8
0
 10
21.6622983252573285
 20
10.3751652970956592
 30
0.0
 40
0.0742660481737734
 50
106.9049306574180065
 51
150.6850624922473116
  0
ARC
  5
18875
  8
0
 10
21.6392591195132411
 20
10.3922903109162696
 30
0.0
 40
0.0459380081793812
 50
155.2445391591031125
 51
208.9418004246201974
  0
LINE
  5
18876
  8
0
 10
21.5990582304854897
 20
10.3700599461667498
 30
0.0
 11
21.6313200855067294
 21
10.2857835797939803
 31
0.0
  0
ARC
  5
18877
  8
0
 10
21.5858669853386083
 20
10.2683836681579397
 30
0.0
 40
0.0486697158390112
 50
285.1850515347716168
 51
20.9473570463015193
  0
ARC
  5
18878
  8
0
 10
21.5372660156315305
 20
10.3657809237599903
 30
0.0
 40
0.1568622619912163
 50
269.8528751267401731
 51
293.0231832867482922
  0
ARC
  5
18879
  8
0
 10
19.6707569905197985
 20
34.2130278815786468
 30
0.0
 40
24.0765360274328302
 50
274.2248227889822942
 51
274.4452969889861151
  0
ARC
  5
1887A
  8
0
 10
21.4460803165652898
 20
10.10838363028342
 30
0.0
 40
0.0935461623520866
 50
90.9791128992671645
 51
132.5578558701367058
  0
ARC
  5
1887B
  8
0
 10
21.4118913484491316
 20
10.1456187863588294
 30
0.0
 40
0.0429957678054895
 50
132.5578558701367058
 51
217.5293687613207965
  0
ARC
  5
1887C
  8
0
 10
26.33474808815145
 20
15.1277121739035092
 30
0.0
 40
7.0465816870542506
 50
225.2951275582767892
 51
227.0012080164322015
  0
LINE
  5
1887D
  8
0
 10
21.7430106194750188
 20
10.7153242266393196
 30
0.0
 11
21.6395036966075409
 21
10.6749570467725707
 31
0.0
  0
ARC
  5
1887E
  8
0
 10
21.7382668990784502
 20
10.4217148035935896
 30
0.0
 40
0.2718194325146406
 50
111.3055337501001958
 51
132.4443531356527899
  0
ARC
  5
1887F
  8
0
 10
21.6395900964510091
 20
10.5296118344582492
 30
0.0
 40
0.125604246415105
 50
132.4443531356527899
 51
159.1623359288356028
  0
ARC
  5
18880
  8
0
 10
22.2485568858050193
 20
10.2978288615320803
 30
0.0
 40
0.7771899254125552
 50
159.1623359288356028
 51
163.4226714602716868
  0
ARC
  5
18881
  8
0
 10
21.424419661959849
 20
10.5594150132547906
 30
0.0
 40
0.0887042812408707
 50
265.3683620974933888
 51
333.3070564498989938
  0
ARC
  5
18882
  8
0
 10
21.3939643149953191
 20
23.4323667761073402
 30
0.0
 40
12.9613873042920797
 50
269.4362668161168131
 51
270.102964654320715
  0
ARC
  5
18883
  8
0
 10
21.2598556805971413
 20
10.3658959665103705
 30
0.0
 40
0.105915682414446
 50
86.4362611257544984
 51
133.346699439282304
  0
ARC
  5
18884
  8
0
 10
21.2388696698864194
 20
10.4057253233850897
 30
0.0
 40
0.0637016912439417
 50
144.2762959058802039
 51
206.7523641076498961
  0
ARC
  5
18885
  8
0
 10
18.4702525506542088
 20
9.8099075159109361
 30
0.0
 40
2.770406673447134
 50
10.8294937637140603
 51
11.8128080367950705
  0
ARC
  5
18886
  8
0
 10
21.1461493621641914
 20
10.3271340461783598
 30
0.0
 40
0.0452908984667164
 50
304.7481977659272729
 51
4.1742060935480572
  0
ARC
  5
18887
  8
0
 10
21.1037388471982013
 20
10.3942960253678702
 30
0.0
 40
0.1246955672670825
 50
257.539925453606088
 51
303.1705188659050236
  0
ARC
  5
18888
  8
0
 10
23.4588202642299208
 20
19.9866542091416086
 30
0.0
 40
10.0018958067050505
 50
255.0684590366311113
 51
256.2224210110388185
  0
LINE
  5
18889
  8
0
 10
20.7590001255940315
 20
10.4047020289422605
 30
0.0
 11
20.7681385101385096
 21
10.5602778789978498
 31
0.0
  0
ARC
  5
1888A
  8
0
 10
20.8275085875726198
 20
10.5567905344143202
 30
0.0
 40
0.0594724109716394
 50
97.5463787200596784
 51
176.638360447696499
  0
ARC
  5
1888B
  8
0
 10
20.8541865753783107
 20
10.4811944981545508
 30
0.0
 40
0.1389030420572732
 50
79.2900839039948266
 51
104.3764250433598022
  0
ARC
  5
1888C
  8
0
 10
20.3725264224977884
 20
9.0660650010447181
 30
0.0
 40
1.632492571009291
 50
67.2055811860846433
 51
71.8890527673758299
  0
ARC
  5
1888D
  8
0
 10
21.0554833617849191
 20
10.6865542119678203
 30
0.0
 40
0.1260458552437744
 50
246.3876547568740989
 51
305.3382868502635006
  0
ARC
  5
1888E
  8
0
 10
19.9312719892837684
 20
11.4345052494649799
 30
0.0
 40
1.468639902083487
 50
324.5991548111276188
 51
329.3498865801313968
  0
ARC
  5
1888F
  8
0
 10
21.2472274877206289
 20
10.6516525852330002
 30
0.0
 40
0.0626204011766151
 50
126.3572455731619044
 51
146.9528078711682895
  0
ARC
  5
18890
  8
0
 10
21.3317494497360087
 20
11.21189924662918
 30
0.0
 40
0.5209616894891301
 50
291.5262133241240008
 51
301.6363060838247065
  0
ARC
  5
18891
  8
0
 10
21.4116886269630307
 20
11.0602119878893195
 30
0.0
 40
0.3510215555149383
 50
262.1438935156128878
 51
288.4715830403292216
  0
ARC
  5
18892
  8
0
 10
15.4612093253576308
 20
-39.2576138711475409
 30
0.0
 40
50.3174947639763914
 50
83.2634013205986321
 51
83.3498669248795352
  0
ARC
  5
18893
  8
0
 10
21.2774051888326596
 20
10.5816973990649092
 30
0.0
 40
0.1400619173892907
 50
85.5420009205079737
 51
104.7849641733266992
  0
LINE
  5
18894
  8
0
 10
21.6143311187337197
 20
10.8926792648256399
 30
0.0
 11
21.4927530177788491
 21
10.9039182146743503
 31
0.0
  0
ARC
  5
18895
  8
0
 10
21.4550678644302302
 20
10.5302237387941808
 30
0.0
 40
0.3755898455579788
 50
84.2414853341294361
 51
95.5274087089574095
  0
ARC
  5
18896
  8
0
 10
21.4373211235616488
 20
10.6145339696657004
 30
0.0
 40
0.2891252296264133
 50
106.1590952131612937
 51
121.5392542795971025
  0
ARC
  5
18897
  8
0
 10
20.9694288711983106
 20
11.3768918477225593
 30
0.0
 40
0.6053649570481625
 50
297.2464536521958962
 51
301.5392542795971167
  0
ARC
  5
18898
  8
0
 10
21.1834227840954696
 20
10.9523144643570802
 30
0.0
 40
0.1299914978186119
 50
243.1381138660657939
 51
299.0667799723046869
  0
ARC
  5
18899
  8
0
 10
22.0885510928848809
 20
12.8994535927355507
 30
0.0
 40
2.2771545748712589
 50
241.4136538563136867
 51
244.9584401861621075
  0
ARC
  5
1889A
  8
0
 10
20.9400156755741591
 20
10.7916956562888
 30
0.0
 40
0.1232156306327568
 50
61.4136538563136867
 51
93.3696750477403157
  0
ARC
  5
1889B
  8
0
 10
20.9317981089962295
 20
10.8126525983447195
 30
0.0
 40
0.1020503178623926
 50
89.4524720067853849
 51
129.3075182624095021
  0
ARC
  5
1889C
  8
0
 10
24.0084784162289111
 20
8.1795791067202135
 30
0.0
 40
4.1500692912057398
 50
139.194622054020698
 51
140.384130821611393
  0
ARC
  5
1889D
  8
0
 10
20.7413257026446516
 20
10.8913845603982207
 30
0.0
 40
0.0960586663074538
 50
265.0682861221262101
 51
316.9556854152891106
  0
ARC
  5
1889E
  8
0
 10
20.7348355846411394
 20
10.9262068602800895
 30
0.0
 40
0.1305373159683791
 50
226.8404664355610123
 51
269.224008628198817
  0
ARC
  5
1889F
  8
0
 10
31.6315670682589989
 20
22.0432908633127802
 30
0.0
 40
15.69740368113691
 50
225.0189013264057962
 51
225.5840316503075087
  0
ARC
  5
188A0
  8
0
 10
20.8478977771028013
 20
10.3977658047002794
 30
0.0
 40
0.0891678397823138
 50
175.5385452484258906
 51
187.5191063781865921
  0
ARC
  5
188A1
  8
0
 10
21.5097383688252002
 20
11.7235978554799498
 30
0.0
 40
0.731895750445318
 50
264.9026272988156734
 51
274.3550572595573271
  0
ARC
  5
188A2
  8
0
 10
21.4709963772232015
 20
11.2892774232476594
 30
0.0
 40
0.2958508218339098
 50
246.3245218858197063
 51
264.9026272988156734
  0
ARC
  5
188A3
  8
0
 10
21.503419533703461
 20
11.3632254101083703
 30
0.0
 40
0.3765946503094233
 50
233.5694151224510904
 51
246.3245218858197063
  0
ARC
  5
188A4
  8
0
 10
20.9843004336966601
 20
10.6598957384598307
 30
0.0
 40
0.4975662427835634
 50
53.5694151224511899
 51
62.0278961770781834
  0
ARC
  5
188A5
  8
0
 10
21.1719404889916305
 20
10.9482908258571001
 30
0.0
 40
0.1596861154800454
 50
89.7418968359342557
 51
114.0340513453897984
  0
ARC
  5
188A6
  8
0
 10
21.0358427064543996
 20
11.2534831839063898
 30
0.0
 40
0.1744769911358474
 50
287.7025919870450252
 51
294.0340513453897984
  0
ARC
  5
188A7
  8
0
 10
16.4569836318730189
 20
23.2679809970513389
 30
0.0
 40
13.0316686857222503
 50
290.4382794273730042
 51
290.8201172624337119
  0
ARC
  5
188A8
  8
0
 10
20.9569069867579287
 20
11.1729887187536594
 30
0.0
 40
0.1268922841606765
 50
251.2478936688798115
 51
293.5558047027531074
  0
ARC
  5
188A9
  8
0
 10
20.9569061516311592
 20
11.17298625884664
 30
0.0
 40
0.1268896863578985
 50
207.4895772878689115
 51
251.2478936688798115
  0
ARC
  5
188AA
  8
0
 10
19.5403091226839116
 20
10.2184969813727395
 30
0.0
 40
1.5821423572287581
 50
34.4904789991590519
 51
37.1120454411245007
  0
ARC
  5
188AB
  8
0
 10
20.7206801005092487
 20
11.0942832721609008
 30
0.0
 40
0.1132634849988755
 50
44.112947152430749
 51
75.3218944044472209
  0
ARC
  5
188AC
  8
0
 10
20.7123463861375114
 20
11.0624675152961895
 30
0.0
 40
0.1461525892752565
 50
75.3218944044472209
 51
105.0969624486994007
  0
ARC
  5
188AD
  8
0
 10
20.6922900815623407
 20
11.1368151559776702
 30
0.0
 40
0.0691472191500911
 50
105.0969624486994007
 51
133.7177310471242038
  0
ARC
  5
188AE
  8
0
 10
10.7468562525537603
 20
23.2156810156855897
 30
0.0
 40
15.5774700686139091
 50
308.6821324064222267
 51
309.4483304375967805
  0
LINE
  5
188AF
  8
0
 10
21.6577240691042192
 20
11.0896773751680495
 30
0.0
 11
21.5662304306716806
 21
11.1494568943326104
 31
0.0
  0
ARC
  5
188B0
  8
0
 10
21.386416435266689
 20
10.8742483126873903
 30
0.0
 40
0.3287443328098704
 50
56.840463055881969
 51
65.4941131330103161
  0
ARC
  5
188B1
  8
0
 10
21.37856141843206
 20
10.8410036220105592
 30
0.0
 40
0.362597921857647
 50
75.4460420913592742
 51
84.7176591970164452
  0
ARC
  5
188B2
  8
0
 10
21.3539840278744997
 20
9.6234467131124575
 30
0.0
 40
1.579678566011987
 50
87.8973064847196639
 51
92.2222618414876365
  0
ARC
  5
188B3
  8
0
 10
21.288584570636889
 20
11.3170627299937898
 30
0.0
 40
0.1152001077855696
 50
218.5893815121193882
 51
272.0623667366542122
  0
ARC
  5
188B4
  8
0
 10
26.3625719588994798
 20
14.0692149767649397
 30
0.0
 40
5.885765795978644
 50
207.4533596449388995
 51
208.6725194594258141
  0
ARC
  5
188B5
  8
0
 10
21.058254295727501
 20
11.3124896355959308
 30
0.0
 40
0.0921407474220412
 50
27.9819807894309811
 51
63.8256352681737411
  0
ARC
  5
188B6
  8
0
 10
21.0389935293582084
 20
11.2786056302392605
 30
0.0
 40
0.1310670309451761
 50
62.8029571221679106
 51
94.2611787967460373
  0
ARC
  5
188B7
  8
0
 10
21.0382075886941493
 20
11.2900186643361806
 30
0.0
 40
0.1196271652790516
 50
94.2919540388645032
 51
100.7544931742116034
  0
ARC
  5
188B8
  8
0
 10
22.7918307667525006
 20
4.8057059548122369
 30
0.0
 40
6.8365384283953334
 50
105.0565727092243975
 51
105.8149508370449041
  0
ARC
  5
188B9
  8
0
 10
20.8648801078433301
 20
11.5711278297022098
 30
0.0
 40
0.1982094104773912
 50
275.4602435948543189
 51
288.7706032686817252
  0
ARC
  5
188BA
  8
0
 10
20.872339965653449
 20
11.4842595952545601
 30
0.0
 40
0.1110286778221809
 50
203.6014378919614956
 51
275.8936956009674759
  0
ARC
  5
188BB
  8
0
 10
26.9520857404704905
 20
11.8792904416420608
 30
0.0
 40
6.1970904364872652
 50
182.0702274419581101
 51
184.0667006279971076
  0
LINE
  5
188BC
  8
0
 10
21.7300119065019395
 20
11.1784370202999597
 30
0.0
 11
21.6405231384663601
 21
11.2207512362319104
 31
0.0
  0
ARC
  5
188BD
  8
0
 10
21.7593121697592196
 20
11.4719737587902397
 30
0.0
 40
0.2778913273133928
 50
224.6527085101427019
 51
244.6931610316997876
  0
ARC
  5
188BE
  8
0
 10
21.6845479502732594
 20
11.39811043832999
 30
0.0
 40
0.1727938552946274
 50
192.6279760642050007
 51
224.6527085101427019
  0
ARC
  5
188BF
  8
0
 10
13.8199056831247606
 20
9.1472422610431607
 30
0.0
 40
8.0079103084776282
 50
16.0432707928209517
 51
16.392988843691171
  0
ARC
  5
188C0
  8
0
 10
21.4221563821572687
 20
11.3760458039462193
 30
0.0
 40
0.0859940936100855
 50
21.2885593021401505
 51
67.6632601674613454
  0
ARC
  5
188C1
  8
0
 10
21.4019025030755117
 20
11.3384523100936292
 30
0.0
 40
0.1285412178726758
 50
65.6807673751684149
 51
85.7421637627193434
  0
ARC
  5
188C2
  8
0
 10
23.3099135609555717
 20
30.4479180684421209
 30
0.0
 40
19.0759834130083412
 50
263.8537624906766155
 51
264.2883919186439812
  0
ARC
  5
188C3
  8
0
 10
21.2804362579275406
 20
11.6015723847564693
 30
0.0
 40
0.1206800983029317
 50
219.3607568271561945
 51
263.8537624906766155
  0
ARC
  5
188C4
  8
0
 10
21.2492356713879715
 20
11.5654928411896307
 30
0.0
 40
0.074119927416599
 50
159.0475867015126141
 51
213.080504228608504
  0
ARC
  5
188C5
  8
0
 10
19.8327350453795717
 20
11.8473443989616403
 30
0.0
 40
1.3712658083354241
 50
349.26816811721568
 51
352.2803182711227237
  0
ARC
  5
188C6
  8
0
 10
21.1012476515583707
 20
11.6515380049619104
 30
0.0
 40
0.0910685316291001
 50
7.3236883273903528
 51
80.3155473335284285
  0
ARC
  5
188C7
  8
0
 10
21.0812604663136902
 20
11.5620422241674703
 30
0.0
 40
0.1827103138857806
 50
78.8580833755334396
 51
104.3309312494749008
  0
ARC
  5
188C8
  8
0
 10
18.828345675005
 20
26.5272872157296504
 30
0.0
 40
14.9521019243770592
 50
277.625018891770992
 51
278.4908119727804205
  0
ARC
  5
188C9
  8
0
 10
22.0649996697688415
 20
10.5709359089166401
 30
0.0
 40
0.0254850805773749
 50
60.6182867921380009
 51
119.3830920965427964
  0
ARC
  5
188CA
  8
0
 10
22.0712886542871587
 20
10.5821053922980202
 30
0.0
 40
0.0126667856331081
 50
1.8590746295168401
 51
60.6182867921380009
  0
ARC
  5
188CB
  8
0
 10
22.0698780065369284
 20
10.5851916285493193
 30
0.0
 40
0.014322839821642
 50
283.6227353749151234
 51
349.2347076114793936
  0
ARC
  5
188CC
  8
0
 10
22.0650275594298897
 20
10.5962730006500507
 30
0.0
 40
0.0263191169400546
 50
247.8550396824579991
 51
288.2080081350542855
  0
ARC
  5
188CD
  8
0
 10
22.0600833932974787
 20
10.5856236030195294
 30
0.0
 40
0.0146025230581815
 50
201.377164590241307
 51
250.0730563245373048
  0
ARC
  5
188CE
  8
0
 10
22.0573857449100892
 20
10.5830266929002708
 30
0.0
 40
0.0112358860397383
 50
115.8002108079416956
 51
194.0398694848207981
  0
ARC
  5
188CF
  8
0
 10
22.0669122577331009
 20
11.9145267941297508
 30
0.0
 40
0.0814285851948779
 50
70.5804841495874484
 51
121.2122493438156994
  0
ARC
  5
188D0
  8
0
 10
22.0751728846612387
 20
11.9379586380006906
 30
0.0
 40
0.0565832785065955
 50
23.3184188351231185
 51
70.5804841495874484
  0
ARC
  5
188D1
  8
0
 10
22.0925154553540892
 20
11.9478694994979797
 30
0.0
 40
0.0368021567006866
 50
347.0645761035730743
 51
19.834452578999791
  0
ARC
  5
188D2
  8
0
 10
22.0785092959699902
 20
11.9499772693120399
 30
0.0
 40
0.0509361844305115
 50
310.5199909710810857
 51
348.2806754371817988
  0
ARC
  5
188D3
  8
0
 10
22.0633424578073196
 20
11.9699637061459594
 30
0.0
 40
0.0759975046978977
 50
244.0280714328542047
 51
309.4222683826321258
  0
ARC
  5
188D4
  8
0
 10
22.0511259080523416
 20
11.9476333520600608
 30
0.0
 40
0.0505866405458331
 50
191.379766618867194
 51
245.3914705773422895
  0
ARC
  5
188D5
  8
0
 10
22.0477402370694087
 20
11.9436598771617
 30
0.0
 40
0.0465954191423054
 50
119.6136442985445001
 51
187.408120422573603
  0
ARC
  5
188D6
  8
0
 10
22.0652920712078213
 20
11.9341270759257192
 30
0.0
 40
0.0160721939856908
 50
47.3685653187782734
 51
130.0068377512560005
  0
ARC
  5
188D7
  8
0
 10
22.0696953326126994
 20
11.9397471868890896
 30
0.0
 40
0.0089730138911748
 50
307.6910559876441766
 51
43.7469734452060024
  0
ARC
  5
188D8
  8
0
 10
22.0649999790433995
 20
11.9444769880347597
 30
0.0
 40
0.015608301111903
 50
217.5566680041092127
 51
310.7161625368797786
  0
ARC
  5
188D9
  8
0
 10
22.0605360966200692
 20
11.9393294112778694
 30
0.0
 40
0.0090347874771952
 50
128.1138125500488911
 51
208.900317861278296
  0
ARC
  5
188DA
  8
0
 10
22.0600812866085292
 20
11.9604185865929598
 30
0.0
 40
0.0727541913364428
 50
111.9482084723003936
 51
146.4871328831416974
  0
ARC
  5
188DB
  8
0
 10
22.068363009113579
 20
11.9447916036632993
 30
0.0
 40
0.0903627565946906
 50
82.3637631046186414
 51
113.1153534699858056
  0
ARC
  5
188DC
  8
0
 10
22.0731662299169606
 20
11.9658243462302298
 30
0.0
 40
0.0689063154543858
 50
33.5744164437386132
 51
83.9984902711673556
  0
ARC
  5
188DD
  8
0
 10
22.0948261411298503
 20
11.9804410795782204
 30
0.0
 40
0.0427770920595609
 50
323.8722905298068895
 51
33.3067447813468789
  0
ARC
  5
188DE
  8
0
 10
22.0338182799786289
 20
11.9785777794975701
 30
0.0
 40
0.0408359832320164
 50
147.3851346516636909
 51
215.9900325204241938
  0
LINE
  5
188DF
  8
0
 10
22.1292509340288888
 20
11.9500838491448
 30
0.0
 11
22.1305767846303283
 21
12.0039308878864706
 31
0.0
  0
LINE
  5
188E0
  8
0
 10
22.0011453935426999
 20
11.94389148406378
 30
0.0
 11
21.9994958773477798
 21
12.0006998544690404
 31
0.0
  0
ARC
  5
188E1
  8
0
 10
22.0657568838754088
 20
11.5636192393863801
 30
0.0
 40
0.0153840837052413
 50
58.6945064555267706
 51
138.8983041090214954
  0
ARC
  5
188E2
  8
0
 10
22.0690004662106816
 20
11.5689528430513793
 30
0.0
 40
0.0091416359143461
 50
358.2772107486918003
 51
58.6945064555265432
  0
ARC
  5
188E3
  8
0
 10
22.0678827948512009
 20
11.5706134534263008
 30
0.0
 40
0.0104362136290162
 50
287.9061288215738159
 51
349.3123679062550195
  0
ARC
  5
188E4
  8
0
 10
22.0652084274163407
 20
11.5752375269071806
 30
0.0
 40
0.0156987869764311
 50
235.7864235224558911
 51
292.0086599181806832
  0
ARC
  5
188E5
  8
0
 10
22.0610408684521389
 20
11.5691082747073004
 30
0.0
 40
0.0082868857189146
 50
146.0795586481800115
 51
235.7864235224558911
  0
ARC
  5
188E6
  8
0
 10
22.0660255287174287
 20
11.5526149144549706
 30
0.0
 40
0.0575127863930342
 50
59.485006920573781
 51
121.687479556830894
  0
ARC
  5
188E7
  8
0
 10
22.0801470989807989
 20
11.5753538141492704
 30
0.0
 40
0.0307591285550357
 50
3.064952186840912
 51
60.6393973267717783
  0
ARC
  5
188E8
  8
0
 10
22.0771917272181106
 20
11.5773379991407293
 30
0.0
 40
0.0336722134492841
 50
310.4104299138593888
 51
359.4222104492994845
  0
ARC
  5
188E9
  8
0
 10
22.0661348473947889
 20
11.5892768807554205
 30
0.0
 40
0.0499350597163345
 50
275.8945342144061215
 51
311.1900602522327972
  0
ARC
  5
188EA
  8
0
 10
22.0643883923115816
 20
11.5914573388711393
 30
0.0
 40
0.0523052415904863
 50
236.5919289212683054
 51
277.5524445858412719
  0
ARC
  5
188EB
  8
0
 10
22.0535703572629416
 20
11.5762611581566297
 30
0.0
 40
0.0336700686953934
 50
182.4936920146201089
 51
237.72120926334091
  0
ARC
  5
188EC
  8
0
 10
22.0515910729067883
 20
11.5740970399500807
 30
0.0
 40
0.0316666184850566
 50
119.8807340084003954
 51
178.734888007080599
  0
ARC
  5
188ED
  8
0
 10
22.0680251769953983
 20
11.5912148243464408
 30
0.0
 40
0.0595209512502818
 50
53.7625856869309686
 51
113.2148652033122005
  0
ARC
  5
188EE
  8
0
 10
22.0799465247181388
 20
11.6074809828345007
 30
0.0
 40
0.0393539870888603
 50
359.6177019432141151
 51
53.7625856869309686
  0
ARC
  5
188EF
  8
0
 10
22.0842007158525817
 20
11.6074525969192699
 30
0.0
 40
0.0350997012536916
 50
319.9168961604293031
 51
359.6177019432149109
  0
ARC
  5
188F0
  8
0
 10
22.0643015538387388
 20
11.59422083966572
 30
0.0
 40
0.055335788349246
 50
110.8977706786364053
 51
145.5541139820780927
  0
ARC
  5
188F1
  8
0
 10
22.0490913248922915
 20
11.6046534029026205
 30
0.0
 40
0.0368915632287984
 50
145.5541139821146999
 51
193.0961575131190955
  0
ARC
  5
188F2
  8
0
 10
22.0447108802024587
 20
11.6036343511658107
 30
0.0
 40
0.0323941459564176
 50
193.0961575131204029
 51
219.5351835996791863
  0
LINE
  5
188F3
  8
0
 10
22.112170990221621
 20
11.6300712489420306
 30
0.0
 11
22.1108622285558702
 21
11.5769984431831894
 31
0.0
  0
LINE
  5
188F4
  8
0
 10
22.0186682998403711
 20
11.6255202901683798
 30
0.0
 11
22.0199321735229994
 21
11.5747961937783792
 31
0.0
  0
ARC
  5
188F5
  8
0
 10
22.0653404220695109
 20
10.28033983624006
 30
0.0
 40
0.0158521365013653
 50
60.2494308834470189
 51
138.2820601621473031
  0
ARC
  5
188F6
  8
0
 10
22.0696468479546084
 20
10.2872841920764007
 30
0.0
 40
0.0076917093726403
 50
352.7116549243847885
 51
62.4313976866142113
  0
ARC
  5
188F7
  8
0
 10
22.0668337312270602
 20
10.2891497160658396
 30
0.0
 40
0.010822320685494
 50
287.3408905779199927
 51
344.7790380450525731
  0
ARC
  5
188F8
  8
0
 10
22.0640270253724111
 20
10.2942009419607796
 30
0.0
 40
0.016522249040295
 50
240.7623847447019045
 51
291.4140810841387861
  0
ARC
  5
188F9
  8
0
 10
22.0596336392991788
 20
10.2864171153630295
 30
0.0
 40
0.007584262992167
 50
143.870743445594087
 51
241.0026264836913015
  0
ARC
  5
188FA
  8
0
 10
22.0658775282412094
 20
10.2623107463414396
 30
0.0
 40
0.0633727315090113
 50
64.3867168601644551
 51
117.3724081425998946
  0
ARC
  5
188FB
  8
0
 10
22.0804650570632788
 20
10.2917092679440003
 30
0.0
 40
0.0305602643428124
 50
9.3096620221166724
 51
65.2214613369302612
  0
ARC
  5
188FC
  8
0
 10
22.0801321119304212
 20
10.2955426194554001
 30
0.0
 40
0.0305108954615689
 50
304.2920163120230086
 51
2.0856383670941141
  0
ARC
  5
188FD
  8
0
 10
22.0663559883297786
 20
10.3137492308451098
 30
0.0
 40
0.0533262351510118
 50
273.916882437057609
 51
305.4994632911840995
  0
ARC
  5
188FE
  8
0
 10
22.0655576094774801
 20
10.3232231031670008
 30
0.0
 40
0.0628326925428312
 50
241.2190121962281069
 51
274.0530814555380061
  0
ARC
  5
188FF
  8
0
 10
22.0500321454130983
 20
10.2951799132906707
 30
0.0
 40
0.0307790237299578
 50
181.1672332452212117
 51
241.4159510180878954
  0
ARC
  5
18900
  8
0
 10
22.0525696420960386
 20
10.2887007589003492
 30
0.0
 40
0.0338203022789301
 50
117.9069116884779049
 51
170.0355529021315988
  0
ARC
  5
18901
  8
0
 10
22.0663547790572707
 20
10.2839106583424993
 30
0.0
 40
0.0760483620553143
 50
65.4898628851122453
 51
105.4950021284007988
  0
ARC
  5
18902
  8
0
 10
22.0862563939588803
 20
10.3223354308489998
 30
0.0
 40
0.0329013354916134
 50
4.7858039956716487
 51
69.2672775251594857
  0
ARC
  5
18903
  8
0
 10
22.0929872896829913
 20
10.3265041461314198
 30
0.0
 40
0.0260945995885189
 50
312.8894057327199221
 51
356.8723793713235182
  0
ARC
  5
18904
  8
0
 10
22.0586911339908696
 20
10.3044389531880203
 30
0.0
 40
0.05425212921521
 50
103.487070419858199
 51
136.7112644025216071
  0
ARC
  5
18905
  8
0
 10
22.0376966409911113
 20
10.3237217457752095
 30
0.0
 40
0.0257508518620233
 50
135.9117638036929918
 51
196.5423112084104105
  0
ARC
  5
18906
  8
0
 10
22.0405392652828986
 20
10.3259829862749903
 30
0.0
 40
0.0291513085042536
 50
199.2129366496482987
 51
223.0741456063269084
  0
LINE
  5
18907
  8
0
 10
22.111168265321961
 20
10.3438272093309092
 30
0.0
 11
22.1106227953706984
 21
10.2966530091299902
 31
0.0
  0
LINE
  5
18908
  8
0
 10
22.0192005981152406
 20
10.3416382959327802
 30
0.0
 11
22.0192595084323095
 21
10.2945529244429306
 31
0.0
  0
ARC
  5
18909
  8
0
 10
22.0651799305384486
 20
9.9817573087299607
 30
0.0
 40
0.0193365373209812
 50
63.1704281830666616
 51
126.4179092500659038
  0
ARC
  5
1890A
  8
0
 10
22.0707416312221092
 20
9.9916468585895473
 30
0.0
 40
0.0080169341591733
 50
15.0784479659621198
 51
66.7423681099211592
  0
ARC
  5
1890B
  8
0
 10
22.0721422417904591
 20
9.9926266654652203
 30
0.0
 40
0.0064360006088814
 50
303.0822159798635766
 51
9.8927083035605214
  0
ARC
  5
1890C
  8
0
 10
22.065462135414279
 20
10.0016697862960999
 30
0.0
 40
0.0176717757072376
 50
268.5012365703424848
 51
305.2260431723261718
  0
ARC
  5
1890D
  8
0
 10
22.0647839131812411
 20
10.0031896912249394
 30
0.0
 40
0.0191868509271762
 50
243.5933658703401079
 51
270.6450637627929723
  0
ARC
  5
1890E
  8
0
 10
22.0606171728469889
 20
9.9947982870211352
 30
0.0
 40
0.0098178920989874
 50
205.6476051191067995
 51
243.5933658703401079
  0
ARC
  5
1890F
  8
0
 10
22.0575023792334086
 20
9.9925707434377973
 30
0.0
 40
0.0060817355493359
 50
128.6929864581454126
 51
199.4186449053682963
  0
ARC
  5
18910
  8
0
 10
22.0651182945064797
 20
9.9726129825078438
 30
0.0
 40
0.1024957511900968
 50
62.3989427643050476
 51
114.1961411283141956
  0
ARC
  5
18911
  8
0
 10
22.087306146970711
 20
10.0150525224734803
 30
0.0
 40
0.054606134888964
 50
31.7085109705432089
 51
62.3989427643050476
  0
ARC
  5
18912
  8
0
 10
22.1101937331860583
 20
10.0291928809278907
 30
0.0
 40
0.0277027644683727
 50
313.696725197963076
 51
31.7085109705432089
  0
ARC
  5
18913
  8
0
 10
22.0450997466688499
 20
10.0135743331852805
 30
0.0
 40
0.0569471262662259
 50
112.7155799080752985
 51
147.9931803004772917
  0
ARC
  5
18914
  8
0
 10
22.0200549153103786
 20
10.0292282259875893
 30
0.0
 40
0.0274126051487428
 50
147.9931803004772917
 51
224.9390265123965094
  0
ARC
  5
18915
  8
0
 10
22.0647084709078989
 20
9.9514541901329991
 30
0.0
 40
0.0891917744774726
 50
55.9726597956900704
 51
118.3659210462009952
  0
ARC
  5
18916
  8
0
 10
22.0962186165751717
 20
9.9981218515760322
 30
0.0
 40
0.0328822734627167
 50
1.784055129355586
 51
55.9726597956900704
  0
ARC
  5
18917
  8
0
 10
22.0904161072751783
 20
10.0013951610192997
 30
0.0
 40
0.0387342245586886
 50
302.0540583810137036
 51
356.6705135300821894
  0
ARC
  5
18918
  8
0
 10
22.0663486767881416
 20
10.0376687794130905
 30
0.0
 40
0.0822588942009511
 50
269.0467133373189768
 51
302.8531378958974187
  0
ARC
  5
18919
  8
0
 10
22.0642716396145886
 20
10.0412273383359505
 30
0.0
 40
0.0858089926244217
 50
241.5362240208245908
 51
270.4730650602987225
  0
ARC
  5
1891A
  8
0
 10
22.0446862396312895
 20
10.0056364480164106
 30
0.0
 40
0.0451866376236471
 50
202.3224353820592967
 51
241.8597670597847014
  0
ARC
  5
1891B
  8
0
 10
22.0302443355195408
 20
9.9991303067674906
 30
0.0
 40
0.029360685526749
 50
150.1659029941812946
 51
201.2817175138009134
  0
ARC
  5
1891C
  8
0
 10
22.0437879725675216
 20
9.9890673192328041
 30
0.0
 40
0.0461585984578681
 50
117.6973900593598046
 51
147.6931156249910089
  0
LINE
  5
1891D
  8
0
 10
22.0008950972393293
 20
9.999950103683231
 30
0.0
 11
21.9997113312858907
 21
10.0479671658545993
 31
0.0
  0
LINE
  5
1891E
  8
0
 10
22.1290849507770204
 20
9.9991455623028003
 30
0.0
 11
22.1303069178280296
 21
10.0487090771573904
 31
0.0
  0
ARC
  5
1891F
  8
0
 10
22.3346127403907211
 20
10.6152170077627197
 30
0.0
 40
0.0790439904184606
 50
50.3293361462745565
 51
115.455191352381604
  0
ARC
  5
18920
  8
0
 10
22.3209740583282716
 20
10.6407552198050794
 30
0.0
 40
0.0501408706639301
 50
113.9258442310196955
 51
149.5758045513474883
  0
ARC
  5
18921
  8
0
 10
22.3046054983187005
 20
10.6512096605830706
 30
0.0
 40
0.0307407264068085
 50
150.9288130830165926
 51
185.2361289139720952
  0
ARC
  5
18922
  8
0
 10
22.3156926170086898
 20
10.6534115146749109
 30
0.0
 40
0.0419991251880135
 50
186.8472721988171088
 51
227.9323927468020941
  0
ARC
  5
18923
  8
0
 10
22.3601227281710209
 20
10.7124425314029601
 30
0.0
 40
0.1157760366456942
 50
231.1846855589284075
 51
254.8950844439384014
  0
ARC
  5
18924
  8
0
 10
22.4178019906159705
 20
10.8816462640682392
 30
0.0
 40
0.2943927076714771
 50
252.6380129303352078
 51
261.3969112355125048
  0
ARC
  5
18925
  8
0
 10
22.4169734152435502
 20
10.8993820457847796
 30
0.0
 40
0.3118243202051445
 50
262.0349423766764971
 51
264.9428957847060246
  0
ARC
  5
18926
  8
0
 10
22.3902410095595705
 20
10.5985341498065893
 30
0.0
 40
0.0097917070502925
 50
265.5809269258795098
 51
344.5056852181488125
  0
ARC
  5
18927
  8
0
 10
22.3079818072481117
 20
10.6213378558426594
 30
0.0
 40
0.0951532052441016
 50
344.5056852181488125
 51
359.8348669461885265
  0
ARC
  5
18928
  8
0
 10
22.32907853493899
 20
10.6272052419040808
 30
0.0
 40
0.0743103151031942
 50
355.2591881293291749
 51
41.1043580671264266
  0
ARC
  5
18929
  8
0
 10
22.3252866345777292
 20
10.6450021146960303
 30
0.0
 40
0.0098571977730354
 50
141.7193212728570018
 51
211.3254042137500903
  0
ARC
  5
1892A
  8
0
 10
22.3302227107057689
 20
10.64858484115328
 30
0.0
 40
0.015944047465002
 50
213.1016620928880911
 51
248.2664340065350927
  0
ARC
  5
1892B
  8
0
 10
22.3339563770030693
 20
10.6566244573052895
 30
0.0
 40
0.024799583311493
 50
247.1313667478733009
 51
265.6423539866016199
  0
ARC
  5
1892C
  8
0
 10
22.3343359854807808
 20
10.6568660331605702
 30
0.0
 40
0.0250718911542139
 50
264.8192764290872105
 51
299.310659336915819
  0
ARC
  5
1892D
  8
0
 10
22.3403012674565886
 20
10.6467471873128705
 30
0.0
 40
0.0133305124695298
 50
298.2448052712522895
 51
343.685956191180594
  0
ARC
  5
1892E
  8
0
 10
22.3437781169787399
 20
10.6451932246407193
 30
0.0
 40
0.009570993774967
 50
346.7688870156021039
 51
28.8643857898400888
  0
ARC
  5
1892F
  8
0
 10
22.3387068174694399
 20
10.64184676868663
 30
0.0
 40
0.015635170776832
 50
30.6331708987707998
 51
68.8988733712528187
  0
ARC
  5
18930
  8
0
 10
22.3347577151133407
 20
10.63457724089794
 30
0.0
 40
0.0238628616190965
 50
66.3357183398722441
 51
136.1499710625693069
  0
ARC
  5
18931
  8
0
 10
22.2996197841730215
 20
10.6800948230623902
 30
0.0
 40
0.0351240229025349
 50
168.5281208456194122
 51
223.674412252577298
  0
ARC
  5
18932
  8
0
 10
22.3027526975993418
 20
10.6787617882480692
 30
0.0
 40
0.0384655412790506
 50
141.7931566079294896
 51
167.510255371200202
  0
ARC
  5
18933
  8
0
 10
22.3323697791939608
 20
10.6494170574629301
 30
0.0
 40
0.080028440625609
 50
91.4261657554403371
 51
138.3973429098300016
  0
ARC
  5
18934
  8
0
 10
22.3380344946570908
 20
10.6393991075840901
 30
0.0
 40
0.0903466145625611
 50
58.0234951782226105
 51
94.861423205610734
  0
ARC
  5
18935
  8
0
 10
22.3550169408089801
 20
10.6685419560213806
 30
0.0
 40
0.0566416500409544
 50
29.2152012697276611
 51
56.9839702380298831
  0
ARC
  5
18936
  8
0
 10
22.3226598420107898
 20
10.6573542178450094
 30
0.0
 40
0.0905442470154223
 50
339.8752495380311984
 51
25.3974940604753812
  0
ARC
  5
18937
  8
0
 10
22.4004675240333917
 20
10.6294971637294609
 30
0.0
 40
0.0079262799791618
 50
290.2469830714665022
 51
335.4276319510736926
  0
LINE
  5
18938
  8
0
 10
22.2725271282132518
 20
10.7025528122103601
 30
0.0
 11
22.27366569528116
 21
10.6564287880295492
 31
0.0
  0
LINE
  5
18939
  8
0
 10
22.4044533544874689
 20
10.6961882491098503
 30
0.0
 11
22.4033678390699009
 21
10.6289722230841193
 31
0.0
  0
ARC
  5
1893A
  8
0
 10
22.5025582975877114
 20
10.7762884405759305
 30
0.0
 40
0.0805874813319564
 50
76.1906925005071685
 51
123.2754412074661019
  0
ARC
  5
1893B
  8
0
 10
22.4786892568138192
 20
10.8115936648819897
 30
0.0
 40
0.0379792164763195
 50
122.3931545911813998
 51
179.540379592748593
  0
ARC
  5
1893C
  8
0
 10
22.4842471434360185
 20
10.8159308014321702
 30
0.0
 40
0.0437222345791839
 50
185.2918749292487064
 51
248.0715642945802983
  0
ARC
  5
1893D
  8
0
 10
22.501013395068
 20
10.8441090433454992
 30
0.0
 40
0.0762891471366518
 50
244.2910309091570866
 51
264.7024929815121936
  0
ARC
  5
1893E
  8
0
 10
22.50845157918193
 20
10.9176324006205601
 30
0.0
 40
0.1501864848174378
 50
264.4666492939517752
 51
276.86600923850051
  0
ARC
  5
1893F
  8
0
 10
22.495038236197221
 20
11.0480861995297204
 30
0.0
 40
0.2813174887436185
 50
276.4019790359674857
 51
290.7619158575803908
  0
ARC
  5
18940
  8
0
 10
22.591411645596601
 20
10.7940335037375501
 30
0.0
 40
0.0095997844113095
 50
290.4213204746855013
 51
358.7656093665851813
  0
ARC
  5
18941
  8
0
 10
22.5953087256239797
 20
10.7938972802217901
 30
0.0
 40
0.0057009135151393
 50
359.2906333221008026
 51
32.6792599349523627
  0
ARC
  5
18942
  8
0
 10
22.4720169586367895
 20
10.7068846538516596
 30
0.0
 40
0.1565996772460818
 50
35.1201782694381777
 51
51.9381079685024005
  0
ARC
  5
18943
  8
0
 10
22.4930996257822713
 20
10.7423950181149497
 30
0.0
 40
0.1157641146754489
 50
49.3173813668880427
 51
75.6486251641671572
  0
ARC
  5
18944
  8
0
 10
22.4698416752316383
 20
10.8428082822145697
 30
0.0
 40
0.0387358875830189
 50
194.1313463082213957
 51
222.0491189547194892
  0
ARC
  5
18945
  8
0
 10
22.4657847868094898
 20
10.8417869024087192
 30
0.0
 40
0.0345524009536625
 50
154.359095452082812
 51
194.1313463082219073
  0
ARC
  5
18946
  8
0
 10
22.4813738777617402
 20
10.8343041726557008
 30
0.0
 40
0.0518443355266693
 50
131.2641989069024078
 51
154.359095452082812
  0
ARC
  5
18947
  8
0
 10
22.5014719557933915
 20
10.8078472628919293
 30
0.0
 40
0.0850189592754961
 50
95.9693267854767242
 51
129.6857305801983102
  0
ARC
  5
18948
  8
0
 10
22.5053871681066617
 20
10.7870108214940394
 30
0.0
 40
0.1061636350433138
 50
80.9458437059606979
 51
96.9014586960692554
  0
ARC
  5
18949
  8
0
 10
22.5001823666918916
 20
10.7657524789003798
 30
0.0
 40
0.1279887501651664
 50
51.3464081892825206
 51
80.1424564998829112
  0
ARC
  5
1894A
  8
0
 10
22.5012581158379703
 20
10.7580766883240102
 30
0.0
 40
0.1334301506947912
 50
35.7172633699718673
 51
53.766606057041912
  0
ARC
  5
1894B
  8
0
 10
22.5438785475758294
 20
10.7893164573013802
 30
0.0
 40
0.0805904047368063
 50
30.9068151490177385
 51
35.37415507150682
  0
ARC
  5
1894C
  8
0
 10
22.6086566501147814
 20
10.8281470038989394
 30
0.0
 40
0.0050656853940532
 50
315.2200662140479039
 51
30.4100716648898093
  0
ARC
  5
1894D
  8
0
 10
22.6051115217024083
 20
10.8310060099827794
 30
0.0
 40
0.0096073164969549
 50
294.8993812085730042
 51
318.0108110582073095
  0
ARC
  5
1894E
  8
0
 10
22.508770734244969
 20
11.0316214506545105
 30
0.0
 40
0.2321556239493292
 50
293.6361022497167141
 51
295.6204118832891936
  0
ARC
  5
1894F
  8
0
 10
-30619.5883858589295414
 20
1034.1041266067450124
 30
0.0
 40
30659.271597692710202
 50
358.0872913654509944
 51
358.0873865947029913
  0
ARC
  5
18950
  8
0
 10
22.5005948031841498
 20
10.7974869821700494
 30
0.0
 40
0.0229826014982869
 50
90.1232656506132344
 51
130.672322519929395
  0
ARC
  5
18951
  8
0
 10
22.5011931559555514
 20
10.7949665663426408
 30
0.0
 40
0.0255111901171565
 50
70.2849333452604554
 51
91.4550493823279567
  0
ARC
  5
18952
  8
0
 10
22.5044630285237801
 20
10.8029256568605803
 30
0.0
 40
0.0169201492211767
 50
41.7999079723978966
 51
71.6167170769452923
  0
ARC
  5
18953
  8
0
 10
22.5088743030111402
 20
10.8068697787074495
 30
0.0
 40
0.011002764685191
 50
7.2865346452737931
 51
41.7999079723981879
  0
ARC
  5
18954
  8
0
 10
22.509238526806179
 20
10.8074170586556306
 30
0.0
 40
0.0105837299128003
 50
316.0179719430695968
 51
4.5968141129333508
  0
ARC
  5
18955
  8
0
 10
22.5033237932875991
 20
10.8128372026105293
 30
0.0
 40
0.0186048016117096
 50
288.052490771515977
 51
316.6563241701630886
  0
ARC
  5
18956
  8
0
 10
22.5006314138189794
 20
10.8200786494985408
 30
0.0
 40
0.0263260046642656
 50
253.3815409605174978
 51
288.7398194286171247
  0
ARC
  5
18957
  8
0
 10
22.497988270009369
 20
10.8122869490715097
 30
0.0
 40
0.0181063862107225
 50
221.6628262703775079
 51
254.3446300255646975
  0
ARC
  5
18958
  8
0
 10
22.4920372098225414
 20
10.8069697651302992
 30
0.0
 40
0.0101259674520875
 50
170.5595752422671865
 51
221.5702314413713907
  0
ARC
  5
18959
  8
0
 10
22.4944887373509808
 20
10.8057272487782008
 30
0.0
 40
0.0127746690894939
 50
133.9900404602198876
 51
166.8631472458463918
  0
LINE
  5
1895A
  8
0
 10
22.4393708545799306
 20
10.8646946509303994
 30
0.0
 11
22.4405035482805886
 21
10.8175151350428607
 31
0.0
  0
ARC
  5
1895B
  8
0
 10
22.3050866562311683
 20
11.2056414670150701
 30
0.0
 40
0.040507595830032
 50
143.5932063744589016
 51
219.2372543990416887
  0
LINE
  5
1895C
  8
0
 10
22.2724851940406694
 20
11.2296833051928608
 30
0.0
 11
22.2738183572387101
 21
11.1757210031229697
 31
0.0
  0
ARC
  5
1895D
  8
0
 10
22.3111625325395693
 20
11.1766436079462199
 30
0.0
 40
0.0373555702482987
 50
181.4152303868013973
 51
220.5383011484225904
  0
ARC
  5
1895E
  8
0
 10
22.3289452516509499
 20
11.1920100573170007
 30
0.0
 40
0.0608575704800484
 50
220.6513505279270078
 51
260.5250199276583771
  0
ARC
  5
1895F
  8
0
 10
22.3345177633688188
 20
11.2083710975610096
 30
0.0
 40
0.0779631470807969
 50
258.4644909666910735
 51
288.6277835356880246
  0
ARC
  5
18960
  8
0
 10
22.3394735475554889
 20
11.1952710247471305
 30
0.0
 40
0.0639684157035309
 50
288.1694025385687041
 51
315.1073239041480178
  0
ARC
  5
18961
  8
0
 10
22.331655734588189
 20
11.1967830780182993
 30
0.0
 40
0.0707139033896357
 50
318.7124526097567241
 51
355.2445025955274218
  0
ARC
  5
18962
  8
0
 10
22.2776187281924507
 20
11.2069099230177809
 30
0.0
 40
0.1255299583874875
 50
352.6821071703042207
 51
2.701459513812801
  0
ARC
  5
18963
  8
0
 10
22.3065883363816084
 20
11.2077947367757496
 30
0.0
 40
0.0965520428325998
 50
2.987228619283524
 51
15.0179193506605007
  0
ARC
  5
18964
  8
0
 10
22.3906147202076617
 20
11.2281056029898991
 30
0.0
 40
0.010359427556655
 50
27.0293414839459203
 51
98.5461921796893421
  0
ARC
  5
18965
  8
0
 10
22.4158573552567191
 20
10.9690322455476608
 30
0.0
 40
0.2706461460853204
 50
95.6790673025770246
 51
104.759766300816807
  0
ARC
  5
18966
  8
0
 10
22.3752442279368289
 20
11.0890287892658606
 30
0.0
 40
0.1445245180909509
 50
101.3078828342536042
 51
128.0261031476522078
  0
ARC
  5
18967
  8
0
 10
22.3105092327662184
 20
11.1753210862461501
 30
0.0
 40
0.0367351924948389
 50
131.4034105409706115
 51
178.0117656076573098
  0
ARC
  5
18968
  8
0
 10
22.3193258626273803
 20
11.1973870750103099
 30
0.0
 40
0.0568954718553017
 50
136.7724243349630058
 51
145.4140773956366957
  0
ARC
  5
18969
  8
0
 10
22.3519764924032884
 20
11.1631856170218402
 30
0.0
 40
0.1041419269706479
 50
116.8816317759650047
 51
135.3648528161878062
  0
ARC
  5
1896A
  8
0
 10
22.4211023945622294
 20
11.02678690626262
 30
0.0
 40
0.2570569312705557
 50
104.6978690538820018
 51
116.8780254221264983
  0
ARC
  5
1896B
  8
0
 10
22.4180079054016801
 20
11.0456480196115496
 30
0.0
 40
0.2380346140173399
 50
96.7631744423312767
 51
105.1292741017775967
  0
ARC
  5
1896C
  8
0
 10
22.398508179959471
 20
11.2289079281590602
 30
0.0
 40
0.0537992658193469
 50
87.5474122608386978
 51
99.1256801194988384
  0
ARC
  5
1896D
  8
0
 10
22.3991070996788295
 20
11.2722115990421905
 30
0.0
 40
0.0105842654381056
 50
59.8229701758819417
 51
80.7392939022623608
  0
ARC
  5
1896E
  8
0
 10
22.4010276402903585
 20
11.2751398136771108
 30
0.0
 40
0.007089989929988
 50
20.3290354266340216
 51
61.3450563883022895
  0
ARC
  5
1896F
  8
0
 10
22.3068294330853298
 20
11.2441474205769705
 30
0.0
 40
0.1062511457203997
 50
4.034980424070242
 51
18.353099278299041
  0
ARC
  5
18970
  8
0
 10
22.297362481288161
 20
11.2406645824134692
 30
0.0
 40
0.1159737037862723
 50
334.6006774031361033
 51
5.4224123553801498
  0
LINE
  5
18971
  8
0
 10
22.4008103936537211
 20
11.2826579124827902
 30
0.0
 11
22.3998426280632401
 21
11.2328134109628497
 31
0.0
  0
ARC
  5
18972
  8
0
 10
22.3344560436945905
 20
11.1575341619798802
 30
0.0
 40
0.0254643003794281
 50
64.2166592373001635
 51
107.1292150964621044
  0
ARC
  5
18973
  8
0
 10
22.3387732044685912
 20
11.1664712685619794
 30
0.0
 40
0.0155390925121489
 50
36.9878716406631511
 51
64.2166592373001635
  0
ARC
  5
18974
  8
0
 10
22.34271603902382
 20
11.1694410991673792
 30
0.0
 40
0.0106029160409496
 50
349.8076445543820228
 51
36.9878716406631511
  0
ARC
  5
18975
  8
0
 10
22.3403129454328209
 20
11.1708044927912091
 30
0.0
 40
0.0132411104473576
 50
300.7092253426096136
 51
345.838053711009195
  0
ARC
  5
18976
  8
0
 10
22.3344457783450387
 20
11.1800004111203304
 30
0.0
 40
0.0241462497001402
 50
267.653806036671881
 51
301.5355578277215045
  0
ARC
  5
18977
  8
0
 10
22.3338072339075602
 20
11.1790833053044505
 30
0.0
 40
0.02321154044717
 50
237.3421505760985042
 51
269.1361705343350081
  0
ARC
  5
18978
  8
0
 10
22.3286773200778512
 20
11.1710466088914
 30
0.0
 40
0.0136771834122709
 50
204.1634500110720865
 51
237.2673510159451098
  0
ARC
  5
18979
  8
0
 10
22.3254011074685508
 20
11.1693396478823708
 30
0.0
 40
0.0099916403453621
 50
150.5857038757173996
 51
202.9229450075362138
  0
ARC
  5
1897A
  8
0
 10
22.3314155985367186
 20
11.1651523654007292
 30
0.0
 40
0.0173011852136289
 50
104.9369903195662062
 51
148.2879106668713121
  0
ARC
  5
1897B
  8
0
 10
22.5088678465247405
 20
10.8095185871726294
 30
0.0
 40
0.2481767081900458
 50
69.4445730738208908
 51
79.155737831196106
  0
ARC
  5
1897C
  8
0
 10
22.5074477687460686
 20
10.8298437172578108
 30
0.0
 40
0.2285413053359846
 50
77.84728763230585
 51
90.5704810106830962
  0
ARC
  5
1897D
  8
0
 10
22.5087290834949592
 20
10.9423610829187403
 30
0.0
 40
0.1160671223044086
 50
91.7560714296550941
 51
102.283693818536193
  0
ARC
  5
1897E
  8
0
 10
22.4984528538542392
 20
10.98749445756855
 30
0.0
 40
0.0697821114013924
 50
101.9234586854200018
 51
125.0321941904400944
  0
ARC
  5
1897F
  8
0
 10
22.4819261871761711
 20
11.00968697522082
 30
0.0
 40
0.0421307761628078
 50
123.9534088352272931
 51
169.2968894440759868
  0
ARC
  5
18980
  8
0
 10
22.506121390926431
 20
11.0173840939923302
 30
0.0
 40
0.0655931425454775
 50
179.8887093084923094
 51
188.9998671291907897
  0
ARC
  5
18981
  8
0
 10
22.4820615619446507
 20
11.0159773651414703
 30
0.0
 40
0.0416771503619598
 50
192.2657400268442132
 51
228.5356389752568873
  0
ARC
  5
18982
  8
0
 10
22.4976882932270001
 20
11.0347212827162
 30
0.0
 40
0.0660742616695976
 50
229.1436842420229993
 51
266.20884219299802
  0
ARC
  5
18983
  8
0
 10
22.5009817829889087
 20
11.0557281546757302
 30
0.0
 40
0.0872735552280837
 50
264.9631450241893731
 51
283.2213583375856274
  0
ARC
  5
18984
  8
0
 10
22.4909029131285685
 20
11.0806835341070293
 30
0.0
 40
0.1139465700054662
 50
285.285458903221695
 51
310.3274116574613117
  0
ARC
  5
18985
  8
0
 10
22.4635775442552799
 20
11.1242402097525002
 30
0.0
 40
0.1650001835805077
 50
307.772159593827098
 51
325.3998887963419975
  0
ARC
  5
18986
  8
0
 10
22.59380779608016
 20
11.0350866025150705
 30
0.0
 40
0.0071998259620638
 50
320.897718410467121
 51
37.9517016806367593
  0
ARC
  5
18987
  8
0
 10
22.5922846491191187
 20
11.0327223439332105
 30
0.0
 40
0.0098984393967057
 50
43.328627400636492
 51
67.9167630967489515
  0
ARC
  5
18988
  8
0
 10
115.7171369352507071
 20
7.9848743689126138
 30
0.0
 40
93.1660908467610227
 50
178.0937325698972131
 51
178.1236374921259937
  0
ARC
  5
18989
  8
0
 10
22.491718250318069
 20
11.1400734407600304
 30
0.0
 40
0.1385827964527473
 50
322.5036644801936063
 51
329.6929833310567801
  0
ARC
  5
1898A
  8
0
 10
22.5188424248586614
 20
11.1242188965873101
 30
0.0
 40
0.107164849106779
 50
329.6929833310929894
 51
331.5051412605554901
  0
ARC
  5
1898B
  8
0
 10
22.6085112767536813
 20
11.0757208713686595
 30
0.0
 40
0.0052233926706119
 50
329.7911203189426033
 51
26.6372230974508994
  0
ARC
  5
1898C
  8
0
 10
22.6066318858099287
 20
11.0744959539920895
 30
0.0
 40
0.0074567599191184
 50
28.5762197149709394
 51
70.2087104411530305
  0
ARC
  5
1898D
  8
0
 10
22.5436354587597911
 20
10.9187317677782403
 30
0.0
 40
0.1754722842218822
 50
68.0745787708927139
 51
70.3626121517949059
  0
ARC
  5
1898E
  8
0
 10
22.5344356174641796
 20
10.8918187541335705
 30
0.0
 40
0.2039121024183092
 50
70.4693270987585407
 51
76.7209866619795235
  0
ARC
  5
1898F
  8
0
 10
22.5179191863860915
 20
10.8169862006992297
 30
0.0
 40
0.2805397867396713
 50
76.9484428708020687
 51
86.107924789005736
  0
ARC
  5
18990
  8
0
 10
22.5220453522515385
 20
10.9258625518708108
 30
0.0
 40
0.1716656823156172
 50
85.0152553338931938
 51
102.8826716620032045
  0
ARC
  5
18991
  8
0
 10
22.5045160823767212
 20
11.0048003031997794
 30
0.0
 40
0.0908080965205138
 50
103.2054415666373046
 51
124.4211714154431974
  0
ARC
  5
18992
  8
0
 10
22.4868118952011606
 20
11.0317021140967899
 30
0.0
 40
0.0586120855845463
 50
125.0102189629709954
 51
144.0662123391784917
  0
ARC
  5
18993
  8
0
 10
22.4731383416065107
 20
11.0411950802557008
 30
0.0
 40
0.0419710815178698
 50
143.6049177405969886
 51
171.7780243067961123
  0
ARC
  5
18994
  8
0
 10
22.4698226973019111
 20
11.0425094152145498
 30
0.0
 40
0.0385104295943555
 50
173.0080227504103902
 51
220.4753330989422011
  0
LINE
  5
18995
  8
0
 10
22.4393539408106513
 20
11.0660986130703591
 30
0.0
 11
22.4405283721183686
 21
11.0175115013103593
 31
0.0
  0
ARC
  5
18996
  8
0
 10
22.5010576641212197
 20
10.9953953727268896
 30
0.0
 40
0.0254759817765859
 50
64.1726032866948231
 51
115.2494969306249999
  0
ARC
  5
18997
  8
0
 10
22.5059371048833299
 20
11.0054766758784002
 30
0.0
 40
0.0142759096615441
 50
16.0864042680454986
 51
64.1726032866948231
  0
ARC
  5
18998
  8
0
 10
22.5095930174141792
 20
11.0075728059968494
 30
0.0
 40
0.0102314245701759
 50
322.1342070828267765
 51
10.4715530507346593
  0
ARC
  5
18999
  8
0
 10
22.5030602411729888
 20
11.0130526600220495
 30
0.0
 40
0.0187550054057669
 50
283.195142645489625
 51
321.1682897819933942
  0
ARC
  5
1899A
  8
0
 10
22.5006944995534504
 20
11.0194475637277502
 30
0.0
 40
0.0255350328233101
 50
244.490407175102888
 51
285.0882040049792181
  0
ARC
  5
1899B
  8
0
 10
22.4986275019208186
 20
11.0130105994274192
 30
0.0
 40
0.0188572189159249
 50
218.0154159306979125
 51
241.7345346180948127
  0
ARC
  5
1899C
  8
0
 10
22.4923092349032991
 20
11.0073783123094699
 30
0.0
 40
0.0104249412675828
 50
185.74752875010401
 51
215.0125686920457895
  0
ARC
  5
1899D
  8
0
 10
22.4923262186021411
 20
11.0071507861249707
 30
0.0
 40
0.010421550126035
 50
142.1395712429726075
 51
184.4934687927764969
  0
ARC
  5
1899E
  8
0
 10
22.4961858824370395
 20
11.0047287443057602
 30
0.0
 40
0.0149622591784513
 50
113.6215122891078977
 51
143.888358524305886
  0
ARC
  5
1899F
  8
0
 10
21.9441550004288395
 20
10.8884255373556904
 30
0.0
 40
0.3287566720144089
 50
127.2480350278434003
 51
144.4201498783010038
  0
ARC
  5
189A0
  8
0
 10
21.9666905272306998
 20
11.0230731272613909
 30
0.0
 40
0.3625123504878356
 50
218.8638876507498026
 51
235.4814263480643035
  0
ARC
  5
189A1
  8
0
 10
21.8496324142856189
 20
10.9431263165342099
 30
0.0
 40
0.2182773033890473
 50
173.3139643197652902
 51
193.4366423706237015
  0
ARC
  5
189A2
  8
0
 10
22.0586367085184598
 20
11.2041446792557
 30
0.0
 40
0.5670193951510722
 50
249.965255479098289
 51
264.2062216441946134
  0
ARC
  5
189A3
  8
0
 10
21.7953474939932583
 20
10.6152170077627197
 30
0.0
 40
0.0790439904184606
 50
64.5448086476183533
 51
129.6706638537253866
  0
ARC
  5
189A4
  8
0
 10
21.8089861760560808
 20
10.6407552198050794
 30
0.0
 40
0.0501408706639301
 50
30.4241954486524904
 51
66.0741557689802335
  0
ARC
  5
189A5
  8
0
 10
21.8253547360656484
 20
10.6512096605830706
 30
0.0
 40
0.0307407264068085
 50
354.7638710860272795
 51
29.0711869169834003
  0
ARC
  5
189A6
  8
0
 10
21.8142676173752896
 20
10.6534115146749109
 30
0.0
 40
0.0419991251880135
 50
312.0676072531973091
 51
353.1527278011827775
  0
ARC
  5
189A7
  8
0
 10
21.7698375062133316
 20
10.7124425314029601
 30
0.0
 40
0.1157760366456942
 50
285.1049155560615986
 51
308.8153144410715072
  0
ARC
  5
189A8
  8
0
 10
21.7121582437683784
 20
10.8816462640682392
 30
0.0
 40
0.2943927076714771
 50
278.6030887644876088
 51
287.3619870696647922
  0
ARC
  5
189A9
  8
0
 10
21.7129868191407986
 20
10.8993820457847796
 30
0.0
 40
0.3118243202051445
 50
275.0571042152939754
 51
277.9650576233235029
  0
ARC
  5
189AA
  8
0
 10
21.7397192248244089
 20
10.5985341498065893
 30
0.0
 40
0.0097917070502925
 50
195.4943147818507896
 51
274.4190730741204902
  0
ARC
  5
189AB
  8
0
 10
21.8219784271358712
 20
10.6213378558426594
 30
0.0
 40
0.0951532052441016
 50
180.1651330538113029
 51
195.4943147818507896
  0
ARC
  5
189AC
  8
0
 10
21.8008816994453589
 20
10.6272052419040808
 30
0.0
 40
0.0743103151031942
 50
138.8956419328733034
 51
184.7408118706700861
  0
ARC
  5
189AD
  8
0
 10
21.8046735998066197
 20
10.6450021146960303
 30
0.0
 40
0.0098571977730354
 50
328.6745957862498244
 51
38.2806787271429698
  0
ARC
  5
189AE
  8
0
 10
21.7997375236782105
 20
10.64858484115328
 30
0.0
 40
0.015944047465002
 50
291.733565993464822
 51
326.8983379071120225
  0
ARC
  5
189AF
  8
0
 10
21.7960038573809101
 20
10.6566244573052895
 30
0.0
 40
0.024799583311493
 50
274.3576460133983801
 51
292.8686332521264148
  0
ARC
  5
189B0
  8
0
 10
21.7956242489035787
 20
10.6568660331605702
 30
0.0
 40
0.0250718911542139
 50
240.6893406630842094
 51
275.1807235709127895
  0
ARC
  5
189B1
  8
0
 10
21.7896589669273801
 20
10.6467471873128705
 30
0.0
 40
0.0133305124695298
 50
196.3140438088188944
 51
241.7551947287477105
  0
ARC
  5
189B2
  8
0
 10
21.7861821174052288
 20
10.6451932246407193
 30
0.0
 40
0.009570993774967
 50
151.1356142101599005
 51
193.2311129843974129
  0
ARC
  5
189B3
  8
0
 10
21.791253416914909
 20
10.64184676868663
 30
0.0
 40
0.015635170776832
 50
111.1011266287471955
 51
149.3668291012292002
  0
ARC
  5
189B4
  8
0
 10
21.7952025192706387
 20
10.63457724089794
 30
0.0
 40
0.0238628616190965
 50
43.8500289374306575
 51
113.6642816601276991
  0
ARC
  5
189B5
  8
0
 10
21.8303404502113416
 20
10.6800948230623902
 30
0.0
 40
0.0351240229025349
 50
316.3255877474223894
 51
11.4718791543802094
  0
ARC
  5
189B6
  8
0
 10
21.8272075367846412
 20
10.6787617882480692
 30
0.0
 40
0.0384655412790506
 50
12.4897446288002101
 51
38.2068433920704393
  0
ARC
  5
189B7
  8
0
 10
21.7975904551903916
 20
10.6494170574629301
 30
0.0
 40
0.080028440625609
 50
41.602657090170311
 51
88.5738342445596629
  0
ARC
  5
189B8
  8
0
 10
21.7919257397272688
 20
10.6393991075840901
 30
0.0
 40
0.0903466145625611
 50
85.1385767943892802
 51
121.9765048217773966
  0
ARC
  5
189B9
  8
0
 10
21.7749432935753688
 20
10.6685419560213806
 30
0.0
 40
0.0566416500409544
 50
123.0160297619701026
 51
150.7847987302723141
  0
ARC
  5
189BA
  8
0
 10
21.8073003923735591
 20
10.6573542178450094
 30
0.0
 40
0.0905442470154223
 50
154.6025059395246046
 51
200.1247504619688016
  0
ARC
  5
189BB
  8
0
 10
21.7294927103505913
 20
10.6294971637294609
 30
0.0
 40
0.0079262799791618
 50
204.5723680489261938
 51
249.7530169285334125
  0
LINE
  5
189BC
  8
0
 10
21.8574331061711007
 20
10.7025528122103601
 30
0.0
 11
21.8562945391031889
 21
10.6564287880295492
 31
0.0
  0
LINE
  5
189BD
  8
0
 10
21.7255068798965105
 20
10.6961882491098503
 30
0.0
 11
21.7265923953144515
 21
10.6289722230841193
 31
0.0
  0
ARC
  5
189BE
  8
0
 10
21.627401936796641
 20
10.7762884405759305
 30
0.0
 40
0.0805874813319564
 50
56.7245587925339123
 51
103.8093074994928031
  0
ARC
  5
189BF
  8
0
 10
21.6512709775701495
 20
10.8115936648819897
 30
0.0
 40
0.0379792164763195
 50
0.4596204072513233
 51
57.6068454088185575
  0
ARC
  5
189C0
  8
0
 10
21.6457130909483304
 20
10.8159308014321702
 30
0.0
 40
0.0437222345791839
 50
291.9284357054197017
 51
354.708125070750782
  0
ARC
  5
189C1
  8
0
 10
21.6289468393163489
 20
10.8441090433454992
 30
0.0
 40
0.0762891471366518
 50
275.2975070184878064
 51
295.7089690908429134
  0
ARC
  5
189C2
  8
0
 10
21.6215086552020495
 20
10.9176324006205601
 30
0.0
 40
0.1501864848174378
 50
263.1339907614996037
 51
275.5333507060482248
  0
ARC
  5
189C3
  8
0
 10
21.6349219981871386
 20
11.0480861995297204
 30
0.0
 40
0.2813174887436185
 50
249.2380841424194955
 51
263.5980209640322869
  0
ARC
  5
189C4
  8
0
 10
21.5385485887877515
 20
10.7940335037375501
 30
0.0
 40
0.0095997844113095
 50
181.2343906334143071
 51
249.5786795253144987
  0
ARC
  5
189C5
  8
0
 10
21.5346515087603692
 20
10.7938972802217901
 30
0.0
 40
0.0057009135151393
 50
147.3207400650474881
 51
180.7093666778991974
  0
ARC
  5
189C6
  8
0
 10
21.6579432757475594
 20
10.7068846538516596
 30
0.0
 40
0.1565996772460818
 50
128.0618920314975924
 51
144.8798217305617868
  0
ARC
  5
189C7
  8
0
 10
21.6368606086020812
 20
10.7423950181149497
 30
0.0
 40
0.1157641146754489
 50
104.3513748358328002
 51
130.6826186331119004
  0
ARC
  5
189C8
  8
0
 10
21.6601185591523411
 20
10.8428082822145697
 30
0.0
 40
0.0387358875830189
 50
317.9508810452800844
 51
345.8686536917784906
  0
ARC
  5
189C9
  8
0
 10
21.664175447574479
 20
10.8417869024087192
 30
0.0
 40
0.0345524009536625
 50
345.868653691777979
 51
25.6409045479174402
  0
ARC
  5
189CA
  8
0
 10
21.6485863566222392
 20
10.8343041726557008
 30
0.0
 40
0.0518443355266693
 50
25.6409045479174402
 51
48.7358010930975922
  0
ARC
  5
189CB
  8
0
 10
21.6284882785905914
 20
10.8078472628919293
 30
0.0
 40
0.0850189592754961
 50
50.3142694198016969
 51
84.0306732145232758
  0
ARC
  5
189CC
  8
0
 10
21.6245730662773106
 20
10.7870108214940394
 30
0.0
 40
0.1061636350433138
 50
83.0985413039307446
 51
99.0541562940393163
  0
ARC
  5
189CD
  8
0
 10
21.6297778676924608
 20
10.7657524789003798
 30
0.0
 40
0.1279887501651664
 50
99.8575435001170746
 51
128.653591810717387
  0
ARC
  5
189CE
  8
0
 10
21.6287021185460091
 20
10.7580766883240102
 30
0.0
 40
0.1334301506947912
 50
126.2333939429581022
 51
144.2827366300282108
  0
ARC
  5
189CF
  8
0
 10
21.5860816868085195
 20
10.7893164573013802
 30
0.0
 40
0.0805904047368063
 50
144.6258449284931942
 51
149.0931848509823112
  0
ARC
  5
189D0
  8
0
 10
21.5213035842692015
 20
10.8281470038989394
 30
0.0
 40
0.0050656853940532
 50
149.5899283351101872
 51
224.7799337859520108
  0
ARC
  5
189D1
  8
0
 10
21.5248487126819406
 20
10.8310060099827794
 30
0.0
 40
0.0096073164969549
 50
221.9891889417926052
 51
245.1006187914269958
  0
ARC
  5
189D2
  8
0
 10
21.6211895001393906
 20
11.0316214506545105
 30
0.0
 40
0.2321556239493292
 50
244.3795881167108064
 51
246.3638977502832859
  0
ARC
  5
189D3
  8
0
 10
30663.7183460933010792
 20
1034.1041266067450124
 30
0.0
 40
30659.271597692710202
 50
181.9126134052964971
 51
181.9127086345480109
  0
ARC
  5
189D4
  8
0
 10
21.6293654311998189
 20
10.7974869821700494
 30
0.0
 40
0.0229826014982869
 50
49.3276774800705908
 51
89.8767343493867656
  0
ARC
  5
189D5
  8
0
 10
21.6287670784284316
 20
10.7949665663426408
 30
0.0
 40
0.0255111901171565
 50
88.5449506176720575
 51
109.7150666547395019
  0
ARC
  5
189D6
  8
0
 10
21.6254972058605794
 20
10.8029256568605803
 30
0.0
 40
0.0169201492211767
 50
108.3832829230546935
 51
138.2000920276020963
  0
ARC
  5
189D7
  8
0
 10
21.6210859313728392
 20
10.8068697787074495
 30
0.0
 40
0.011002764685191
 50
138.2000920276018121
 51
172.7134653547261962
  0
ARC
  5
189D8
  8
0
 10
21.6207217075778004
 20
10.8074170586556306
 30
0.0
 40
0.0105837299128003
 50
175.4031858870660869
 51
223.9820280569300905
  0
ARC
  5
189D9
  8
0
 10
21.6266364410967604
 20
10.8128372026105293
 30
0.0
 40
0.0186048016117096
 50
223.3436758298367977
 51
251.9475092284839945
  0
ARC
  5
189DA
  8
0
 10
21.6293288205653802
 20
10.8200786494985408
 30
0.0
 40
0.0263260046642656
 50
251.2601805713829037
 51
286.6184590394825022
  0
ARC
  5
189DB
  8
0
 10
21.6319719643749906
 20
10.8122869490715097
 30
0.0
 40
0.0181063862107225
 50
285.6553699744353025
 51
318.3371737296225206
  0
ARC
  5
189DC
  8
0
 10
21.637923024561811
 20
10.8069697651302992
 30
0.0
 40
0.0101259674520875
 50
318.4297685586283251
 51
9.4404247577328384
  0
ARC
  5
189DD
  8
0
 10
21.6354714970329916
 20
10.8057272487782008
 30
0.0
 40
0.0127746690894939
 50
13.1368527541535496
 51
46.0099595397801195
  0
LINE
  5
189DE
  8
0
 10
21.6905893798044183
 20
10.8646946509303994
 30
0.0
 11
21.6894566861033908
 21
10.8175151350428607
 31
0.0
  0
ARC
  5
189DF
  8
0
 10
21.8248735781528111
 20
11.2056414670150701
 30
0.0
 40
0.040507595830032
 50
320.7627456009582261
 51
36.4067936255410629
  0
LINE
  5
189E0
  8
0
 10
21.85747504034331
 20
11.2296833051928608
 30
0.0
 11
21.8561418771456388
 21
11.1757210031229697
 31
0.0
  0
ARC
  5
189E1
  8
0
 10
21.8187977018444101
 20
11.1766436079462199
 30
0.0
 40
0.0373555702482987
 50
319.4616988515774096
 51
358.5847696131979774
  0
ARC
  5
189E2
  8
0
 10
21.801014982733399
 20
11.1920100573170007
 30
0.0
 40
0.0608575704800484
 50
279.4749800723416797
 51
319.3486494720730207
  0
ARC
  5
189E3
  8
0
 10
21.7954424710155301
 20
11.2083710975610096
 30
0.0
 40
0.0779631470807969
 50
251.3722164643120038
 51
281.5355090333089265
  0
ARC
  5
189E4
  8
0
 10
21.7904866868288707
 20
11.1952710247471305
 30
0.0
 40
0.0639684157035309
 50
224.8926760958516979
 51
251.8305974614312959
  0
ARC
  5
189E5
  8
0
 10
21.7983044997957904
 20
11.1967830780182993
 30
0.0
 40
0.0707139033896357
 50
184.7554974044724929
 51
221.2875473902431906
  0
ARC
  5
189E6
  8
0
 10
21.8523415061919017
 20
11.2069099230177809
 30
0.0
 40
0.1255299583874875
 50
177.2985404861871928
 51
187.3178928296952961
  0
ARC
  5
189E7
  8
0
 10
21.8233718980027511
 20
11.2077947367757496
 30
0.0
 40
0.0965520428325998
 50
164.9820806493395082
 51
177.0127713807164866
  0
ARC
  5
189E8
  8
0
 10
21.7393455141766907
 20
11.2281056029898991
 30
0.0
 40
0.010359427556655
 50
81.4538078203106579
 51
152.9706585160541863
  0
ARC
  5
189E9
  8
0
 10
21.7141028791272603
 20
10.9690322455476608
 30
0.0
 40
0.2706461460853204
 50
75.240233699183193
 51
84.3209326974229754
  0
ARC
  5
189EA
  8
0
 10
21.7547160064471399
 20
11.0890287892658606
 30
0.0
 40
0.1445245180909509
 50
51.9738968523477425
 51
78.69211716574641
  0
ARC
  5
189EB
  8
0
 10
21.819451001617761
 20
11.1753210862461501
 30
0.0
 40
0.0367351924948389
 50
1.988234392342674
 51
48.5965894590293672
  0
ARC
  5
189EC
  8
0
 10
21.8106343717569793
 20
11.1973870750103099
 30
0.0
 40
0.0568954718553017
 50
34.5859226043637165
 51
43.2275756650369232
  0
ARC
  5
189ED
  8
0
 10
21.7779837419810605
 20
11.1631856170218402
 30
0.0
 40
0.1041419269706479
 50
44.6351471838121725
 51
63.1183682240350379
  0
ARC
  5
189EE
  8
0
 10
21.70885783982175
 20
11.02678690626262
 30
0.0
 40
0.2570569312705557
 50
63.1219745778734591
 51
75.3021309461180266
  0
ARC
  5
189EF
  8
0
 10
21.7119523289822993
 20
11.0456480196115496
 30
0.0
 40
0.2380346140173399
 50
74.8707258982224033
 51
83.2368255576687375
  0
ARC
  5
189F0
  8
0
 10
21.7314520544248815
 20
11.2289079281590602
 30
0.0
 40
0.0537992658193469
 50
80.8743198805011616
 51
92.452587739161288
  0
ARC
  5
189F1
  8
0
 10
21.73085313470553
 20
11.2722115990421905
 30
0.0
 40
0.0105842654381056
 50
99.2607060977376392
 51
120.1770298241179944
  0
ARC
  5
189F2
  8
0
 10
21.7289325940939904
 20
11.2751398136771108
 30
0.0
 40
0.007089989929988
 50
118.6549436116977034
 51
159.6709645733660068
  0
ARC
  5
189F3
  8
0
 10
21.8231308012986496
 20
11.2441474205769705
 30
0.0
 40
0.1062511457203997
 50
161.6469007217010017
 51
175.9650195759298015
  0
ARC
  5
189F4
  8
0
 10
21.8325977530961985
 20
11.2406645824134692
 30
0.0
 40
0.1159737037862723
 50
174.577587644619399
 51
205.3993225968638967
  0
LINE
  5
189F5
  8
0
 10
21.7291498407306314
 20
11.2826579124827902
 30
0.0
 11
21.7301176063207393
 21
11.2328134109628497
 31
0.0
  0
ARC
  5
189F6
  8
0
 10
21.7955041906897584
 20
11.1575341619798802
 30
0.0
 40
0.0254643003794281
 50
72.870784903537924
 51
115.7833407626997939
  0
ARC
  5
189F7
  8
0
 10
21.7911870299157613
 20
11.1664712685619794
 30
0.0
 40
0.0155390925121489
 50
115.7833407626997939
 51
143.0121283593367991
  0
ARC
  5
189F8
  8
0
 10
21.7872441953605289
 20
11.1694410991673792
 30
0.0
 40
0.0106029160409496
 50
143.0121283593367991
 51
190.192355445617892
  0
ARC
  5
189F9
  8
0
 10
21.7896472889515316
 20
11.1708044927912091
 30
0.0
 40
0.0132411104473576
 50
194.1619462889904923
 51
239.2907746573901875
  0
ARC
  5
189FA
  8
0
 10
21.7955144560389407
 20
11.1800004111203304
 30
0.0
 40
0.0241462497001402
 50
238.4644421722784955
 51
272.3461939633280053
  0
ARC
  5
189FB
  8
0
 10
21.7961530004764192
 20
11.1790833053044505
 30
0.0
 40
0.02321154044717
 50
270.8638294656649919
 51
302.6578494239016095
  0
ARC
  5
189FC
  8
0
 10
21.8012829143065012
 20
11.1710466088914
 30
0.0
 40
0.0136771834122709
 50
302.7326489840548902
 51
335.8365499889275725
  0
ARC
  5
189FD
  8
0
 10
21.8045591269154215
 20
11.1693396478823708
 30
0.0
 40
0.0099916403453621
 50
337.0770549924636157
 51
29.4142961242826004
  0
ARC
  5
189FE
  8
0
 10
21.7985446358476409
 20
11.1651523654007292
 30
0.0
 40
0.0173011852136289
 50
31.7120893331286311
 51
75.0630096804337796
  0
ARC
  5
189FF
  8
0
 10
21.6210923878596084
 20
10.8095185871726294
 30
0.0
 40
0.2481767081900458
 50
100.844262168803894
 51
110.5554269261790949
  0
ARC
  5
18A00
  8
0
 10
21.6225124656382803
 20
10.8298437172578108
 30
0.0
 40
0.2285413053359846
 50
89.4295189893169464
 51
102.1527123676940931
  0
ARC
  5
18A01
  8
0
 10
21.6212311508890096
 20
10.9423610829187403
 30
0.0
 40
0.1160671223044086
 50
77.716306181463807
 51
88.2439285703449343
  0
ARC
  5
18A02
  8
0
 10
21.6315073805297402
 20
10.98749445756855
 30
0.0
 40
0.0697821114013924
 50
54.9678058095598772
 51
78.076541314579913
  0
ARC
  5
18A03
  8
0
 10
21.6480340472081814
 20
11.00968697522082
 30
0.0
 40
0.0421307761628078
 50
10.7031105559239705
 51
56.0465911647726287
  0
ARC
  5
18A04
  8
0
 10
21.6238388434579214
 20
11.0173840939923302
 30
0.0
 40
0.0655931425454775
 50
351.0001328708088977
 51
0.1112906915076634
  0
ARC
  5
18A05
  8
0
 10
21.6478986724393287
 20
11.0159773651414703
 30
0.0
 40
0.0416771503619598
 50
311.4643610247430274
 51
347.7342599731555879
  0
ARC
  5
18A06
  8
0
 10
21.6322719411573487
 20
11.0347212827162
 30
0.0
 40
0.0660742616695976
 50
273.79115780700198
 51
310.8563157579769154
  0
ARC
  5
18A07
  8
0
 10
21.62897845139506
 20
11.0557281546757302
 30
0.0
 40
0.0872735552280837
 50
256.7786416624142021
 51
275.0368549758106269
  0
ARC
  5
18A08
  8
0
 10
21.6390573212554003
 20
11.0806835341070293
 30
0.0
 40
0.1139465700054662
 50
229.6725883425386883
 51
254.714541096778305
  0
ARC
  5
18A09
  8
0
 10
21.666382690129069
 20
11.1242402097525002
 30
0.0
 40
0.1650001835805077
 50
214.6001112036576899
 51
232.2278404061727883
  0
ARC
  5
18A0A
  8
0
 10
21.5361524383041889
 20
11.0350866025150705
 30
0.0
 40
0.0071998259620638
 50
142.0482983193631128
 51
219.1022815895327938
  0
ARC
  5
18A0B
  8
0
 10
21.5376755852652302
 20
11.0327223439332105
 30
0.0
 40
0.0098984393967057
 50
112.0832369032510059
 51
136.6713725993635933
  0
ARC
  5
18A0C
  8
0
 10
-71.5871767008659958
 20
7.9848743689126138
 30
0.0
 40
93.1660908467610227
 50
1.8763625078739561
 51
1.9062674301028339
  0
ARC
  5
18A0D
  8
0
 10
21.6382419840659104
 20
11.1400734407600304
 30
0.0
 40
0.1385827964527473
 50
210.3070166689427936
 51
217.4963355198063937
  0
ARC
  5
18A0E
  8
0
 10
21.6111178095253216
 20
11.1242188965873101
 30
0.0
 40
0.107164849106779
 50
208.4948587394443109
 51
210.3070166689070959
  0
ARC
  5
18A0F
  8
0
 10
21.5214489576306711
 20
11.0757208713686595
 30
0.0
 40
0.0052233926706119
 50
153.3627769025490863
 51
210.2088796810571978
  0
ARC
  5
18A10
  8
0
 10
21.5233283485744202
 20
11.0744959539920895
 30
0.0
 40
0.0074567599191184
 50
109.7912895588469979
 51
151.4237802850290109
  0
ARC
  5
18A11
  8
0
 10
21.5863247756245684
 20
10.9187317677782403
 30
0.0
 40
0.1754722842218822
 50
109.6373878482050941
 51
111.9254212291073003
  0
ARC
  5
18A12
  8
0
 10
21.5955246169197999
 20
10.8918187541335705
 30
0.0
 40
0.2039121024183092
 50
103.2790133380204054
 51
109.5306729012414024
  0
ARC
  5
18A13
  8
0
 10
21.6120410479982716
 20
10.8169862006992297
 30
0.0
 40
0.2805397867396713
 50
93.8920752109942924
 51
103.0515571291979029
  0
ARC
  5
18A14
  8
0
 10
21.6079148821328104
 20
10.9258625518708108
 30
0.0
 40
0.1716656823156172
 50
77.1173283379967955
 51
94.9847446661068062
  0
ARC
  5
18A15
  8
0
 10
21.6254441520076313
 20
11.0048003031997794
 30
0.0
 40
0.0908080965205138
 50
55.57882858455676
 51
76.794558433362667
  0
ARC
  5
18A16
  8
0
 10
21.6431483391828117
 20
11.0317021140967899
 30
0.0
 40
0.0586120855845463
 50
35.9337876608213804
 51
54.9897810370289406
  0
ARC
  5
18A17
  8
0
 10
21.6568218927778418
 20
11.0411950802557008
 30
0.0
 40
0.0419710815178698
 50
8.2219756932038468
 51
36.3950822594029901
  0
ARC
  5
18A18
  8
0
 10
21.6601375370820612
 20
11.0425094152145498
 30
0.0
 40
0.0385104295943555
 50
319.5246669010576284
 51
6.9919772495894774
  0
LINE
  5
18A19
  8
0
 10
21.6906062935733317
 20
11.0660986130703591
 30
0.0
 11
21.689431862265991
 21
11.0175115013103593
 31
0.0
  0
ARC
  5
18A1A
  8
0
 10
21.6289025702627598
 20
10.9953953727268896
 30
0.0
 40
0.0254759817765859
 50
64.7505030693749717
 51
115.8273967133052054
  0
ARC
  5
18A1B
  8
0
 10
21.624023129501019
 20
11.0054766758784002
 30
0.0
 40
0.0142759096615441
 50
115.8273967133052054
 51
163.9135957319539898
  0
ARC
  5
18A1C
  8
0
 10
21.6203672169701697
 20
11.0075728059968494
 30
0.0
 40
0.0102314245701759
 50
169.5284469492652875
 51
217.8657929171731098
  0
ARC
  5
18A1D
  8
0
 10
21.6268999932109907
 20
11.0130526600220495
 30
0.0
 40
0.0187550054057669
 50
218.8317102180062932
 51
256.804857354510375
  0
ARC
  5
18A1E
  8
0
 10
21.6292657348305291
 20
11.0194475637277502
 30
0.0
 40
0.0255350328233101
 50
254.9117959950208103
 51
295.5095928248967994
  0
ARC
  5
18A1F
  8
0
 10
21.6313327324631608
 20
11.0130105994274192
 30
0.0
 40
0.0188572189159249
 50
298.2654653819051873
 51
321.984584069301718
  0
ARC
  5
18A20
  8
0
 10
21.6376509994810498
 20
11.0073783123094699
 30
0.0
 40
0.0104249412675828
 50
324.9874313079538979
 51
354.2524712498948247
  0
ARC
  5
18A21
  8
0
 10
21.6376340157818383
 20
11.0071507861249707
 30
0.0
 40
0.010421550126035
 50
355.5065312072231904
 51
37.8604287570273925
  0
ARC
  5
18A22
  8
0
 10
21.6337743519473094
 20
11.0047287443057602
 30
0.0
 40
0.0149622591784513
 50
36.1116414756941211
 51
66.3784877108920881
  0
ARC
  5
18A23
  8
0
 10
22.0650016509105384
 20
11.2997696189593402
 30
0.0
 40
0.0132933316893847
 50
59.9689171662335525
 51
120.1588659461143038
  0
ARC
  5
18A24
  8
0
 10
22.1560699178197389
 20
11.1672790070840602
 30
0.0
 40
0.174028672733507
 50
124.1714252337918936
 51
140.1585962145576048
  0
ARC
  5
18A25
  8
0
 10
22.0840843488872096
 20
11.2230996224550097
 30
0.0
 40
0.0830582977696714
 50
137.9102989478290908
 51
160.5245215641965899
  0
ARC
  5
18A26
  8
0
 10
22.0399092663616614
 20
11.23934228698743
 30
0.0
 40
0.036000122196082
 50
161.455943866076808
 51
192.3482270689029008
  0
ARC
  5
18A27
  8
0
 10
22.0486942270126107
 20
11.2419504173052598
 30
0.0
 40
0.0451445653871108
 50
193.1974622143596036
 51
240.1168015413796013
  0
ARC
  5
18A28
  8
0
 10
22.0646877641708805
 20
11.2682355037179605
 30
0.0
 40
0.0759072941610546
 50
239.5348522818611059
 51
273.9244647692887042
  0
ARC
  5
18A29
  8
0
 10
22.0661757286770488
 20
11.2650764027133903
 30
0.0
 40
0.0726648312950912
 50
272.9243966801070087
 51
304.6746119235684773
  0
ARC
  5
18A2A
  8
0
 10
22.0811871218369404
 20
11.2421613064728199
 30
0.0
 40
0.0452846125788385
 50
305.54947276444409
 51
344.2085957604722921
  0
ARC
  5
18A2B
  8
0
 10
22.0865313397653686
 20
11.2394905403531808
 30
0.0
 40
0.0394310654576974
 50
345.829869479722106
 51
26.7304211941908214
  0
ARC
  5
18A2C
  8
0
 10
22.0157461835570309
 20
11.2033637268058701
 30
0.0
 40
0.1189019685077217
 50
26.9363512413636883
 51
45.217711752924501
  0
ARC
  5
18A2D
  8
0
 10
21.9790690066052186
 20
11.1734070180404004
 30
0.0
 40
0.1660740672946454
 50
43.5162290881971572
 51
56.1172248623400023
  0
ARC
  5
18A2E
  8
0
 10
22.0652774419564288
 20
11.3472347637658295
 30
0.0
 40
0.0122019413063278
 50
58.6810204933849988
 51
125.151087780011494
  0
ARC
  5
18A2F
  8
0
 10
22.1498069615278013
 20
11.2160360127070309
 30
0.0
 40
0.1682639830163497
 50
122.9640610006173063
 51
137.9567553045465047
  0
ARC
  5
18A30
  8
0
 10
22.1273598503633693
 20
11.2311480100904806
 30
0.0
 40
0.1415247868447675
 50
136.4141581758069037
 51
151.9804498569764064
  0
ARC
  5
18A31
  8
0
 10
22.0509872155880089
 20
11.2691720160947995
 30
0.0
 40
0.0562887937994886
 50
149.6277759473942979
 51
188.4982614084659929
  0
ARC
  5
18A32
  8
0
 10
22.0360937584391117
 20
11.2691753891959596
 30
0.0
 40
0.0416177759155591
 50
191.5343485109048913
 51
219.6025622493712035
  0
LINE
  5
18A33
  8
0
 10
22.0024681347771605
 20
11.29770201534898
 30
0.0
 11
22.004035956825561
 21
11.2423613035580896
 31
0.0
  0
ARC
  5
18A34
  8
0
 10
21.9804983132108909
 20
11.2156606682921591
 30
0.0
 40
0.1687205238943117
 50
41.2521370676917414
 51
57.3112607399380209
  0
ARC
  5
18A35
  8
0
 10
21.97423957180537
 20
11.2099702170228497
 30
0.0
 40
0.177178140323663
 50
30.0669697270336584
 51
41.301070012048541
  0
ARC
  5
18A36
  8
0
 10
22.0746196055507902
 20
11.2680812001363098
 30
0.0
 40
0.0611909102801768
 50
354.6564623221565853
 51
30.0669697270336584
  0
ARC
  5
18A37
  8
0
 10
22.0920811081605315
 20
11.2702485836986206
 30
0.0
 40
0.0441695288822186
 50
319.9517972265526282
 51
349.7417763480307826
  0
ARC
  5
18A38
  8
0
 10
22.0649744809438815
 20
11.2190709838756106
 30
0.0
 40
0.0258468731756694
 50
69.6222331805145984
 51
103.2547407688164043
  0
ARC
  5
18A39
  8
0
 10
22.0678399890335015
 20
11.2267852640544206
 30
0.0
 40
0.0176175806612978
 50
33.1160043156689383
 51
69.6222331805145984
  0
ARC
  5
18A3A
  8
0
 10
22.0750850349682004
 20
11.2315111343665599
 30
0.0
 40
0.0089674626965042
 50
344.0256683262996944
 51
33.1160043156689383
  0
ARC
  5
18A3B
  8
0
 10
22.0706722331128518
 20
11.2327743457421292
 30
0.0
 40
0.0135575087957893
 50
297.7634187133292016
 51
344.0256683262987281
  0
ARC
  5
18A3C
  8
0
 10
22.0647133659105315
 20
11.2440938550010099
 30
0.0
 40
0.0263496699969622
 50
265.4459275398403975
 51
297.7634187133292016
  0
ARC
  5
18A3D
  8
0
 10
22.0644626799175292
 20
11.2409465644182003
 30
0.0
 40
0.0231924114583398
 50
240.4177541379040974
 51
265.4459275398403975
  0
ARC
  5
18A3E
  8
0
 10
22.0605740160898591
 20
11.2340963365975597
 30
0.0
 40
0.0153153988545325
 50
208.2199033170682867
 51
240.4177541379040974
  0
ARC
  5
18A3F
  8
0
 10
22.0551945538776017
 20
11.2312094878459199
 30
0.0
 40
0.0092102772825738
 50
165.90045234300581
 51
208.2199033170680025
  0
ARC
  5
18A40
  8
0
 10
22.0582326564860693
 20
11.2304463947154503
 30
0.0
 40
0.0123427489241715
 50
132.6619717063248913
 51
165.90045234300419
  0
ARC
  5
18A41
  8
0
 10
22.0633204825274802
 20
11.2245904682470901
 30
0.0
 40
0.0200981473984718
 50
102.2728094539947961
 51
132.0148578046992895
  0
ARC
  5
18A42
  8
0
 10
22.2030369979529212
 20
11.5993849945736507
 30
0.0
 40
1.6720642725822299
 50
283.8291625703508885
 51
309.6112838211233225
  0
ARC
  5
18A43
  8
0
 10
21.9593748927479595
 20
9.8216044411890344
 30
0.0
 40
0.0400899463141706
 50
36.6536499943903209
 51
77.8309060214571105
  0
ARC
  5
18A44
  8
0
 10
21.9643488547582493
 20
9.8255858254059891
 30
0.0
 40
0.0337234981493047
 50
344.2985673857120901
 51
36.2717777879996888
  0
ARC
  5
18A45
  8
0
 10
22.2217469209356793
 20
9.6271875425353191
 30
0.0
 40
0.2707172058918858
 50
177.8993554609278078
 51
194.6602500737562025
  0
ARC
  5
18A46
  8
0
 10
22.1026748457628912
 20
9.6004095588913572
 30
0.0
 40
0.1488046544547886
 50
196.2889529668296973
 51
224.5027446585457085
  0
ARC
  5
18A47
  8
0
 10
22.0970438257266615
 20
9.6006545858140573
 30
0.0
 40
0.1450188532964119
 50
226.1314475516192033
 51
246.3196043957111101
  0
ARC
  5
18A48
  8
0
 10
22.0777852464158393
 20
9.5567414993152191
 30
0.0
 40
0.0970683366889176
 50
246.3196043957111101
 51
268.6970800855788752
  0
ARC
  5
18A49
  8
0
 10
22.0812841067777583
 20
12.5129006701370304
 30
0.0
 40
0.5731888611060763
 50
59.6712615114569616
 51
90.0
  0
ARC
  5
18A4A
  8
0
 10
22.2001180597087391
 20
12.7160266492020195
 30
0.0
 40
0.3378557530649131
 50
24.4545736738087491
 51
59.6712615114569616
  0
LINE
  5
18A4B
  8
0
 10
22.5076646953928403
 20
12.8558893560200094
 30
0.0
 11
22.5076646953928403
 21
12.6810879634988005
 31
0.0
  0
ARC
  5
18A4C
  8
0
 10
22.0812499995263885
 20
12.2048447269320608
 30
0.0
 40
0.5756225824160102
 50
59.1662423296701334
 51
90.5645754149739162
  0
ARC
  5
18A4D
  8
0
 10
22.0574725972614516
 20
9.7862513690365063
 30
0.0
 40
2.9303289073447871
 50
83.7556695989019033
 51
89.6459870780570611
  0
ARC
  5
18A4E
  8
0
 10
22.1173872112209189
 20
10.3338459565361802
 30
0.0
 40
2.3794666532442612
 50
65.9289911198774803
 51
83.7568867063580029
  0
ARC
  5
18A4F
  8
0
 10
22.3650075648660902
 20
10.8881605001446893
 30
0.0
 40
1.7723583821794779
 50
39.2518351074882119
 51
65.9289911198772955
  0
ARC
  5
18A50
  8
0
 10
22.9488370171334317
 20
11.3652003531218302
 30
0.0
 40
1.0184194916430951
 50
346.7180969243767095
 51
39.2518351074882119
  0
ARC
  5
18A51
  8
0
 10
22.4721871712289101
 20
11.4777166508791897
 30
0.0
 40
1.508169420547457
 50
310.7213581783461223
 51
346.7180969243767095
  0
ARC
  5
18A52
  8
0
 10
22.128728822726611
 20
11.8767228643639395
 30
0.0
 40
2.0346384087655349
 50
292.6382381251133893
 51
310.7213581783461223
  0
ARC
  5
18A53
  8
0
 10
22.0913658694480084
 20
12.0949250999431595
 30
0.0
 40
2.2509547884587562
 50
271.7276244917759982
 51
291.3780558288851807
  0
ARC
  5
18A54
  8
0
 10
22.0784505050176811
 20
9.9028239632493555
 30
0.0
 40
2.347971661052016
 50
75.8357168521286837
 51
90.0726380653550507
  0
ARC
  5
18A55
  8
0
 10
22.1774967129564615
 20
10.2952793467091492
 30
0.0
 40
1.943210769520205
 50
52.7660163180318875
 51
75.8357168521286837
  0
ARC
  5
18A56
  8
0
 10
22.6733737426671311
 20
10.9477692228975503
 30
0.0
 40
1.123676104528518
 50
19.8095506282978917
 51
52.7660163180316673
  0
ARC
  5
18A57
  8
0
 10
22.9488904564932596
 20
11.0470132251166806
 30
0.0
 40
0.8308300159870775
 50
339.7682355442296966
 51
19.8095506282978917
  0
ARC
  5
18A58
  8
0
 10
22.689809472874181
 20
11.1424995767044006
 30
0.0
 40
1.1069470191081561
 50
316.6765196325458191
 51
339.7682355442298103
  0
ARC
  5
18A59
  8
0
 10
22.1395022540694697
 20
11.6615088207663007
 30
0.0
 40
1.8633917497331189
 50
312.2050804227462777
 51
316.6765196325458191
  0
ARC
  5
18A5A
  8
0
 10
22.0779661803123091
 20
9.9366186034198556
 30
0.0
 40
2.2636275321262489
 50
72.6381550789343464
 51
90.060446350499987
  0
ARC
  5
18A5B
  8
0
 10
22.2212975293130803
 20
10.3950591252289399
 30
0.0
 40
1.783303071326084
 50
53.1677620871488088
 51
72.6381550789345596
  0
ARC
  5
18A5C
  8
0
 10
22.5874293719474686
 20
10.8839039836898301
 30
0.0
 40
1.172547947045905
 50
25.4449191693443595
 51
53.1677620871488088
  0
ARC
  5
18A5D
  8
0
 10
22.9202918609399511
 20
11.0422786313673402
 30
0.0
 40
0.8039289491561525
 50
355.1500604795904223
 51
25.4449191693443595
  0
ARC
  5
18A5E
  8
0
 10
22.8034165527050696
 20
11.0521955206400193
 30
0.0
 40
0.9212242276964415
 50
327.9172407724964273
 51
355.1500604795904223
  0
ARC
  5
18A5F
  8
0
 10
22.5847048310283292
 20
11.1893014328189206
 30
0.0
 40
1.1793576202538809
 50
309.8243634266672188
 51
327.9172407724965979
  0
ARC
  5
18A60
  8
0
 10
22.2969286728196998
 20
11.5344026086042906
 30
0.0
 40
1.6287015183561659
 50
298.1591221665506737
 51
309.8243634266672188
  0
ARC
  5
18A61
  8
0
 10
22.1414623179908006
 20
11.8600958235542908
 30
0.0
 40
1.9892833447914
 50
280.6079415816914775
 51
297.679953076749598
  0
ARC
  5
18A62
  8
0
 10
21.8721236992206904
 20
13.3708756305833898
 30
0.0
 40
3.5238509875412118
 50
275.0666418348707225
 51
280.3903861787171081
  0
ARC
  5
18A63
  8
0
 10
21.8140892143531602
 20
9.6344726623813202
 30
0.0
 40
0.3858643195528488
 50
0.3917122570626632
 51
47.3381255204133424
  0
ARC
  5
18A64
  8
0
 10
21.9294092373639202
 20
9.6271875425353191
 30
0.0
 40
0.2707172058918858
 50
345.3397499262438259
 51
2.1006445390722139
  0
ARC
  5
18A65
  8
0
 10
22.0484813125367189
 20
9.6004095588913572
 30
0.0
 40
0.1488046544547886
 50
315.4972553414543768
 51
343.7110470331703027
  0
ARC
  5
18A66
  8
0
 10
22.0541123325729487
 20
9.6006545858140573
 30
0.0
 40
0.1450188532964119
 50
293.6803956042886057
 51
313.8685524483807967
  0
ARC
  5
18A67
  8
0
 10
22.0733709118837815
 20
9.5567414993152191
 30
0.0
 40
0.0970683366889176
 50
271.3029199144583004
 51
293.6803956042888899
  0
ARC
  5
18A68
  8
0
 10
22.3370669439465814
 20
9.6344726623813202
 30
0.0
 40
0.3858643195528488
 50
132.6618744795866007
 51
179.608287742937307
  0
ARC
  5
18A69
  8
0
 10
22.1917812655517785
 20
9.8216044411890344
 30
0.0
 40
0.0400899463141706
 50
102.1690939785429038
 51
143.3463500056097075
  0
ARC
  5
18A6A
  8
0
 10
22.1868073035414888
 20
9.8255858254059891
 30
0.0
 40
0.0337234981493047
 50
143.7282222120003041
 51
195.7014326142877962
  0
LINE
  5
18A6B
  8
0
 10
22.0755780791498708
 20
13.0860895312431094
 30
0.0
 11
25.2773796841959495
 21
15.9921258867662992
 31
0.0
  0
LINE
  5
18A6C
  8
0
 10
22.0812841067777583
 20
13.0860895312431094
 30
0.0
 11
22.0698720515218589
 21
13.0860895312431094
 31
0.0
  0
ENDBLK
  5
18A70
  8
0
  0
ENDSEC
  0
SECTION
  2
ENTITIES
  0
ATTDEF
  5
12BEB
  8
DEFPOINTS
 10
3531.550396169835949
 20
159.5866056427256865
 30
0.0
 40
0.001
  1
K-72424-Y
  3

  2
MODELNUMBER
 70
     0
1001
ACDBATTR
1070
     0
1070
     1
  0
ATTDEF
  5
12BEC
  8
DEFPOINTS
 10
3531.550396169835949
 20
159.5849389760589929
 30
0.0
 40
0.001
  1
AWAKEN
  3

  2
TRADENAME
 70
     0
1001
ACDBATTR
1070
     0
1070
     1
  0
ATTDEF
  5
12BED
  8
DEFPOINTS
 10
3531.550396169835949
 20
159.5832723093922993
 30
0.0
 40
0.001
  1
SHOWERHEAD
  3

  2
PRODUCT
 70
     0
1001
ACDBATTR
1070
     0
1070
     1
  0
LINE
  5
18CAD
  8
0
 10
3531.2355456983700606
 20
159.8964549724827862
 30
0.0
 11
3531.8589176740319999
 21
159.273073117979493
 31
0.0
  0
LINE
  5
18CAE
  8
0
 10
3531.2216864054580583
 20
159.8964549724827862
 30
0.0
 11
3530.9189116077532162
 21
159.5936702959371871
 31
0.0
  0
ARC
  5
18CAF
  8
0
 10
3531.2286160519138321
 20
159.8895253260272113
 30
0.0
 40
0.0098
 50
44.9999999999965397
 51
135.0000000000034106
  0
LINE
  5
18CB0
  8
0
 10
3530.5568229174518819
 20
159.4406458475307886
 30
0.0
 11
3531.4030603326959863
 21
158.5942837859057022
 31
0.0
  0
LINE
  5
18CB1
  8
0
 10
3530.8933261010351998
 20
159.4649290187487054
 30
0.0
 11
3530.9038376355802029
 21
159.439576286230789
 31
0.0
  0
ARC
  5
18CB2
  8
0
 10
3530.7947333616198193
 20
159.3943403991750927
 30
0.0
 40
0.1181102369564716
 50
315.0000002795998171
 51
22.5194585711644386
  0
LINE
  5
18CB3
  8
0
 10
3530.8782499115081919
 20
159.3108238501031053
 30
0.0
 11
3530.8304597372380158
 21
159.2630336758730891
 31
0.0
  0
ARC
  5
18CB4
  8
0
 10
3530.8026208876008241
 20
159.2908725255294087
 30
0.0
 40
0.0393700787317554
 50
270.000000019150491
 51
314.9999999808530902
  0
ARC
  5
18CB5
  8
0
 10
3530.8026208877658974
 20
158.795454337649204
 30
0.0
 40
0.456048109148457
 50
90.0000000191505052
 51
96.7408437495358555
  0
ARC
  5
18CB6
  8
0
 10
3531.0024209186108237
 20
159.5101609850790112
 30
0.0
 40
0.1181
 50
135.0000000000057128
 51
202.5194585711643924
  0
LINE
  5
18CB7
  8
0
 10
3530.2202634982131713
 20
159.1527973799977076
 30
0.0
 11
3530.5294565203730599
 21
159.4411245377330886
 31
0.0
  0
ARC
  5
18CB8
  8
0
 10
3530.5428918880670608
 20
159.4267168698121964
 30
0.0
 40
0.0197
 50
44.9957806252362076
 51
133.0000000042896886
  0
ARC
  5
18CB9
  8
0
 10
3530.1394994007728201
 20
159.2431721038639125
 30
0.0
 40
0.1212040847053142
 50
272.7164160290599284
 51
311.7858222925315204
  0
ARC
  5
18CBA
  8
0
 10
3530.1192672996858164
 20
159.3926147230905883
 30
0.0
 40
0.2717548602679836
 50
255.9186674612896013
 51
275.4851170666582902
  0
ARC
  5
18CBB
  8
0
 10
3530.2355766758710161
 20
159.8225155602546863
 30
0.0
 40
0.7170828219217964
 50
240.5956591052928104
 51
255.2618661253004859
  0
ARC
  5
18CBC
  8
0
 10
3526.2222636589331159
 20
152.6463939739226987
 30
0.0
 40
7.5050502231901177
 50
60.8014360850600184
 51
62.428608565043362
  0
ARC
  5
18CBD
  8
0
 10
3528.6210250764220291
 20
157.2323907661217106
 30
0.0
 40
2.329590940361058
 50
62.5196339454462588
 51
72.4553115150102087
  0
ARC
  5
18CBE
  8
0
 10
3528.8504119597018871
 20
158.0147984347971999
 30
0.0
 40
1.5145276310879581
 50
71.8068717254271434
 51
90.4266831404814155
  0
ARC
  5
18CBF
  8
0
 10
3528.8427537270458743
 20
159.4668458630488033
 30
0.0
 40
0.0625430799947679
 50
93.3184973238220152
 51
142.8989961954480066
  0
ARC
  5
18CC0
  8
0
 10
3529.5845320780567818
 20
158.9386828040900923
 30
0.0
 40
0.9731182746870604
 50
144.4422835869225139
 51
172.6011001666680897
  0
ARC
  5
18CC1
  8
0
 10
3528.6344563478251075
 20
159.062465420374707
 30
0.0
 40
0.0150183703367811
 50
174.144387558145894
 51
222.0932868932544864
  0
LINE
  5
18CC2
  8
0
 10
3528.623311900230874
 20
159.0523980108069111
 30
0.0
 11
3531.0149649745380884
 21
156.6607449293726972
 31
0.0
  0
LINE
  5
18CC3
  8
0
 10
3528.6537990808851646
 20
159.0219097939695985
 30
0.0
 11
3528.6453703767137995
 21
159.0134810897976934
 31
0.0
  0
ARC
  5
18CC4
  8
0
 10
3528.659291353703793
 20
158.9995601128065914
 30
0.0
 40
0.0196872344623096
 50
135.0000000000046043
 51
216.8145158120375129
  0
ARC
  5
18CC5
  8
0
 10
3522.3399737028771597
 20
154.2696090621871861
 30
0.0
 40
7.8737412040124433
 50
35.2880038427102818
 51
36.8145158120374987
  0
LINE
  5
18CC6
  8
0
 10
3530.9294311179551187
 20
156.6958899684900928
 30
0.0
 11
3530.8926979260450025
 21
156.6602002488835979
 31
0.0
  0
ARC
  5
18CC7
  8
0
 10
3530.8856737268101824
 20
156.667766752927804
 30
0.0
 40
0.0103243090976737
 50
235.305392635427296
 51
312.8714199025463927
  0
ARC
  5
18CC8
  8
0
 10
3531.4525588451988369
 20
157.470076198687309
 30
0.0
 40
0.992698098557015
 50
228.5164758768505919
 51
234.761957235118814
  0
ARC
  5
18CC9
  8
0
 10
3530.8012258760118129
 20
156.7350178465298995
 30
0.0
 40
0.0106366413900558
 50
138.2498432379952931
 51
234.1143807089869995
  0
LINE
  5
18CCA
  8
0
 10
3530.6645557612891935
 20
156.9068590993030909
 30
0.0
 11
3530.9264866528537823
 21
156.6930297805072883
 31
0.0
  0
LINE
  5
18CCB
  8
0
 10
3530.8255800102911053
 20
156.7754057023105076
 30
0.0
 11
3530.7932903506361981
 21
156.7421006127310932
 31
0.0
  0
LINE
  5
18CCC
  8
0
 10
3530.6489465518038742
 20
156.891701233650906
 30
0.0
 11
3530.8124030404519544
 21
156.7618143493644141
 31
0.0
  0
LINE
  5
18CCD
  8
0
 10
3530.7543099642080051
 20
156.8079766567419995
 30
0.0
 11
3530.7265572180967865
 21
156.7792238063935883
 31
0.0
  0
ARC
  5
18CCE
  8
0
 10
3530.7335709856911308
 20
156.7724539971773083
 30
0.0
 40
0.0097479871087169
 50
136.0139839789133021
 51
221.6528110174853055
  0
ARC
  5
18CCF
  8
0
 10
3545.8926733299022089
 20
175.4416114943176126
 30
0.0
 40
24.0582344990792585
 50
230.920130312579289
 51
231.1846728818962049
  0
ARC
  5
18CD0
  8
0
 10
3530.8188064726291486
 20
156.703761041239602
 30
0.0
 40
0.00977297714205
 50
231.1555794023817043
 51
313.8402193785001941
  0
LINE
  5
18CD1
  8
0
 10
3530.8255757218307735
 20
156.6967120450374011
 30
0.0
 11
3530.8278519230520942
 21
156.6985901156625118
 31
0.0
  0
ARC
  5
18CD2
  8
0
 10
3530.9936673830711698
 20
156.8122820489325875
 30
0.0
 40
0.1397511332295467
 50
240.2578621071467069
 51
242.2737541299744066
  0
ARC
  5
18CD3
  8
0
 10
3530.9342408765351138
 20
156.6992171057140979
 30
0.0
 40
0.0120202009387883
 50
242.2737541299744066
 51
251.4067002342474098
  0
ARC
  5
18CD4
  8
0
 10
3530.9308286820059948
 20
156.6890740512558011
 30
0.0
 40
0.0013185830584768
 50
251.4067002342474098
 51
276.3057359006979254
  0
ARC
  5
18CD5
  8
0
 10
3530.9309096736787978
 20
156.6879698061379997
 30
0.0
 40
0.0002160077246745
 50
287.1883697865587237
 51
29.2943071756997107
  0
ARC
  5
18CD6
  8
0
 10
3530.9252388897921264
 20
156.6850533620489045
 30
0.0
 40
0.0065926591949222
 50
27.2845049510967215
 51
45.7468108016224235
  0
ARC
  5
18CD7
  8
0
 10
3530.8858320000949789
 20
156.6477909063355014
 30
0.0
 40
0.0608223357606011
 50
43.6523975640106627
 51
48.055033190381387
  0
LINE
  5
18CD8
  8
0
 10
3530.6727865646398641
 20
156.9148519071073054
 30
0.0
 11
3530.6388405955058261
 21
156.8818874933710958
 31
0.0
  0
ARC
  5
18CD9
  8
0
 10
3530.6315412947260484
 20
156.8899139238687042
 30
0.0
 40
0.0108491187846154
 50
237.3987425767701041
 51
312.2836372379492786
  0
ARC
  5
18CDA
  8
0
 10
3530.931606875225043
 20
157.3299378438927079
 30
0.0
 40
0.5434422809316904
 50
224.101881624612588
 51
235.7424773349914915
  0
ARC
  5
18CDB
  8
0
 10
3530.5483011081259974
 20
156.9585161041777042
 30
0.0
 40
0.0097032601266673
 50
132.2902984144321863
 51
224.3215274008385904
  0
LINE
  5
18CDC
  8
0
 10
3530.5417719079468952
 20
156.9656940427472875
 30
0.0
 11
3530.5713416649668943
 21
156.9963075324835984
 31
0.0
  0
LINE
  5
18CDD
  8
0
 10
3530.6050871227339485
 20
156.8955251784034033
 30
0.0
 11
3530.5939292917860257
 21
156.8847378543835873
 31
0.0
  0
ARC
  5
18CDE
  8
0
 10
3530.5870631116681579
 20
156.8918398638240035
 30
0.0
 40
0.0098784091591601
 50
231.9079834751086935
 51
314.032749296157192
  0
ARC
  5
18CDF
  8
0
 10
3531.0689956940050251
 20
157.5054064693295004
 30
0.0
 40
0.7900854239817358
 50
226.4857185785562876
 51
231.8524537406715069
  0
ARC
  5
18CE0
  8
0
 10
3530.5327252110218978
 20
156.9383407760315947
 30
0.0
 40
0.0097292655567374
 50
135.4458717453956922
 51
217.3786864235127894
  0
LINE
  5
18CE1
  8
0
 10
3530.5257922534228783
 20
156.945166661117895
 30
0.0
 11
3530.5385981073218318
 21
156.9584451641651981
 31
0.0
  0
ARC
  5
18CE2
  8
0
 10
3530.5953175558329349
 20
157.0221174496614935
 30
0.0
 40
0.038655813328629
 50
215.6745069493888138
 51
227.0107327133457034
  0
ARC
  5
18CE3
  8
0
 10
3530.5648613758139618
 20
157.0002530058044954
 30
0.0
 40
0.0011640434787575
 50
185.3607368985634025
 51
215.6745069493094888
  0
ARC
  5
18CE4
  8
0
 10
3530.5639245996981117
 20
157.0000295386851974
 30
0.0
 40
0.0002500435466459
 50
64.9722449877040589
 51
152.6915521269698104
  0
ARC
  5
18CE5
  8
0
 10
3530.5291462644800049
 20
156.9269205484785061
 30
0.0
 40
0.081209638415891
 50
58.69550702612311
 51
64.5605900715449792
  0
ARC
  5
18CE6
  8
0
 10
3530.2119187105599849
 20
156.4447843119629908
 30
0.0
 40
0.6583029112259654
 50
45.5311864176390131
 51
56.9080574221592528
  0
ARC
  5
18CE7
  8
0
 10
3530.6560673426351968
 20
156.8985183747757048
 30
0.0
 40
0.0233854196623461
 50
28.888291861859031
 51
43.3461831802532629
  0
ARC
  5
18CE8
  8
0
 10
3530.6758827818562168
 20
156.9092903090518973
 30
0.0
 40
0.0008437227390638
 50
324.2401294253983792
 51
38.5358884783006417
  0
ARC
  5
18CE9
  8
0
 10
3530.6757125091189664
 20
156.9098054701387071
 30
0.0
 40
0.0013219011229022
 50
250.0246557971123025
 51
310.2965386616397154
  0
ARC
  5
18CEA
  8
0
 10
3530.6846338551258668
 20
156.936899454759498
 30
0.0
 40
0.0298462907250692
 50
238.8391400921304069
 51
251.6971326243208011
  0
ARC
  5
18CEB
  8
0
 10
3533.1647326708621222
 20
160.3708256138091031
 30
0.0
 40
4.2882720518518598
 50
228.7760695720498916
 51
232.4079953655754025
  0
LINE
  5
18CEC
  8
0
 10
3530.4719245796882205
 20
157.0334521293453065
 30
0.0
 11
3530.4398162037300608
 21
157.0024454107960992
 31
0.0
  0
ARC
  5
18CED
  8
0
 10
3530.4330372762510706
 20
157.0094651910982861
 30
0.0
 40
0.0097586460775149
 50
228.6643752263854878
 51
314.0000187533098028
  0
LINE
  5
18CEE
  8
0
 10
3530.4265919964150271
 20
157.0021378763711084
 30
0.0
 11
3530.3718784441662137
 21
157.0502652147152105
 31
0.0
  0
ARC
  5
18CEF
  8
0
 10
3530.3794216937858437
 20
157.0566833493261925
 30
0.0
 40
0.0099041943995976
 50
136.3458199880049051
 51
220.3926251194648955
  0
LINE
  5
18CF0
  8
0
 10
3530.3722558167978605
 20
157.0635202545985862
 30
0.0
 11
3530.4002248126689665
 21
157.0925984263365933
 31
0.0
  0
LINE
  5
18CF1
  8
0
 10
3530.5340732703980393
 20
157.0835965144285922
 30
0.0
 11
3530.4994698931282073
 21
157.0501517891036087
 31
0.0
  0
ARC
  5
18CF2
  8
0
 10
3530.4920023674731056
 20
157.0578780181276102
 30
0.0
 40
0.0107451642302769
 50
244.4921295871992868
 51
314.0245216326646869
  0
ARC
  5
18CF3
  8
0
 10
3530.6723992480579
 20
157.3487633542094102
 30
0.0
 40
0.3529647907985246
 50
220.2190088250754911
 51
238.3856002104683967
  0
ARC
  5
18CF4
  8
0
 10
3530.4131409887409063
 20
157.1277993787705043
 30
0.0
 40
0.0123913196975585
 50
141.5353340956287127
 51
214.1124794483233984
  0
LINE
  5
18CF5
  8
0
 10
3530.4034386856578749
 20
157.1355071747410932
 30
0.0
 11
3530.4378579624240047
 21
157.1711478604038916
 31
0.0
  0
LINE
  5
18CF6
  8
0
 10
3530.3516008716910619
 20
157.1578578557860908
 30
0.0
 11
3530.3171026921500015
 21
157.1245441116685981
 31
0.0
  0
ARC
  5
18CF7
  8
0
 10
3530.3101479951487818
 20
157.1320486387409119
 30
0.0
 40
0.0102316048090869
 50
231.8944348070035915
 51
312.8223056021298021
  0
ARC
  5
18CF8
  8
0
 10
3530.6541620710790994
 20
157.5652852450697026
 30
0.0
 40
0.5634399189793312
 50
224.1054128116560946
 51
231.5547436387381879
  0
ARC
  5
18CF9
  8
0
 10
3530.2574122917831119
 20
157.1793627982430053
 30
0.0
 40
0.0100036671671482
 50
136.4515449797133044
 51
218.4516926892951858
  0
LINE
  5
18CFA
  8
0
 10
3530.2501617141460883
 20
157.1862550025861083
 30
0.0
 11
3530.2610595598198415
 21
157.1975804826689114
 31
0.0
  0
LINE
  5
18CFB
  8
0
 10
3530.2503185163618582
 20
157.1723794985938127
 30
0.0
 11
3530.247036039431805
 21
157.1692041162060036
 31
0.0
  0
ARC
  5
18CFC
  8
0
 10
3530.2402273272491584
 20
157.1762424624390064
 30
0.0
 40
0.0097926952007267
 50
232.7221835927821871
 51
314.049916918696681
  0
ARC
  5
18CFD
  8
0
 10
3533.3720824927117974
 20
160.5742627666141971
 30
0.0
 40
4.6309029204330692
 50
226.4419745816107934
 51
227.3455258685229126
  0
ARC
  5
18CFE
  8
0
 10
3530.1885256241889692
 20
157.2249297944698867
 30
0.0
 40
0.0100093038958837
 50
137.2650082788561008
 51
221.0653168574633867
  0
LINE
  5
18CFF
  8
0
 10
3530.1811737875550534
 20
157.2317221918810901
 30
0.0
 11
3530.2095199623081498
 21
157.2610723319035912
 31
0.0
  0
LINE
  5
18D00
  8
0
 10
3530.3317253290802
 20
157.2147248115086029
 30
0.0
 11
3530.2963676634672083
 21
157.1805698857585867
 31
0.0
  0
ARC
  5
18D01
  8
0
 10
3530.2894095348451629
 20
157.1883618473451918
 30
0.0
 40
0.0104465410204725
 50
237.5219259604349133
 51
311.7644730039464775
  0
ARC
  5
18D02
  8
0
 10
3530.4706417757638519
 20
157.4385425706884121
 30
0.0
 40
0.3193547136069656
 50
220.6763585362014908
 51
234.1927440393180859
  0
ARC
  5
18D03
  8
0
 10
3530.2371742004152111
 20
157.2356594307725004
 30
0.0
 40
0.0101979270549375
 50
136.5033052417525141
 51
211.1004647399934129
  0
LINE
  5
18D04
  8
0
 10
3530.2297764805521183
 20
157.2426787937801862
 30
0.0
 11
3530.259873892583073
 21
157.2738452903710993
 31
0.0
  0
LINE
  5
18D05
  8
0
 10
3530.2081375720131291
 20
157.2596409800873118
 30
0.0
 11
3530.0976306592979199
 21
157.3583333611337878
 31
0.0
  0
LINE
  5
18D06
  8
0
 10
3529.798498802118047
 20
157.6425725218464038
 30
0.0
 11
3529.8230463057739144
 21
157.6183300680143873
 31
0.0
  0
LINE
  5
18D07
  8
0
 10
3530.1768267181610099
 20
157.2876043232249117
 30
0.0
 11
3530.142922999270013
 21
157.2552758070758046
 31
0.0
  0
ARC
  5
18D08
  8
0
 10
3530.1361994608409987
 20
157.2623269490397035
 30
0.0
 40
0.0097429242018424
 50
225.7741038085561058
 51
313.6375900176677192
  0
ARC
  5
18D09
  8
0
 10
3633.3582007513600729
 20
263.3118973853772786
 30
0.0
 40
148.0005971691574871
 50
225.7380392423104922
 51
225.7741038085561058
  0
LINE
  5
18D0A
  8
0
 10
3530.1055041354188688
 20
157.3659096597546068
 30
0.0
 11
3530.0673307108731933
 21
157.32917705787861
 31
0.0
  0
ARC
  5
18D0B
  8
0
 10
3530.0616201259399531
 20
157.3369696609526898
 30
0.0
 40
0.0096610270125119
 50
226.2574489040351011
 51
306.2347525337893899
  0
ARC
  5
18D0C
  8
0
 10
3567.3131626469080402
 20
195.6321620691747114
 30
0.0
 40
53.434366432295711
 50
225.6780584764977959
 51
225.7915536668419065
  0
ARC
  5
18D0D
  8
0
 10
3529.987476410140971
 20
157.4074650024259938
 30
0.0
 40
0.0090772187419452
 50
127.7718378295272998
 51
203.3408145036011945
  0
LINE
  5
18D0E
  8
0
 10
3529.9819164448199444
 20
157.4146401460286029
 30
0.0
 11
3530.0118937108168211
 21
157.4452192495141105
 31
0.0
  0
LINE
  5
18D0F
  8
0
 10
3530.0296042975060118
 20
157.4767717110460978
 30
0.0
 11
3529.9958646477980437
 21
157.4441891118761134
 31
0.0
  0
ARC
  5
18D10
  8
0
 10
3529.9887520827728622
 20
157.4519490030401982
 30
0.0
 40
0.0105263712695509
 50
232.5096190895147004
 51
312.5077646297747833
  0
ARC
  5
18D11
  8
0
 10
3530.1857561508859362
 20
157.7049286417486087
 30
0.0
 40
0.3311649932352524
 50
219.1311057211752029
 51
232.1041744008882119
  0
ARC
  5
18D12
  8
0
 10
3529.9375193554810721
 20
157.5005070290170011
 30
0.0
 40
0.0097849238191315
 50
134.0043316499697141
 51
207.8799438363448076
  0
LINE
  5
18D13
  8
0
 10
3529.9307216441297896
 20
157.5075452002660086
 30
0.0
 11
3529.9615101538879571
 21
157.5395845541335973
 31
0.0
  0
LINE
  5
18D14
  8
0
 10
3529.9773213298340124
 20
157.4475861110273911
 30
0.0
 11
3529.962972063127836
 21
157.4327270284136091
 31
0.0
  0
ARC
  5
18D15
  8
0
 10
3529.9699795834831093
 20
157.4259599364507949
 30
0.0
 40
0.0097416053686482
 50
135.9999652367042131
 51
225.8001364642184967
  0
ARC
  5
18D16
  8
0
 10
3530.5474662862338846
 20
157.1012881654469879
 30
0.0
 40
0.0271484588860856
 50
231.2473914627018132
 51
243.6265317527198135
  0
ARC
  5
18D17
  8
0
 10
3530.5362849054881735
 20
157.0787372058055098
 30
0.0
 40
0.0019776612004483
 50
243.6265317526616059
 51
289.4910000112388957
  0
ARC
  5
18D18
  8
0
 10
3530.5350886881437873
 20
157.0777160422798886
 30
0.0
 40
0.0020386187484943
 50
335.5690353191855024
 51
27.7664992752284512
  0
ARC
  5
18D19
  8
0
 10
3530.5150660914200671
 20
157.0694572223721082
 30
0.0
 40
0.0236895004709014
 50
22.8747915700144411
 51
36.6452712523983521
  0
ARC
  5
18D1A
  8
0
 10
3529.9116233247568744
 20
156.4961937645304886
 30
0.0
 40
0.8558539159323403
 50
43.3407112282807319
 51
52.4431568544463929
  0
ARC
  5
18D1B
  8
0
 10
3530.4287312604337785
 20
157.1647733423291982
 30
0.0
 40
0.0109044954092075
 50
65.1862355325875455
 51
77.6349687188460678
  0
ARC
  5
18D1C
  8
0
 10
3530.4331616498780022
 20
157.1755126208566082
 30
0.0
 40
0.0020971454004097
 50
182.3976398520013902
 51
220.9311526367314116
  0
ARC
  5
18D1D
  8
0
 10
3530.4792237904921421
 20
157.2085609215340014
 30
0.0
 40
0.0587799532139773
 50
215.8462404615017931
 51
222.3257394250944117
  0
LINE
  5
18D1E
  8
0
 10
3529.831237134389994
 20
157.6268117942335891
 30
0.0
 11
3529.8008585101802055
 21
157.5953542719836094
 31
0.0
  0
ARC
  5
18D1F
  8
0
 10
3529.8079154618658322
 20
157.5885393524347933
 30
0.0
 40
0.0098103871256678
 50
135.9995776929108047
 51
223.9775242502707897
  0
ARC
  5
18D20
  8
0
 10
3531.268084312512201
 20
158.990059182099202
 30
0.0
 40
2.0337547457932921
 50
223.82664449916021
 51
226.7643307130792039
  0
ARC
  5
18D21
  8
0
 10
3529.8814217601698147
 20
157.5158775601227887
 30
0.0
 40
0.0098953050641284
 50
229.2362520422771865
 51
313.6716559923797263
  0
LINE
  5
18D22
  8
0
 10
3529.8882547125081146
 20
157.5087201985510887
 30
0.0
 11
3529.9236298765358697
 21
157.5428075247085928
 31
0.0
  0
ARC
  5
18D23
  8
0
 10
3529.8575919228160274
 20
157.6528881338686858
 30
0.0
 40
0.0409246990038358
 50
212.360965024773094
 51
224.8183908406120963
  0
ARC
  5
18D24
  8
0
 10
3529.8242080859199632
 20
157.6317339969708087
 30
0.0
 40
0.0014028307047549
 50
185.5427722803989923
 51
212.360965024773094
  0
ARC
  5
18D25
  8
0
 10
3529.8229569489249116
 20
157.6316125834578088
 30
0.0
 40
0.0001458163772162
 50
85.4694257928445609
 51
185.5427722799265098
  0
ARC
  5
18D26
  8
0
 10
3529.8228933714872255
 20
157.6308102296370066
 30
0.0
 40
0.0009506851517375
 50
47.6067803541108105
 51
85.4694257928445609
  0
ARC
  5
18D27
  8
0
 10
3529.7968993101521846
 20
157.5792039255397867
 30
0.0
 40
0.0586991936485626
 50
54.1984590636170722
 51
63.0151701739230603
  0
ARC
  5
18D28
  8
0
 10
3529.4182729261870008
 20
157.0476737733173138
 30
0.0
 40
0.7112947943909547
 50
46.4203506860388089
 51
54.5085859789350309
  0
ARC
  5
18D29
  8
0
 10
3529.8281312295230236
 20
157.4872692409149124
 30
0.0
 40
0.110473945108631
 50
30.1806107377729305
 51
43.2382766583330493
  0
ARC
  5
18D2A
  8
0
 10
3529.8989259829768343
 20
157.528475877554996
 30
0.0
 40
0.028560085208377
 50
15.4316040560198093
 51
30.1196141659675298
  0
ARC
  5
18D2B
  8
0
 10
3529.9241533851281929
 20
157.5359363476578949
 30
0.0
 40
0.0023072492478277
 50
263.9407574388382045
 51
3.4544186073292891
  0
ARC
  5
18D2C
  8
0
 10
3529.9362298837859271
 20
157.560252881113513
 30
0.0
 40
0.0293244455260711
 50
231.4217018701797883
 51
245.1572801031977065
  0
LINE
  5
18D2D
  8
0
 10
3529.9121258241329997
 20
157.531722278967294
 30
0.0
 11
3529.9339096703129144
 21
157.5108627463187077
 31
0.0
  0
ARC
  5
18D2E
  8
0
 10
3529.972144851225039
 20
157.549365857847306
 30
0.0
 40
0.0198814844132185
 50
201.682855296196891
 51
223.572883341612112
  0
ARC
  5
18D2F
  8
0
 10
3529.9543907713350563
 20
157.5423068045282093
 30
0.0
 40
0.0007755275805028
 50
88.5198916492656593
 51
201.6828552961252967
  0
ARC
  5
18D30
  8
0
 10
3529.9467304626250552
 20
157.5185383505944117
 30
0.0
 40
0.0257173473990232
 50
54.9215601847767871
 51
72.6238021571171259
  0
ARC
  5
18D31
  8
0
 10
3529.8014189638638527
 20
157.2977167359530881
 30
0.0
 40
0.2900503931989216
 50
38.1209574701912004
 51
56.4996090363843635
  0
ARC
  5
18D32
  8
0
 10
3530.0057836814730763
 20
157.4608926908962019
 30
0.0
 40
0.0286280461975143
 50
24.8676984947548902
 51
33.687751926313183
  0
ARC
  5
18D33
  8
0
 10
3530.0260769502137919
 20
157.4700812353898129
 30
0.0
 40
0.0063553980255187
 50
3.5279240056213759
 51
26.6459832288330496
  0
ARC
  5
18D34
  8
0
 10
3530.0311971553242074
 20
157.4705639544930875
 30
0.0
 40
0.0012265770476214
 50
235.2126555907923944
 51
355.7153379139713252
  0
ARC
  5
18D35
  8
0
 10
3530.0441657603828389
 20
157.5018243532146016
 30
0.0
 40
0.0350433078603899
 50
237.0388471104359098
 51
247.0428075787012858
  0
LINE
  5
18D36
  8
0
 10
3530.0347631346239723
 20
157.438803371873604
 30
0.0
 11
3530.0052575517302103
 21
157.4083052907986087
 31
0.0
  0
ARC
  5
18D37
  8
0
 10
3530.0123591269370991
 20
157.4014348219511135
 30
0.0
 40
0.0098810785141607
 50
135.9476216633186141
 51
222.9584908796888101
  0
ARC
  5
18D38
  8
0
 10
3530.4622020765141315
 20
157.8203112760859881
 30
0.0
 40
0.6245486009296654
 50
222.9584908796888101
 51
229.7347983171598003
  0
ARC
  5
18D39
  8
0
 10
3530.0638142099128345
 20
157.3519819496800949
 30
0.0
 40
0.0097829736667396
 50
237.3747077296864063
 51
314.3941781860057176
  0
LINE
  5
18D3A
  8
0
 10
3530.0706582876950961
 20
157.3449915868081064
 30
0.0
 11
3530.1042147900820964
 21
157.3773972547660946
 31
0.0
  0
LINE
  5
18D3B
  8
0
 10
3530.0038635774158138
 20
157.4519137302353045
 30
0.0
 11
3530.0279888498480432
 21
157.4318012161442937
 31
0.0
  0
ARC
  5
18D3C
  8
0
 10
3530.0900246890209928
 20
157.4891411329691948
 30
0.0
 40
0.077851935804423
 50
218.6500099793649099
 51
222.4746489830151859
  0
ARC
  5
18D3D
  8
0
 10
3530.0392475723429015
 20
157.4485336786260916
 30
0.0
 40
0.012834392584859
 50
207.7307736331920012
 51
218.6500099793649099
  0
ARC
  5
18D3E
  8
0
 10
3530.0281930167298015
 20
157.4427223310516979
 30
0.0
 40
0.000345399012794
 50
76.1726821665622964
 51
207.7307736331862031
  0
ARC
  5
18D3F
  8
0
 10
3530.0082274778128522
 20
157.4054121542812936
 30
0.0
 40
0.0426510784700012
 50
51.5261958275346075
 51
61.9625360050535434
  0
ARC
  5
18D40
  8
0
 10
3529.7467895805739317
 20
157.0431202863105113
 30
0.0
 40
0.4893811112334746
 50
43.0832766432879168
 51
53.953307297654078
  0
ARC
  5
18D41
  8
0
 10
3530.0802462268347881
 20
157.3576323828804107
 30
0.0
 40
0.0310667375956238
 50
30.5176396336721503
 51
39.5095533381670307
  0
ARC
  5
18D42
  8
0
 10
3530.1036316447348327
 20
157.3711849024743117
 30
0.0
 40
0.0040437687721866
 50
3.4335051942332728
 51
33.3535949435205694
  0
ARC
  5
18D43
  8
0
 10
3530.1067776577501718
 20
157.371883377942396
 30
0.0
 40
0.0010005943380974
 50
237.0302364370791111
 51
332.8692454338669222
  0
ARC
  5
18D44
  8
0
 10
3530.1154654557999493
 20
157.3940284488485872
 30
0.0
 40
0.024769420520534
 50
233.6407869124660976
 51
248.1158884262100059
  0
LINE
  5
18D45
  8
0
 10
3530.0986808535121781
 20
157.3720531068885862
 30
0.0
 11
3530.1055041354188688
 21
157.3659096597542089
 31
0.0
  0
LINE
  5
18D46
  8
0
 10
3530.1055041354188688
 20
157.3659096597542089
 30
0.0
 11
3530.1094656439299797
 21
157.3622603798218904
 31
0.0
  0
LINE
  5
18D47
  8
0
 10
3530.1094656439299797
 20
157.3622603798218904
 30
0.0
 11
3530.1115668749648648
 21
157.3601665747212053
 31
0.0
  0
ARC
  5
18D48
  8
0
 10
3530.1113983404361534
 20
157.3599974424635093
 30
0.0
 40
0.0002387668490751
 50
237.5821675442120977
 51
45.1014232611889696
  0
ARC
  5
18D49
  8
0
 10
3530.1355574979729681
 20
157.415550448183609
 30
0.0
 40
0.0608147793086876
 50
238.1109393225088127
 51
246.4616525940699887
  0
LINE
  5
18D4A
  8
0
 10
3530.2304640453980937
 20
157.243390781488813
 30
0.0
 11
3530.2095199623081498
 21
157.2610723319035912
 31
0.0
  0
LINE
  5
18D4B
  8
0
 10
3530.2095199623081498
 20
157.2610723319035912
 30
0.0
 11
3530.2057054901952142
 21
157.2641460262954922
 31
0.0
  0
LINE
  5
18D4C
  8
0
 10
3530.2057054901952142
 20
157.2641460262954922
 30
0.0
 11
3530.2035770923071141
 21
157.2657173323594009
 31
0.0
  0
ARC
  5
18D4D
  8
0
 10
3530.203484413615115
 20
157.2655917953069036
 30
0.0
 40
0.0001560413132406
 50
53.5631178071833318
 51
234.3617377124994903
  0
ARC
  5
18D4E
  8
0
 10
3530.2813991260059083
 20
157.3392277291517019
 30
0.0
 40
0.1073583812842457
 50
223.3986393128830912
 51
227.3800848535383068
  0
ARC
  5
18D4F
  8
0
 10
3530.334618026561202
 20
157.2223127085358954
 30
0.0
 40
0.0152523263868274
 50
237.0730994778774914
 51
264.1662588007977774
  0
ARC
  5
18D50
  8
0
 10
3530.3332209736131517
 20
157.208639075008108
 30
0.0
 40
0.0015075087891678
 50
264.1662588007977774
 51
32.688041338118218
  0
ARC
  5
18D51
  8
0
 10
3530.3178765785428368
 20
157.2041019651246074
 30
0.0
 40
0.0174537318856256
 50
17.8542700634356706
 51
37.4904324860857585
  0
ARC
  5
18D52
  8
0
 10
3530.0997224885591095
 20
157.0059848346577951
 30
0.0
 40
0.3120860393321108
 50
41.9786728094620969
 51
59.1251691208356931
  0
ARC
  5
18D53
  8
0
 10
3530.2420806739260115
 20
157.2445888532112122
 30
0.0
 40
0.0342423384925158
 50
58.69281417567354
 51
70.0794450737192705
  0
ARC
  5
18D54
  8
0
 10
3530.2527945155297857
 20
157.2746778594654131
 30
0.0
 40
0.0023102410518903
 50
65.6345934124210117
 51
115.6825751134219047
  0
ARC
  5
18D55
  8
0
 10
3530.2535115346618113
 20
157.2760036077075085
 30
0.0
 40
0.0018773093708356
 50
156.243953301551187
 51
213.6507111108483912
  0
ARC
  5
18D56
  8
0
 10
3530.2783068184949116
 20
157.2893883890164943
 30
0.0
 40
0.0300470806795481
 50
208.6907346704576014
 51
221.29921934593429
  0
LINE
  5
18D57
  8
0
 10
3530.1840976990952186
 20
157.3993870813885962
 30
0.0
 11
3530.150172676368129
 21
157.366624940080186
 31
0.0
  0
ARC
  5
18D58
  8
0
 10
3530.1425919842381518
 20
157.3744747063813065
 30
0.0
 40
0.0109126405672334
 50
243.9340670845373893
 51
314.0009854795716819
  0
ARC
  5
18D59
  8
0
 10
3530.334570187054851
 20
157.6625078126147059
 30
0.0
 40
0.3569676336328578
 50
219.9645009553204034
 51
236.5481772976357888
  0
ARC
  5
18D5A
  8
0
 10
3530.0812005214779674
 20
157.4524466344915083
 30
0.0
 40
0.027903820441053
 50
192.894099682020709
 51
223.5453158187555971
  0
ARC
  5
18D5B
  8
0
 10
3530.0644648638749459
 20
157.4474712933574949
 30
0.0
 40
0.0105391023633279
 50
136.0618459205489046
 51
186.8192583539903922
  0
LINE
  5
18D5C
  8
0
 10
3530.056875770024817
 20
157.4547841815117977
 30
0.0
 11
3530.0885049120529402
 21
157.4875406077285902
 31
0.0
  0
ARC
  5
18D5D
  8
0
 10
3530.1039866571318271
 20
157.4989163559060046
 30
0.0
 40
0.0271059844516944
 50
207.8608489695513981
 51
219.1478516847278968
  0
ARC
  5
18D5E
  8
0
 10
3530.0849340950921942
 20
157.4888452061771034
 30
0.0
 40
0.0055553887018311
 50
183.3752290073458084
 51
207.8608489695484991
  0
ARC
  5
18D5F
  8
0
 10
3530.0810081768840973
 20
157.4886136669188943
 30
0.0
 40
0.001622648663844
 50
87.7203013589891611
 51
183.3752290073294944
  0
ARC
  5
18D60
  8
0
 10
3530.0782116390128067
 20
157.4707455956369131
 30
0.0
 40
0.0196983222902091
 50
58.4968344881958302
 51
81.6485320815921369
  0
ARC
  5
18D61
  8
0
 10
3529.8671667742969476
 20
157.1516170971596011
 30
0.0
 40
0.4022874298035326
 50
38.0175540580693578
 51
56.6193343833006466
  0
ARC
  5
18D62
  8
0
 10
3530.1679260979631181
 20
157.3884924004711934
 30
0.0
 40
0.0194990962735002
 50
16.0857787907075505
 51
33.9678400924079895
  0
ARC
  5
18D63
  8
0
 10
3530.1845603359802226
 20
157.3936057136484123
 30
0.0
 40
0.0021212656349775
 50
258.5567439781796111
 51
7.8417956524840147
  0
ARC
  5
18D64
  8
0
 10
3530.1877797110091706
 20
157.4095100553346924
 30
0.0
 40
0.0183481710717247
 50
238.9204865058607936
 51
258.5567439781796111
  0
ARC
  5
18D65
  8
0
 10
3530.3590854977601339
 20
157.1701762767247033
 30
0.0
 40
0.018923660992755
 50
235.1809533085987027
 51
256.141236085881701
  0
ARC
  5
18D66
  8
0
 10
3530.3547202584431943
 20
157.152482564585199
 30
0.0
 40
0.000699425382767
 50
256.141236085935418
 51
3.8982086405177778
  0
ARC
  5
18D67
  8
0
 10
3530.3392050221241334
 20
157.1449452055946949
 30
0.0
 40
0.0178995424921207
 50
25.0714891699659006
 51
46.1698196398484981
  0
ARC
  5
18D68
  8
0
 10
3530.0477822226198441
 20
156.844464871839989
 30
0.0
 40
0.4364870375046145
 50
45.8887145937884497
 51
53.108064279304692
  0
LINE
  5
18D69
  8
0
 10
3530.8835476397857747
 20
156.7280833775047881
 30
0.0
 11
3530.5412345440449826
 21
157.0703719286076137
 31
0.0
  0
LINE
  5
18D6A
  8
0
 10
3530.536204176154115
 20
157.0801517913826899
 30
0.0
 11
3530.5412345440449826
 21
157.0703719286076137
 31
0.0
  0
LINE
  5
18D6B
  8
0
 10
3530.5412345440449826
 20
157.0703719286076137
 30
0.0
 11
3530.5490680927459834
 21
157.0552577741680125
 31
0.0
  0
LINE
  5
18D6C
  8
0
 10
3530.5490680927459834
 20
157.0552577741680125
 30
0.0
 11
3530.5694024115960019
 21
157.0190657510053995
 31
0.0
  0
ARC
  5
18D6D
  8
0
 10
3530.8119201214171881
 20
157.1553231913752882
 30
0.0
 40
0.2781742792446255
 50
209.3292510399496109
 51
211.1635926418699114
  0
ARC
  5
18D6E
  8
0
 10
3530.5722839111290341
 20
157.0104023851633031
 30
0.0
 40
0.0018749188518657
 50
284.7051829193370054
 51
31.1635926418671687
  0
ARC
  5
18D6F
  8
0
 10
3530.6104338800259939
 20
157.1085072737112966
 30
0.0
 40
0.10678491444063
 50
232.7880678079295933
 51
249.3411498222702107
  0
ARC
  5
18D70
  8
0
 10
3530.9645277986801375
 20
157.6239579450734993
 30
0.0
 40
0.7320392284480018
 50
231.03858365535649
 51
235.1152226682054049
  0
ARC
  5
18D71
  8
0
 10
3529.8191382316667841
 20
156.482667094991001
 30
0.0
 40
0.8799857756883023
 50
48.1615446658659181
 51
55.1736745873040419
  0
ARC
  5
18D72
  8
0
 10
3529.8748061538881302
 20
156.8448771653640961
 30
0.0
 40
0.6137381910572745
 50
29.1036055176676101
 51
54.417530538438541
  0
ARC
  5
18D73
  8
0
 10
3530.1281720815768495
 20
157.1990038122137889
 30
0.0
 40
0.1783073982521006
 50
54.417530538438541
 51
61.5580334163508027
  0
ARC
  5
18D74
  8
0
 10
3530.1999505994299398
 20
157.3315233121248866
 30
0.0
 40
0.0275971680686537
 50
61.5580334163508027
 51
79.4337914238359559
  0
ARC
  5
18D75
  8
0
 10
3530.204661218208912
 20
157.3567766429289918
 30
0.0
 40
0.001908247383371
 50
79.4337914238359559
 51
191.2836755467940861
  0
ARC
  5
18D76
  8
0
 10
3530.2367833477228487
 20
157.3678591329802998
 30
0.0
 40
0.0358719169260874
 50
198.6239133655950866
 51
219.0610284493835991
  0
ARC
  5
18D77
  8
0
 10
3531.8298861282851249
 20
158.4628111890725108
 30
0.0
 40
1.9688658319267449
 50
214.584039995087295
 51
215.8770343453047929
  0
ARC
  5
18D78
  8
0
 10
3530.2119478965819326
 20
157.2913416512693061
 30
0.0
 40
0.0286669592861544
 50
21.2102920904083803
 51
37.9271244440355275
  0
ARC
  5
18D79
  8
0
 10
3530.2367210670900022
 20
157.3013822716202981
 30
0.0
 40
0.0019796984106082
 50
238.3556887453686102
 51
9.620707818948091
  0
ARC
  5
18D7A
  8
0
 10
3530.2585367434098771
 20
157.3568408383262067
 30
0.0
 40
0.0615446829473878
 50
235.0335915477510014
 51
248.2014053122896939
  0
ARC
  5
18D7B
  8
0
 10
3530.8630093346200738
 20
158.1795105793372898
 30
0.0
 40
1.0823973474113151
 50
228.742605763629399
 51
233.7689271145910084
  0
LINE
  5
18D7C
  8
0
 10
3529.8929178130838409
 20
157.7210561591946885
 30
0.0
 11
3529.9864992357220217
 21
157.6058143694037881
 31
0.0
  0
LINE
  5
18D7D
  8
0
 10
3529.9864992357220217
 20
157.6058143694037881
 30
0.0
 11
3530.0295735863451227
 21
157.5534777895570926
 31
0.0
  0
ARC
  5
18D7E
  8
0
 10
3529.9891291847079628
 20
157.5201910073108138
 30
0.0
 40
0.0523809077440028
 50
25.0163211442575815
 51
39.4552585094021282
  0
ARC
  5
18D7F
  8
0
 10
3530.012877863032827
 20
157.5312734349724906
 30
0.0
 40
0.0261736582689199
 50
12.6388728715104808
 51
25.0163211442575815
  0
ARC
  5
18D80
  8
0
 10
3530.0360429541001395
 20
157.5364679506531047
 30
0.0
 40
0.0024333036526439
 50
243.9826126933510011
 51
12.6388728714977603
  0
ARC
  5
18D81
  8
0
 10
3530.1219428359850099
 20
157.7124532432769115
 30
0.0
 40
0.1982638756472262
 50
227.4278750560694107
 51
243.9826126933510011
  0
ARC
  5
18D82
  8
0
 10
3524.9887055928361406
 20
151.6657918164254966
 30
0.0
 40
7.7336154986995584
 50
49.7283132634485128
 51
50.5992878915192605
  0
ARC
  5
18D83
  8
0
 10
3529.821854039255868
 20
157.5416792462235094
 30
0.0
 40
0.1254742718432527
 50
52.8997260988722076
 51
61.3251376786632534
  0
ARC
  5
18D84
  8
0
 10
3529.8768611756008795
 20
157.6422565691954105
 30
0.0
 40
0.0108375284096053
 50
61.3251376786632534
 51
93.8600240412931157
  0
ARC
  5
18D85
  8
0
 10
3529.8785949508242084
 20
157.6511685476428113
 30
0.0
 40
0.0031115518011983
 50
142.3426496061989894
 51
211.8722109182174052
  0
ARC
  5
18D86
  8
0
 10
3530.2665532125511163
 20
157.8920048666363982
 30
0.0
 40
0.4597446043312564
 50
211.8314173797475917
 51
218.252646330258699
  0
ARC
  5
18D87
  8
0
 10
3525.9062802977077808
 20
154.5771136944406976
 30
0.0
 40
5.0176028821881884
 50
36.5840588217005021
 51
37.1514332357416919
  0
ARC
  5
18D88
  8
0
 10
3529.9234020115550265
 20
157.5587897104207116
 30
0.0
 40
0.0148377961402135
 50
12.8347903426670307
 51
36.4851317495066283
  0
ARC
  5
18D89
  8
0
 10
3529.9368492457078901
 20
157.5619050948893118
 30
0.0
 40
0.0010357180664565
 50
247.532519816924605
 51
10.0472742377660005
  0
ARC
  5
18D8A
  8
0
 10
3529.9923126856219824
 20
157.6735115531656959
 30
0.0
 40
0.1256614942336901
 50
225.4944225459398126
 51
243.6072648526834996
  0
ARC
  5
18D8B
  8
0
 10
3528.9415911212299761
 20
156.4361429551665026
 30
0.0
 40
1.497997017937799
 50
50.0128999793320475
 51
53.1519832202635598
  0
ARC
  5
18D8C
  8
0
 10
3529.7710648892821155
 20
157.5395385738532923
 30
0.0
 40
0.1176151477735366
 50
54.1598476233443265
 51
61.3154925219048508
  0
ARC
  5
18D8D
  8
0
 10
3529.8213290063090426
 20
157.6328888340470087
 30
0.0
 40
0.0116169183283993
 50
57.804879491548391
 51
80.6319596991933594
  0
ARC
  5
18D8E
  8
0
 10
3529.8229651096548878
 20
157.6428060610222985
 30
0.0
 40
0.0015656385571798
 50
80.6319596991933594
 51
167.3554819758224141
  0
ARC
  5
18D8F
  8
0
 10
3529.9109815429351329
 20
157.6574046636218895
 30
0.0
 40
0.0906718042337368
 50
189.045866710166905
 51
196.814843529666291
  0
ARC
  5
18D90
  8
0
 10
3530.0943287012241854
 20
157.5702717788668963
 30
0.0
 40
0.1386848753110041
 50
233.2519427954705975
 51
239.7396575083614891
  0
ARC
  5
18D91
  8
0
 10
3530.0372119964758895
 20
157.4723727602126928
 30
0.0
 40
0.0253423157194969
 50
239.7396575083614891
 51
254.3484548478440956
  0
ARC
  5
18D92
  8
0
 10
3530.0309109491990966
 20
157.4498830779596119
 30
0.0
 40
0.0019866096791574
 50
254.3484548477900091
 51
338.4348438031822184
  0
ARC
  5
18D93
  8
0
 10
3529.5050805753608074
 20
157.3668706811176889
 30
0.0
 40
0.5340546311406493
 50
8.862907103636088
 51
9.8707046839431278
  0
ARC
  5
18D94
  8
0
 10
3530.0343966050168092
 20
157.4593209887673027
 30
0.0
 40
0.0032922945334422
 50
167.0258570863879015
 51
195.8607167135776876
  0
ARC
  5
18D95
  8
0
 10
3530.032241716146018
 20
157.4583254426885048
 30
0.0
 40
0.0020294727444009
 50
59.5518726303730475
 51
121.2672422992147006
  0
ARC
  5
18D96
  8
0
 10
3529.9751204440071888
 20
157.3506350503392923
 30
0.0
 40
0.1239294112186156
 50
50.4693909451326022
 51
62.0165505131204213
  0
LINE
  5
18D97
  8
0
 10
3528.7842836696440827
 20
158.835232798336591
 30
0.0
 11
3528.7514544427999681
 21
158.8014437323828929
 31
0.0
  0
ARC
  5
18D98
  8
0
 10
3528.7590209468430658
 20
158.7944195331469075
 30
0.0
 40
0.0103243090976737
 50
137.1285800906620977
 51
214.6946073577987022
  0
ARC
  5
18D99
  8
0
 10
3529.5613303926697881
 20
159.3613046514404061
 30
0.0
 40
0.992698098557015
 50
215.2380427580629032
 51
221.4835241164176978
  0
ARC
  5
18D9A
  8
0
 10
3528.8262720404350148
 20
158.7099716823404094
 30
0.0
 40
0.0106366413900558
 50
215.8856192841747941
 51
311.7501567552159827
  0
LINE
  5
18D9B
  8
0
 10
3528.9981132931911816
 20
158.5733015675976958
 30
0.0
 11
3528.7842839744271259
 21
158.8352324591886031
 31
0.0
  0
LINE
  5
18D9C
  8
0
 10
3528.8666598962181524
 20
158.7343258166148132
 30
0.0
 11
3528.83335480663618
 21
158.702036156963203
 31
0.0
  0
LINE
  5
18D9D
  8
0
 10
3528.9829554275379451
 20
158.5576923581141102
 30
0.0
 11
3528.853068543270183
 21
158.7211488467769982
 31
0.0
  0
LINE
  5
18D9E
  8
0
 10
3528.8992308506408335
 20
158.6630557705285867
 30
0.0
 11
3528.8704780002890402
 21
158.6353030244212903
 31
0.0
  0
ARC
  5
18D9F
  8
0
 10
3528.8637081910737834
 20
158.6423167920148956
 30
0.0
 40
0.0097479871087169
 50
228.3471889757105941
 51
313.9860160143010717
  0
ARC
  5
18DA0
  8
0
 10
3547.5328656900078386
 20
173.8014191340164984
 30
0.0
 40
24.0582344990792585
 50
218.8153271113050096
 51
219.0798696805975965
  0
ARC
  5
18DA1
  8
0
 10
3528.7950152351468205
 20
158.7275522789610989
 30
0.0
 40
0.00977297714205
 50
136.1597806147138101
 51
218.8444205908683955
  0
LINE
  5
18DA2
  8
0
 10
3528.7879662389459554
 20
158.7343215281640028
 30
0.0
 11
3528.789988537841964
 21
158.7364196557244043
 31
0.0
  0
ARC
  5
18DA3
  8
0
 10
3528.9035362428608096
 20
158.9024131893899039
 30
0.0
 40
0.1397511332295467
 50
207.7262458632251025
 51
209.742137886103194
  0
ARC
  5
18DA4
  8
0
 10
3528.7904712996351009
 20
158.8429866828691956
 30
0.0
 40
0.0120202009387883
 50
198.5932997589634113
 51
207.7262458632251025
  0
ARC
  5
18DA5
  8
0
 10
3528.7803282451759515
 20
158.8395744883399914
 30
0.0
 40
0.0013185830584768
 50
173.6942640925095986
 51
198.5932997589665092
  0
ARC
  5
18DA6
  8
0
 10
3528.7792240000590027
 20
158.8396554800133913
 30
0.0
 40
0.0002160077246745
 50
60.7056928175391519
 51
162.8116302066360959
  0
ARC
  5
18DA7
  8
0
 10
3528.776307555969197
 20
158.8339846961262083
 30
0.0
 40
0.0065926591949222
 50
44.2531891916039584
 51
62.7154950420737833
  0
ARC
  5
18DA8
  8
0
 10
3528.7390451002502232
 20
158.7945778064338924
 30
0.0
 40
0.0608223357606011
 50
41.944966802807123
 51
46.3476024291845192
  0
LINE
  5
18DA9
  8
0
 10
3529.0061061009969308
 20
158.5815323709470022
 30
0.0
 11
3528.9731416872559748
 21
158.5475864018166021
 31
0.0
  0
ARC
  5
18DAA
  8
0
 10
3528.9811681177529863
 20
158.5402871010361139
 30
0.0
 40
0.0108491187846154
 50
137.7163627552480989
 51
212.6012574164205091
  0
ARC
  5
18DAB
  8
0
 10
3529.4211920378129435
 20
158.8403526814836937
 30
0.0
 40
0.5434422809316904
 50
214.2575226582312098
 51
225.8981183686285021
  0
ARC
  5
18DAC
  8
0
 10
3529.0497702980528629
 20
158.4570469144285028
 30
0.0
 40
0.0097032601266673
 50
225.6784725923648978
 51
317.7097015787940109
  0
LINE
  5
18DAD
  8
0
 10
3529.0569482366217926
 20
158.4505177142486048
 30
0.0
 11
3529.0875617263618551
 21
158.4800874712655911
 31
0.0
  0
LINE
  5
18DAE
  8
0
 10
3528.9867793722851275
 20
158.5138329290442982
 30
0.0
 11
3528.9759920482651978
 21
158.5026750980973986
 31
0.0
  0
ARC
  5
18DAF
  8
0
 10
3528.9830940577039655
 20
158.4958089179777971
 30
0.0
 40
0.0098784091591601
 50
135.9672506970952952
 51
218.0920165181092045
  0
ARC
  5
18DB0
  8
0
 10
3529.5966606632659932
 20
158.97774150024199
 30
0.0
 40
0.7900854239817358
 50
218.1475462525415026
 51
223.5142814146304033
  0
ARC
  5
18DB1
  8
0
 10
3529.0295949699038829
 20
158.4414710173261085
 30
0.0
 40
0.0097292655567374
 50
232.6213135696943937
 51
314.5541282478459948
  0
LINE
  5
18DB2
  8
0
 10
3529.0364208549899558
 20
158.43453805972689
 30
0.0
 11
3529.0496993580391063
 21
158.4473439136245929
 31
0.0
  0
ARC
  5
18DB3
  8
0
 10
3529.1133716435429051
 20
158.5040633621273969
 30
0.0
 40
0.038655813328629
 50
222.989267279919801
 51
234.3254930438588133
  0
ARC
  5
18DB4
  8
0
 10
3529.0915071996819279
 20
158.4736071821118912
 30
0.0
 40
0.0011640434787575
 50
234.3254930438588133
 51
264.6392630946801887
  0
ARC
  5
18DB5
  8
0
 10
3529.0912837325618057
 20
158.4726704059955864
 30
0.0
 40
0.0002500435466459
 50
297.3084478662669881
 51
25.0277550055339404
  0
ARC
  5
18DB6
  8
0
 10
3529.0181747423512206
 20
158.4378920707860914
 30
0.0
 40
0.081209638415891
 50
25.43940992170198
 51
31.3044929670615915
  0
ARC
  5
18DB7
  8
0
 10
3528.5360385057979329
 20
158.120664516923199
 30
0.0
 40
0.6583029112259654
 50
33.0919425710642727
 51
44.4688135755634875
  0
ARC
  5
18DB8
  8
0
 10
3528.9897725686641934
 20
158.5648131489442108
 30
0.0
 40
0.0233854196623461
 50
46.6538168129213631
 51
61.1117081313499781
  0
ARC
  5
18DB9
  8
0
 10
3529.0005445029419207
 20
158.5846285881646054
 30
0.0
 40
0.0008437227390638
 50
51.464111514879761
 51
125.7598705678364013
  0
ARC
  5
18DBA
  8
0
 10
3529.0010596640290714
 20
158.584458315427014
 30
0.0
 40
0.0013219011229022
 50
139.7034613315506135
 51
199.9753441961032081
  0
ARC
  5
18DBB
  8
0
 10
3529.0281536486500045
 20
158.5933796614305891
 30
0.0
 40
0.0298462907250692
 50
198.302867368884705
 51
211.1608599010446028
  0
ARC
  5
18DBC
  8
0
 10
3532.4620798079940869
 20
161.0734784767599876
 30
0.0
 40
4.2882720518518598
 50
217.592004627626892
 51
221.2239304211888964
  0
LINE
  5
18DBD
  8
0
 10
3529.1247063232108303
 20
158.3806703859812046
 30
0.0
 11
3529.0936996046580134
 21
158.3485620100273934
 31
0.0
  0
ARC
  5
18DBE
  8
0
 10
3529.1007193849600299
 20
158.3417830825468116
 30
0.0
 40
0.0097586460775149
 50
135.9999812398492907
 51
221.3356247668355934
  0
LINE
  5
18DBF
  8
0
 10
3529.0933920702318574
 20
158.3353378027123881
 30
0.0
 11
3529.1415194085698204
 21
158.2806242504574072
 31
0.0
  0
ARC
  5
18DC0
  8
0
 10
3529.1479375431808876
 20
158.2881675000760993
 30
0.0
 40
0.0099041943995976
 50
229.607374873774603
 51
313.6541800052270901
  0
LINE
  5
18DC1
  8
0
 10
3529.1547744484528266
 20
158.2810016230876045
 30
0.0
 11
3529.1838526201941022
 21
158.3089706189552999
 31
0.0
  0
LINE
  5
18DC2
  8
0
 10
3529.1748507083020741
 20
158.4428190766853106
 30
0.0
 11
3529.1414059829721737
 21
158.4082156994192019
 31
0.0
  0
ARC
  5
18DC3
  8
0
 10
3529.1491322119950382
 20
158.4007481737635032
 30
0.0
 40
0.0107451642302769
 50
135.9754783605785917
 51
205.5078704059924064
  0
ARC
  5
18DC4
  8
0
 10
3529.4400175480991493
 20
158.5811450543141063
 30
0.0
 40
0.3529647907985246
 50
211.6143997827676912
 51
229.7809911681393089
  0
ARC
  5
18DC5
  8
0
 10
3529.2190535726299458
 20
158.3218867950234028
 30
0.0
 40
0.0123913196975585
 50
235.8875205448700001
 51
308.4646658975954097
  0
LINE
  5
18DC6
  8
0
 10
3529.2267613685999095
 20
158.3121844919390924
 30
0.0
 11
3529.2622349161079001
 21
158.3464423583799032
 31
0.0
  0
LINE
  5
18DC7
  8
0
 10
3529.2491120496379153
 20
158.2603466779690109
 30
0.0
 11
3529.2157983055171826
 21
158.2258484984328959
 31
0.0
  0
ARC
  5
18DC8
  8
0
 10
3529.2233028325867963
 20
158.2188938014299993
 30
0.0
 40
0.0102316048090869
 50
137.1776943910473108
 51
218.1055651861638012
  0
ARC
  5
18DC9
  8
0
 10
3529.6565394389581343
 20
158.5629078773091862
 30
0.0
 40
0.5634399189793312
 50
218.4452563544963084
 51
225.894587181603498
  0
ARC
  5
18DCA
  8
0
 10
3529.270616992082978
 20
158.1661580980594124
 30
0.0
 40
0.0100036671671482
 50
231.5483073039380031
 51
313.5484550135437871
  0
LINE
  5
18DCB
  8
0
 10
3529.2775091964258536
 20
158.1589075204205983
 30
0.0
 11
3529.2888346765098504
 21
158.1698053660936125
 31
0.0
  0
LINE
  5
18DCC
  8
0
 10
3529.2636336924338138
 20
158.1590643226396935
 30
0.0
 11
3529.2604583100460331
 21
158.1557818457098108
 31
0.0
  0
ARC
  5
18DCD
  8
0
 10
3529.2674966562781265
 20
158.1489731335254021
 30
0.0
 40
0.0097926952007267
 50
135.9500830745224107
 51
217.2778164004400026
  0
ARC
  5
18DCE
  8
0
 10
3532.6655169608238793
 20
161.2808282985863002
 30
0.0
 40
4.6309029204330692
 50
222.6544741246418084
 51
223.5580254115839978
  0
ARC
  5
18DCF
  8
0
 10
3529.3161839883027824
 20
158.0972714304596991
 30
0.0
 40
0.0100093038958837
 50
228.9346831358016914
 51
312.7349917144173901
  0
LINE
  5
18DD0
  8
0
 10
3529.322976385712991
 20
158.0899195938251864
 30
0.0
 11
3529.3523265257390449
 21
158.1182657685743038
 31
0.0
  0
LINE
  5
18DD1
  8
0
 10
3529.30597900535804
 20
158.2404711353522089
 30
0.0
 11
3529.2718240796039026
 21
158.2051134697437931
 31
0.0
  0
ARC
  5
18DD2
  8
0
 10
3529.2796160411899109
 20
158.198155341120497
 30
0.0
 40
0.0104465410204725
 50
138.235526989288104
 51
212.4780740327850879
  0
ARC
  5
18DD3
  8
0
 10
3529.529796764555158
 20
158.3793875820097981
 30
0.0
 40
0.3193547136069656
 50
215.8072559538713051
 51
229.3236414569842054
  0
ARC
  5
18DD4
  8
0
 10
3529.3269136246099151
 20
158.145920006685003
 30
0.0
 40
0.0101979270549375
 50
238.8995352532263041
 51
313.4966947514225808
  0
LINE
  5
18DD5
  8
0
 10
3529.3339329876171178
 20
158.1385222868202902
 30
0.0
 11
3529.3650994842118962
 21
158.1686196988476922
 31
0.0
  0
LINE
  5
18DD6
  8
0
 10
3529.3508951739217991
 20
158.1168833782797094
 30
0.0
 11
3529.4495875549550874
 21
158.0063764655529042
 31
0.0
  0
LINE
  5
18DD7
  8
0
 10
3529.7337675844578371
 20
157.7073044835780991
 30
0.0
 11
3529.7095842618041388
 21
157.7317921119974926
 31
0.0
  0
LINE
  5
18DD8
  8
0
 10
3529.37885851705596
 20
158.0855725244236964
 30
0.0
 11
3529.3465300009029306
 21
158.0516688055369059
 31
0.0
  0
ARC
  5
18DD9
  8
0
 10
3529.3535811428660054
 20
158.0449452671070105
 30
0.0
 40
0.0097429242018424
 50
136.3624099755687951
 51
224.2258961846713987
  0
ARC
  5
18DDA
  8
0
 10
3635.4031515914221018
 20
261.2669465450733242
 30
0.0
 40
148.0005971691574871
 50
224.2258961846713987
 51
224.2619607508779893
  0
LINE
  5
18DDB
  8
0
 10
3529.4571638535771854
 20
158.0142499416731994
 30
0.0
 11
3529.4204312516958453
 21
157.9760765171311903
 31
0.0
  0
ARC
  5
18DDC
  8
0
 10
3529.4282238547698398
 20
157.9703659321982059
 30
0.0
 40
0.0096610270125119
 50
143.7652474594376883
 51
223.7425510892466889
  0
ARC
  5
18DDD
  8
0
 10
3567.7234162674021718
 20
195.2219084486322913
 30
0.0
 40
53.434366432295711
 50
224.2084463263568921
 51
224.321941516751707
  0
ARC
  5
18DDE
  8
0
 10
3529.4987191962350153
 20
157.896222216390413
 30
0.0
 40
0.0090772187419452
 50
246.6591854896132077
 51
322.2281621637093281
  0
LINE
  5
18DDF
  8
0
 10
3529.5058943398371412
 20
157.8906622510685906
 30
0.0
 11
3529.536473443326031
 21
157.9206395170625115
 31
0.0
  0
LINE
  5
18DE0
  8
0
 10
3529.568025904859951
 20
157.9383501037461883
 30
0.0
 11
3529.5354433056859307
 21
157.9046104540425972
 31
0.0
  0
ARC
  5
18DE1
  8
0
 10
3529.5432031968489355
 20
157.897497889017302
 30
0.0
 40
0.0105263712695509
 50
137.4922353634389083
 51
217.4903809036852067
  0
ARC
  5
18DE2
  8
0
 10
3529.7961828355810212
 20
158.0945019570995953
 30
0.0
 40
0.3311649932352524
 50
217.8958255923465117
 51
230.8688942720667967
  0
ARC
  5
18DE3
  8
0
 10
3529.5917612228199687
 20
157.8462651617192023
 30
0.0
 40
0.0097849238191315
 50
242.1200561568724083
 51
315.9956683433092053
  0
LINE
  5
18DE4
  8
0
 10
3529.5987993940680099
 20
157.8394674503670103
 30
0.0
 11
3529.6308387479398334
 21
157.8702559601213125
 31
0.0
  0
LINE
  5
18DE5
  8
0
 10
3529.5388403048350483
 20
157.8860671360791912
 30
0.0
 11
3529.5239812222189357
 21
157.8717178693738958
 31
0.0
  0
ARC
  5
18DE6
  8
0
 10
3529.5172141302568889
 20
157.8787253897297944
 30
0.0
 40
0.0097416053686482
 50
224.1998635290331947
 51
314.0000347565587049
  0
ARC
  5
18DE7
  8
0
 10
3513.2740007560792037
 20
141.8724981829616922
 30
0.0
 40
22.7946724376095098
 50
44.5791295077965728
 51
44.9312493749949127
  0
ARC
  5
18DE8
  8
0
 10
3529.192542359322033
 20
158.4562120925195927
 30
0.0
 40
0.0271484588860856
 50
206.3734682405224987
 51
218.7526085305277093
  0
ARC
  5
18DE9
  8
0
 10
3529.1699913996799296
 20
158.4450307117764964
 30
0.0
 40
0.0019776612004483
 50
160.5089999819687137
 51
206.3734682405633123
  0
ARC
  5
18DEA
  8
0
 10
3529.1689702361541094
 20
158.4438344944317976
 30
0.0
 40
0.0020386187484943
 50
62.2335007180073134
 51
114.4309646740608031
  0
ARC
  5
18DEB
  8
0
 10
3529.1607114162438847
 20
158.4238118977089016
 30
0.0
 40
0.0236895004709014
 50
53.3547287408614608
 51
67.1252084232025226
  0
ARC
  5
18DEC
  8
0
 10
3528.6146904034922045
 20
157.8471212640563976
 30
0.0
 40
0.8177013214222876
 50
37.6357899390671307
 51
46.7610362048559693
  0
ARC
  5
18DED
  8
0
 10
3535.7435975721978139
 20
163.2476422296045939
 30
0.0
 40
8.1258736181074092
 50
217.0965345852796986
 51
217.1395897499006935
  0
ARC
  5
18DEE
  8
0
 10
3529.2633866726159795
 20
158.3394369041828895
 30
0.0
 40
0.0033137236569373
 50
6.5020594141982668
 51
40.1439202789963829
  0
ARC
  5
18DEF
  8
0
 10
3529.2667668147178119
 20
158.3419074561547859
 30
0.0
 40
0.0020971454004097
 50
229.0688473564553931
 51
267.6023601412023254
  0
ARC
  5
18DF0
  8
0
 10
3529.2998151154010884
 20
158.3879695967640941
 30
0.0
 40
0.0587799532139773
 50
227.6742605681263001
 51
234.1537595317423097
  0
LINE
  5
18DF1
  8
0
 10
3529.7180659880241365
 20
157.739982940613487
 30
0.0
 11
3529.6866084657699503
 21
157.7096043164071943
 31
0.0
  0
ARC
  5
18DF2
  8
0
 10
3529.6797935462218447
 20
157.7166612680939863
 30
0.0
 40
0.0098103871256678
 50
226.0224757429137128
 51
314.000422300356604
  0
ARC
  5
18DF3
  8
0
 10
3531.0813133760589153
 20
159.1768301185742018
 30
0.0
 40
2.0337547457932921
 50
223.2356692801077998
 51
226.1733554940296074
  0
ARC
  5
18DF4
  8
0
 10
3529.6071317539199299
 20
157.790167566406808
 30
0.0
 40
0.0098953050641284
 50
136.3283440008038951
 51
220.7637479509901084
  0
LINE
  5
18DF5
  8
0
 10
3529.599974392348031
 20
157.797000518744909
 30
0.0
 11
3529.6340617185101109
 21
157.8323756827684008
 31
0.0
  0
ARC
  5
18DF6
  8
0
 10
3529.744142327661848
 20
157.7663377290363087
 30
0.0
 40
0.0409246990038358
 50
225.1816091526137029
 51
237.6390349684490104
  0
ARC
  5
18DF7
  8
0
 10
3529.7229881907610434
 20
157.7329538921420067
 30
0.0
 40
0.0014028307047549
 50
237.6390349684490104
 51
264.4572277127987263
  0
ARC
  5
18DF8
  8
0
 10
3529.7228667772469635
 20
157.731702755147694
 30
0.0
 40
0.0001458163772162
 50
264.4572277132699014
 51
4.530574200398406
  0
ARC
  5
18DF9
  8
0
 10
3529.7220644234271276
 20
157.731639177710008
 30
0.0
 40
0.0009506851517375
 50
4.5305742003529517
 51
42.3932196391136387
  0
ARC
  5
18DFA
  8
0
 10
3529.6704581193262129
 20
157.7056451163807083
 30
0.0
 40
0.0586991936485626
 50
26.9848298193126688
 51
35.8015409295969391
  0
ARC
  5
18DFB
  8
0
 10
3529.1389279670579526
 20
157.3270187324789049
 30
0.0
 40
0.7112947943909547
 50
35.4914140142388774
 51
43.5796493071791602
  0
ARC
  5
18DFC
  8
0
 10
3529.5785234347049482
 20
157.7368770357630865
 30
0.0
 40
0.110473945108631
 50
46.7617233348596386
 51
59.8193892554024131
  0
ARC
  5
18DFD
  8
0
 10
3529.619730071352933
 20
157.8076717892110992
 30
0.0
 40
0.028560085208377
 50
59.8803858272547913
 51
74.5683959371879013
  0
ARC
  5
18DFE
  8
0
 10
3529.6271905414591856
 20
157.8328991913618893
 30
0.0
 40
0.0023072492478277
 50
86.5455813858855976
 51
186.0592425543810862
  0
ARC
  5
18DFF
  8
0
 10
3529.6515070749160259
 20
157.8449756900172929
 30
0.0
 40
0.0293244455260711
 50
204.8427198900336919
 51
218.5782981230574933
  0
LINE
  5
18E00
  8
0
 10
3529.6229764727668226
 20
157.8208716303670087
 30
0.0
 11
3529.60211694012105
 21
157.8426554765495098
 31
0.0
  0
ARC
  5
18E01
  8
0
 10
3529.6406200516548779
 20
157.8808906574572006
 30
0.0
 40
0.0198814844132185
 50
226.4271166515758864
 51
248.3171446970303009
  0
ARC
  5
18E02
  8
0
 10
3529.633560998332996
 20
157.863136577568298
 30
0.0
 40
0.0007755275805028
 50
248.3171446970866896
 51
1.48010834394971
  0
ARC
  5
18E03
  8
0
 10
3529.6097925443978056
 20
157.855476268860798
 30
0.0
 40
0.0257173473990232
 50
17.3761978360828202
 51
35.0784398084075519
  0
ARC
  5
18E04
  8
0
 10
3529.3889709297400259
 20
157.7101647701254876
 30
0.0
 40
0.2900503931989216
 50
33.5003909568246314
 51
51.8790425230051611
  0
ARC
  5
18E05
  8
0
 10
3529.5521468847068718
 20
157.9145294877156118
 30
0.0
 40
0.0286280461975143
 50
56.3122480669111809
 51
65.1323014984611319
  0
ARC
  5
18E06
  8
0
 10
3529.5613354292031545
 20
157.9348227564566969
 30
0.0
 40
0.0063553980255187
 50
63.3540167643810079
 51
86.4720759876213378
  0
ARC
  5
18E07
  8
0
 10
3529.5618181483068838
 20
157.9399429615658903
 30
0.0
 40
0.0012265770476214
 50
94.2846620792634127
 51
214.7873444023936997
  0
ARC
  5
18E08
  8
0
 10
3529.5930785470300179
 20
157.9529115666207986
 30
0.0
 40
0.0350433078603899
 50
202.957192414505613
 51
212.9611528827983022
  0
LINE
  5
18E09
  8
0
 10
3529.5300575656879118
 20
157.9435089408682131
 30
0.0
 11
3529.4995594846100175
 21
157.9140033579793112
 31
0.0
  0
ARC
  5
18E0A
  8
0
 10
3529.4926890157630623
 20
157.9211049331869958
 30
0.0
 40
0.0098810785141607
 50
227.0415091135500063
 51
314.0523783298900753
  0
ARC
  5
18E0B
  8
0
 10
3529.9115654699508013
 20
158.3709478827140913
 30
0.0
 40
0.6245486009296654
 50
220.2652016760690969
 51
227.0415091135500063
  0
ARC
  5
18E0C
  8
0
 10
3529.4432361434978702
 20
157.9725600161690124
 30
0.0
 40
0.0097829736667396
 50
135.6058218072070076
 51
212.6252922634944014
  0
LINE
  5
18E0D
  8
0
 10
3529.4362457806259954
 20
157.9794040939513877
 30
0.0
 11
3529.4686514485879343
 21
158.0129605963354891
 31
0.0
  0
LINE
  5
18E0E
  8
0
 10
3529.5431679240459744
 20
157.9126093836605946
 30
0.0
 11
3529.5230554099589426
 21
157.9367346560939041
 31
0.0
  0
ARC
  5
18E0F
  8
0
 10
3529.5803953267900397
 20
157.9987704952602883
 30
0.0
 40
0.077851935804423
 50
227.5253510101856023
 51
231.3499900138205874
  0
ARC
  5
18E10
  8
0
 10
3529.539787872442048
 20
157.9479933785877108
 30
0.0
 40
0.012834392584859
 50
231.3499900138205874
 51
242.2692263600146987
  0
ARC
  5
18E11
  8
0
 10
3529.533976524865011
 20
157.9369388229748097
 30
0.0
 40
0.000345399012794
 50
242.2692263600146987
 51
13.8273178266775805
  0
ARC
  5
18E12
  8
0
 10
3529.4966663480918214
 20
157.916973284061811
 30
0.0
 40
0.0426510784700012
 50
28.0374639881802814
 51
38.4738041656378726
  0
ARC
  5
18E13
  8
0
 10
3529.1343744800901732
 20
157.6555353868664895
 30
0.0
 40
0.4893811112334746
 50
36.0466926955894635
 51
46.9167233499249008
  0
ARC
  5
18E14
  8
0
 10
3529.448886576699806
 20
157.9889920330896871
 30
0.0
 40
0.0310667375956238
 50
50.4904466550278315
 51
59.4823603595197596
  0
ARC
  5
18E15
  8
0
 10
3529.4624390962972029
 20
158.0123774509883106
 30
0.0
 40
0.0040437687721866
 50
56.6464050497330334
 51
86.5664947989771463
  0
ARC
  5
18E16
  8
0
 10
3529.4631375717649462
 20
158.0155234640033939
 30
0.0
 40
0.0010005943380974
 50
117.1307545593306969
 51
212.9697635561122127
  0
ARC
  5
18E17
  8
0
 10
3529.4852826426731554
 20
158.0242112620510113
 30
0.0
 40
0.024769420520534
 50
201.8841115670101942
 51
216.3592130807944898
  0
LINE
  5
18E18
  8
0
 10
3529.4633073007112216
 20
158.0074266597654002
 30
0.0
 11
3529.4571638535771854
 21
158.0142499416728015
 31
0.0
  0
LINE
  5
18E19
  8
0
 10
3529.4571638535771854
 20
158.0142499416728015
 30
0.0
 11
3529.4535145736458617
 21
158.0182114501845945
 31
0.0
  0
LINE
  5
18E1A
  8
0
 10
3529.4535145736458617
 20
158.0182114501845945
 30
0.0
 11
3529.4514207685451765
 21
158.0203126812197922
 31
0.0
  0
ARC
  5
18E1B
  8
0
 10
3529.4512516362869974
 20
158.0201441466903134
 30
0.0
 40
0.0002387668490751
 50
44.8985767320518221
 51
212.4178324489529075
  0
ARC
  5
18E1C
  8
0
 10
3529.5068046420101382
 20
158.0443033042211027
 30
0.0
 40
0.0608147793086876
 50
203.5383473991410881
 51
211.8890606707097959
  0
LINE
  5
18E1D
  8
0
 10
3529.334644975325773
 20
158.1392098516662088
 30
0.0
 11
3529.3523265257390449
 21
158.1182657685743038
 31
0.0
  0
LINE
  5
18E1E
  8
0
 10
3529.3523265257390449
 20
158.1182657685743038
 30
0.0
 11
3529.3554002201299227
 21
158.1144512964609135
 31
0.0
  0
LINE
  5
18E1F
  8
0
 10
3529.3554002201299227
 20
158.1144512964609135
 30
0.0
 11
3529.3569715261937745
 21
158.1123228985728133
 31
0.0
  0
ARC
  5
18E20
  8
0
 10
3529.3568459891412203
 20
158.1122302198810132
 30
0.0
 40
0.0001560413132406
 50
215.6382622806634117
 51
36.436882186091303
  0
ARC
  5
18E21
  8
0
 10
3529.4304819229951136
 20
158.1901449322629105
 30
0.0
 40
0.1073583812842457
 50
222.6199151397138962
 51
226.6013606803252003
  0
ARC
  5
18E22
  8
0
 10
3529.3135669023859009
 20
158.2433638328325003
 30
0.0
 40
0.0152523263868274
 50
185.8337411924192963
 51
212.9269005153705905
  0
ARC
  5
18E23
  8
0
 10
3529.2998932688578861
 20
158.2419667798857006
 30
0.0
 40
0.0015075087891678
 50
57.311958655093882
 51
185.8337411924032097
  0
ARC
  5
18E24
  8
0
 10
3529.2953561589720266
 20
158.2266223848164941
 30
0.0
 40
0.0174537318856256
 50
52.5095675071535268
 51
72.1457299297542392
  0
ARC
  5
18E25
  8
0
 10
3529.0972390284800895
 20
158.0084682948549073
 30
0.0
 40
0.3120860393321108
 50
30.8748308723954992
 51
48.0213271837808904
  0
ARC
  5
18E26
  8
0
 10
3529.3358430470498206
 20
158.1508264801950077
 30
0.0
 40
0.0342423384925158
 50
19.9205549195235889
 51
31.3071858175139397
  0
ARC
  5
18E27
  8
0
 10
3529.3659320533051869
 20
158.1615403217944902
 30
0.0
 40
0.0023102410518903
 50
334.3174248797702148
 51
24.3654065807568898
  0
ARC
  5
18E28
  8
0
 10
3529.3672578015480212
 20
158.1622573409271126
 30
0.0
 40
0.0018773093708356
 50
236.3492888823614919
 51
293.7560466917054214
  0
ARC
  5
18E29
  8
0
 10
3529.3806425828588544
 20
158.1870526247572002
 30
0.0
 40
0.0300470806795481
 50
228.7007806472969094
 51
241.3092653227531059
  0
LINE
  5
18E2A
  8
0
 10
3529.4906412752197866
 20
158.0928435053453995
 30
0.0
 11
3529.4578791339090458
 21
158.0589184826220048
 31
0.0
  0
ARC
  5
18E2B
  8
0
 10
3529.4657289002079779
 20
158.0513377904912034
 30
0.0
 40
0.0109126405672334
 50
135.9990145136277135
 51
206.0659329086821003
  0
ARC
  5
18E2C
  8
0
 10
3529.7537620064640578
 20
158.243315993273086
 30
0.0
 40
0.3569676336328578
 50
213.4518226956024876
 51
230.0354990379080959
  0
ARC
  5
18E2D
  8
0
 10
3529.5437008283111027
 20
157.9899463277218956
 30
0.0
 40
0.027903820441053
 50
226.4546841744518986
 51
257.1059003111793118
  0
ARC
  5
18E2E
  8
0
 10
3529.5387254871748155
 20
157.9732106701194141
 30
0.0
 40
0.0105391023633279
 50
263.1807416392110781
 51
313.9381540727309812
  0
LINE
  5
18E2F
  8
0
 10
3529.5460383753288625
 20
157.9656215762684042
 30
0.0
 11
3529.5787948015499751
 21
157.9972507182924062
 31
0.0
  0
ARC
  5
18E30
  8
0
 10
3529.5901705497281
 20
158.0127324633712078
 30
0.0
 40
0.0271059844516944
 50
230.8521483084680028
 51
242.1391510236782949
  0
ARC
  5
18E31
  8
0
 10
3529.5800993999969251
 20
157.9936799013316886
 30
0.0
 40
0.0055553887018311
 50
242.1391510236782949
 51
266.6247709858592998
  0
ARC
  5
18E32
  8
0
 10
3529.579867860737977
 20
157.9897539831235065
 30
0.0
 40
0.001622648663844
 50
266.6247709859114821
 51
2.279698634226496
  0
ARC
  5
18E33
  8
0
 10
3529.5619997894559674
 20
157.9869574452538075
 30
0.0
 40
0.0196983222902091
 50
8.3514679116449653
 51
31.5031655050057005
  0
ARC
  5
18E34
  8
0
 10
3529.2428712909540991
 20
157.7759125805771134
 30
0.0
 40
0.4022874298035326
 50
33.3806656099014916
 51
51.9824459351083377
  0
ARC
  5
18E35
  8
0
 10
3529.4797465943011048
 20
158.0766719042140949
 30
0.0
 40
0.0194990962735002
 50
56.0321599008131628
 51
73.914221202511456
  0
ARC
  5
18E36
  8
0
 10
3529.4848599074812228
 20
158.0933061422302899
 30
0.0
 40
0.0021212656349775
 50
82.1582043407400562
 51
191.4432560150411859
  0
ARC
  5
18E37
  8
0
 10
3529.5007642491668776
 20
158.0965255172577884
 30
0.0
 40
0.0183481710717247
 50
191.4432560150395943
 51
211.0795134873943937
  0
ARC
  5
18E38
  8
0
 10
3529.2614304705771247
 20
158.2678313040372018
 30
0.0
 40
0.018923660992755
 50
193.8587639073174955
 51
214.8426076465796086
  0
ARC
  5
18E39
  8
0
 10
3529.2437367584370804
 20
158.2634660647227918
 30
0.0
 40
0.000699425382767
 50
86.101791352712695
 51
193.8587639072860043
  0
ARC
  5
18E3A
  8
0
 10
3529.2361993994450131
 20
158.2479508284044982
 30
0.0
 40
0.0178995424921207
 50
43.8301803533735992
 51
64.9285108232626555
  0
ARC
  5
18E3B
  8
0
 10
3528.9357190656560306
 20
157.9565280289357929
 30
0.0
 40
0.4364870375046145
 50
36.891935713948989
 51
44.1112853994088923
  0
LINE
  5
18E3C
  8
0
 10
3528.8193845048990624
 20
158.7922465092700008
 30
0.0
 11
3529.1616261224821756
 21
158.4499803503339024
 31
0.0
  0
LINE
  5
18E3D
  8
0
 10
3529.1714157193059691
 20
158.444945054796392
 30
0.0
 11
3529.1616261224821756
 21
158.4499803503339024
 31
0.0
  0
LINE
  5
18E3E
  8
0
 10
3529.1616261224821756
 20
158.4499803503339024
 30
0.0
 11
3529.146511968042887
 21
158.4578138990376885
 31
0.0
  0
LINE
  5
18E3F
  8
0
 10
3529.146511968042887
 20
158.4578138990376885
 30
0.0
 11
3529.1103199448839405
 21
158.478148217890606
 31
0.0
  0
ARC
  5
18E40
  8
0
 10
3529.2465773852818529
 20
158.7206659276959897
 30
0.0
 40
0.2781742792446255
 50
238.836407351316808
 51
240.670748953310806
  0
ARC
  5
18E41
  8
0
 10
3529.1016565790409913
 20
158.4810297174248035
 30
0.0
 40
0.0018749188518657
 50
58.8364073513167796
 51
165.2948170738920908
  0
ARC
  5
18E42
  8
0
 10
3529.1997614675938166
 20
158.5191796863105083
 30
0.0
 40
0.10678491444063
 50
200.6588501709748869
 51
217.2119321853145095
  0
ARC
  5
18E43
  8
0
 10
3529.7152121389981403
 20
158.8732736049032894
 30
0.0
 40
0.7320392284480018
 50
214.8847773250450928
 51
218.9614163378869023
  0
ARC
  5
18E44
  8
0
 10
3528.5739212887788199
 20
157.7278840380255076
 30
0.0
 40
0.8799857756883023
 50
34.8263254059641909
 51
41.8384553273311823
  0
ARC
  5
18E45
  8
0
 10
3550.4437922629699642
 20
176.3132900067940056
 30
0.0
 40
27.7756167305166599
 50
220.3182098329087069
 51
220.5648869223732902
  0
ARC
  5
18E46
  8
0
 10
3534.1745845559621557
 20
162.3861783661525919
 30
0.0
 40
6.3594649271543613
 50
220.5648869223732902
 51
221.3032890194614026
  0
ARC
  5
18E47
  8
0
 10
3528.9361313591589351
 20
157.7835519602028
 30
0.0
 40
0.6137381910572745
 50
35.5824694547912372
 51
41.30328901946136
  0
ARC
  5
18E48
  8
0
 10
3529.2902580060390392
 20
158.0369178878503078
 30
0.0
 40
0.1783073982521006
 50
28.4419665768674186
 51
35.5824694547912372
  0
ARC
  5
18E49
  8
0
 10
3529.4227775059589476
 20
158.1086964056883062
 30
0.0
 40
0.0275971680686537
 50
10.5662085693806898
 51
28.4419665768674186
  0
ARC
  5
18E4A
  8
0
 10
3529.4480308367628822
 20
158.113407024463811
 30
0.0
 40
0.001908247383371
 50
258.7163244464341005
 51
10.5662085693726802
  0
ARC
  5
18E4B
  8
0
 10
3529.4591133268190788
 20
158.1455291539764119
 30
0.0
 40
0.0358719169260874
 50
230.9389715438113058
 51
251.3760866275879096
  0
ARC
  5
18E4C
  8
0
 10
3530.5540653830989868
 20
159.7386319344097103
 30
0.0
 40
1.9688658319267449
 50
234.1229656478789138
 51
235.4159599981661017
  0
ARC
  5
18E4D
  8
0
 10
3529.3825958451047882
 20
158.1206937028447044
 30
0.0
 40
0.0286669592861544
 50
52.0728755491364765
 51
68.789707902808189
  0
ARC
  5
18E4E
  8
0
 10
3529.3926364654589634
 20
158.1454668733516087
 30
0.0
 40
0.0019796984106082
 50
80.379292174291038
 51
211.6443112478810917
  0
ARC
  5
18E4F
  8
0
 10
3529.4480950321672026
 20
158.1672825496652877
 30
0.0
 40
0.0615446829473878
 50
201.7985946809131121
 51
214.9664084455141904
  0
ARC
  5
18E50
  8
0
 10
3530.2707647732499936
 20
158.7717551407779126
 30
0.0
 40
1.0823973474113151
 50
216.2310728786177094
 51
221.257394229553114
  0
LINE
  5
18E51
  8
0
 10
3529.8094255958490066
 20
157.8040061694931921
 30
0.0
 11
3529.6970685632118148
 21
157.8952450419471063
 31
0.0
  0
LINE
  5
18E52
  8
0
 10
3529.6970685632118148
 20
157.8952450419471063
 30
0.0
 11
3529.6447319833710026
 21
157.9383193925770001
 31
0.0
  0
ARC
  5
18E53
  8
0
 10
3529.6114452011202047
 20
157.8978749909439898
 30
0.0
 40
0.0523809077440028
 50
50.5447414838531728
 51
64.9836788489693049
  0
ARC
  5
18E54
  8
0
 10
3529.6225276287841552
 20
157.9216236692674045
 30
0.0
 40
0.0261736582689199
 50
64.9836788489693049
 51
77.3611271216881988
  0
ARC
  5
18E55
  8
0
 10
3529.6277221444679526
 20
157.9447887603340064
 30
0.0
 40
0.0024333036526439
 50
77.3611271216881988
 51
206.0173872998940112
  0
ARC
  5
18E56
  8
0
 10
3529.8037074371018207
 20
158.0306886421979016
 30
0.0
 40
0.1982638756472262
 50
206.0173872998940112
 51
222.5721249372089972
  0
ARC
  5
18E57
  8
0
 10
3523.7570460096430907
 20
152.8974513997650035
 30
0.0
 40
7.7336154986995584
 50
39.4007121017641211
 51
40.2716867297979277
  0
ARC
  5
18E58
  8
0
 10
3529.6329334400129483
 20
157.7305998454893086
 30
0.0
 40
0.1254742718432527
 50
28.6748623145718611
 51
37.1002738943133465
  0
ARC
  5
18E59
  8
0
 10
3529.7335107629910453
 20
157.7856069818222124
 30
0.0
 40
0.0108375284096053
 50
356.1399759519505892
 51
28.6748623145732893
  0
ARC
  5
18E5A
  8
0
 10
3529.7424227414389861
 20
157.7873407570438076
 30
0.0
 40
0.0031115518011983
 50
238.1277890749904032
 51
307.6573503870250192
  0
ARC
  5
18E5B
  8
0
 10
3529.9832590604778488
 20
158.175299018741697
 30
0.0
 40
0.4597446043312564
 50
231.7473536629304931
 51
238.1685826134277022
  0
ARC
  5
18E5C
  8
0
 10
3526.6683678877661805
 20
153.8150261042924001
 30
0.0
 40
5.0176028821881884
 50
52.8485667574516569
 51
53.4159411715091608
  0
ARC
  5
18E5D
  8
0
 10
3529.6500439042220023
 20
157.8321478177861081
 30
0.0
 40
0.0148377961402135
 50
53.514868243703269
 51
77.1652096505508354
  0
ARC
  5
18E5E
  8
0
 10
3529.6531592886922226
 20
157.845595051939199
 30
0.0
 40
0.0010357180664565
 50
79.9527257554581468
 51
202.4674801762886887
  0
ARC
  5
18E5F
  8
0
 10
3529.7647657469751721
 20
157.9010584918397058
 30
0.0
 40
0.1256614942336901
 50
206.3927351405195907
 51
224.5055774472477026
  0
ARC
  5
18E60
  8
0
 10
3528.5273971488509233
 20
156.8503369275935029
 30
0.0
 40
1.497997017937799
 50
36.8480167729087071
 51
39.9871000138574431
  0
ARC
  5
18E61
  8
0
 10
3529.6307927676361942
 20
157.6798106955149876
 30
0.0
 40
0.1176151477735366
 50
28.6845074713147916
 51
35.8401523699023912
  0
ARC
  5
18E62
  8
0
 10
3529.7241430278359076
 20
157.7300748125311998
 30
0.0
 40
0.0116169183283993
 50
9.3680402940195311
 51
32.1951205016622879
  0
ARC
  5
18E63
  8
0
 10
3529.7340602548119932
 20
157.7317109158763913
 30
0.0
 40
0.0015656385571798
 50
282.6445180174205802
 51
9.3680402940243521
  0
ARC
  5
18E64
  8
0
 10
3529.748658857422015
 20
157.8197273491553858
 30
0.0
 40
0.0906718042337368
 50
253.1851564635445868
 51
260.9541332830676197
  0
ARC
  5
18E65
  8
0
 10
3529.6615259726881959
 20
158.0030745074543859
 30
0.0
 40
0.1386848753110041
 50
210.2603424848919929
 51
216.7480571977046111
  0
ARC
  5
18E66
  8
0
 10
3529.5636269540268586
 20
157.9459578027176008
 30
0.0
 40
0.0253423157194969
 50
195.6515451453942944
 51
210.2603424848919929
  0
ARC
  5
18E67
  8
0
 10
3529.5411372717740051
 20
157.9396567554427122
 30
0.0
 40
0.0019866096791574
 50
111.5651561900068032
 51
195.651545145403702
  0
ARC
  5
18E68
  8
0
 10
3529.4581248748700091
 20
157.4138263816155927
 30
0.0
 40
0.5340546311406493
 50
80.1292953092497555
 51
81.1370928895632488
  0
ARC
  5
18E69
  8
0
 10
3529.550575182582179
 20
157.9431424112599984
 30
0.0
 40
0.0032922945334422
 50
254.1392832796601056
 51
282.9741429068134835
  0
ARC
  5
18E6A
  8
0
 10
3529.5495796365030401
 20
157.9409875223888093
 30
0.0
 40
0.0020294727444009
 50
328.7327576940301128
 51
30.4481273628681492
  0
ARC
  5
18E6B
  8
0
 10
3529.4418892441472053
 20
157.8838662502633099
 30
0.0
 40
0.1239294112186156
 50
27.9834494800667386
 51
39.5306090480610166
  0
LINE
  5
18E6C
  8
0
 10
3529.8417374586451842
 20
157.6843314271588099
 30
0.0
 11
3529.7850902175478041
 21
157.6296228176144041
 31
0.0
  0
ARC
  5
18E6D
  8
0
 10
3529.7781059429380548
 20
157.6368545840774118
 30
0.0
 40
0.010053782273674
 50
229.4393044311198082
 51
314.0026192101715878
  0
ARC
  5
18E6E
  8
0
 10
3530.0628422678801144
 20
157.9695237366294975
 30
0.0
 40
0.4479390866647509
 50
219.9299693908222082
 51
229.4393044311198082
  0
ARC
  5
18E6F
  8
0
 10
3529.7279524673740525
 20
157.6870276938716131
 30
0.0
 40
0.0099576154498796
 50
136.6269911230704963
 51
210.234282085442203
  0
LINE
  5
18E70
  8
0
 10
3529.84122517422702
 20
157.6847096961037096
 30
0.0
 11
3529.815228418317929
 21
157.6596163340898897
 31
0.0
  0
ARC
  5
18E71
  8
0
 10
3529.8080890018768514
 20
157.667012778872305
 30
0.0
 40
0.0102800127691395
 50
238.3556436009849904
 51
313.9869809280240815
  0
ARC
  5
18E72
  8
0
 10
3529.9626104497560846
 20
157.8713743718973888
 30
0.0
 40
0.2664394388011391
 50
216.9072616161155906
 51
233.1163536719668059
  0
ARC
  5
18E73
  8
0
 10
3529.7583954844458276
 20
157.7168198562659995
 30
0.0
 40
0.0103774415547579
 50
136.4038452442325138
 51
211.6679716870418133
  0
LINE
  5
18E74
  8
0
 10
3529.7508799530069155
 20
157.7239758384085917
 30
0.0
 11
3529.7765678692207985
 21
157.7505974892565064
 31
0.0
  0
LINE
  5
18E75
  8
0
 10
3529.7207138785988718
 20
157.6938655983749129
 30
0.0
 11
3529.7762519759990028
 21
157.7510424739267876
 31
0.0
  0
LINE
  5
18E76
  8
0
 10
3529.8976647156378021
 20
157.7146332802660993
 30
0.0
 11
3529.8629334359770837
 21
157.6810067682123133
 31
0.0
  0
ARC
  5
18E77
  8
0
 10
3529.854623217624976
 20
157.6919756536090063
 30
0.0
 40
0.0137614016696628
 50
231.2849322196744879
 51
307.1482023120573785
  0
ARC
  5
18E78
  8
0
 10
3530.0160549624770283
 20
157.920943243878412
 30
0.0
 40
0.2938907006924204
 50
213.1944434432402034
 51
234.6493896153436083
  0
ARC
  5
18E79
  8
0
 10
3529.7806049204591545
 20
157.764088076851607
 30
0.0
 40
0.0112360652463354
 50
136.4596599969827935
 51
201.0987697290059941
  0
LINE
  5
18E7A
  8
0
 10
3529.7724600142428244
 20
157.7718282102451894
 30
0.0
 11
3529.805982618428061
 21
157.80653992696611
 31
0.0
  0
ARC
  5
18E7B
  8
0
 10
3529.5621970372858414
 20
157.4716675996436948
 30
0.0
 40
0.4142111601329703
 50
35.9142952494973073
 51
53.9455465754605967
  0
ARC
  5
18E7C
  8
0
 10
3529.8520705736168566
 20
157.681611286007012
 30
0.0
 40
0.0562963399477726
 50
30.5717768399481606
 51
35.9142952494973073
  0
ARC
  5
18E7D
  8
0
 10
3529.8944713038981718
 20
157.7066588252112922
 30
0.0
 40
0.0070500086269256
 50
17.8916912552589089
 51
30.5717768399481606
  0
ARC
  5
18E7E
  8
0
 10
3529.9007824863629139
 20
157.7086962709581996
 30
0.0
 40
0.0004181002077579
 50
286.533176465621807
 51
17.8916912552356706
  0
ARC
  5
18E7F
  8
0
 10
3529.9022807560431829
 20
157.7132440039493133
 30
0.0
 40
0.0051371742432216
 50
233.9477423963328135
 51
254.4254423220052104
  0
ARC
  5
18E80
  8
0
 10
3529.931314487057989
 20
157.7559441650764995
 30
0.0
 40
0.0567706212105135
 50
230.4181280106058125
 51
235.6201212534897138
  0
ARC
  5
18E81
  8
0
 10
3529.7624004755580245
 20
157.7467815818066015
 30
0.0
 40
0.0739625783305027
 50
53.8964898126079817
 51
58.3645976788660974
  0
ARC
  5
18E82
  8
0
 10
3529.7956538672669922
 20
157.800759438469612
 30
0.0
 40
0.0105638632801967
 50
58.3645976788660974
 51
67.1540747305079293
  0
ARC
  5
18E83
  8
0
 10
3529.799227035183776
 20
157.8092406329938058
 30
0.0
 40
0.0013607013494561
 50
67.1540747305641759
 51
102.4266978206597969
  0
ARC
  5
18E84
  8
0
 10
3529.8003147043859826
 20
157.8102982218339037
 30
0.0
 40
0.0014068725674097
 50
168.8842172288645997
 51
218.4581062170736914
  0
ARC
  5
18E85
  8
0
 10
3529.8418470247697769
 20
157.8367305493283084
 30
0.0
 40
0.0506295063824305
 50
212.6398002228254995
 51
220.5295481092992134
  0
ARC
  5
18E86
  8
0
 10
3528.9361321609021616
 20
158.8653204787298989
 30
0.0
 40
0.1930783759484543
 50
214.5423197780193902
 51
222.6177546138328012
  0
ARC
  5
18E87
  8
0
 10
3528.6478278122590382
 20
158.6353345586061039
 30
0.0
 40
0.1767238706961182
 50
34.1679496899007873
 51
42.9921247019592911
  0
ARC
  5
18E88
  8
0
 10
3529.1591233932590512
 20
158.6127265234059109
 30
0.0
 40
0.1930783759484543
 50
214.5423197780193902
 51
222.6177546138328012
  0
ARC
  5
18E89
  8
0
 10
3528.8708190446159279
 20
158.3827406032820875
 30
0.0
 40
0.1767238706961182
 50
34.1679496899007873
 51
42.9921247019592911
  0
ARC
  5
18E8A
  8
0
 10
3529.2038777688057962
 20
158.6372971394511922
 30
0.0
 40
0.2695737948324372
 50
217.8652812920304029
 51
223.3042989460165018
  0
ARC
  5
18E8B
  8
0
 10
3528.8114088461329629
 20
158.3010912713025107
 30
0.0
 40
0.2478445776753827
 50
37.6266509547284187
 51
43.5429292833352619
  0
ARC
  5
18E8C
  8
0
 10
3529.2274223395647823
 20
158.3977151792066991
 30
0.0
 40
0.0681403781605655
 50
209.7726234725365089
 51
232.6955988764881056
  0
ARC
  5
18E8D
  8
0
 10
3529.1178301732288674
 20
158.3016591805327096
 30
0.0
 40
0.080101015225478
 50
31.5022159183729293
 51
50.9660064306781067
  0
ARC
  5
18E8E
  8
0
 10
3529.3695964067369459
 20
158.3027013095388895
 30
0.0
 40
0.1750559289259796
 50
217.807979500519707
 51
226.1878245571872128
  0
ARC
  5
18E8F
  8
0
 10
3529.1066040926161804
 20
158.0659194027603007
 30
0.0
 40
0.1797469565993198
 50
37.9175156376717624
 51
46.0782884200410905
  0
ARC
  5
18E90
  8
0
 10
3529.3713089277589461
 20
158.2331342539517038
 30
0.0
 40
0.1019652050497628
 50
214.8549179495080921
 51
229.2208227140665997
  0
ARC
  5
18E91
  8
0
 10
3529.2203601037599583
 20
158.097038555862099
 30
0.0
 40
0.1028708303144809
 50
34.9184821522476199
 51
49.1572585112727012
  0
ARC
  5
18E92
  8
0
 10
3529.5438661884550129
 20
158.0512644091600123
 30
0.0
 40
0.0681743353523354
 50
211.4918892555670027
 51
234.5314263170303946
  0
ARC
  5
18E93
  8
0
 10
3529.4525043825419743
 20
157.9660333863807864
 30
0.0
 40
0.0597169212911461
 50
29.8329293655029204
 51
56.190386207094619
  0
ARC
  5
18E94
  8
0
 10
3529.63654687822509
 20
158.108283650917798
 30
0.0
 40
0.2432992188976712
 50
220.7553537105225985
 51
226.7790125727609905
  0
ARC
  5
18E95
  8
0
 10
3529.295507693530908
 20
157.7816135921073055
 30
0.0
 40
0.2296439777273827
 50
40.5760821412938029
 51
46.9582841419877468
  0
ARC
  5
18E96
  8
0
 10
3529.4796968147179541
 20
157.7884983040999032
 30
0.0
 40
0.1121930048106833
 50
37.1231316135970388
 51
50.1849412248817117
  0
ARC
  5
18E97
  8
0
 10
3529.6328396041021733
 20
157.9346098675790131
 30
0.0
 40
0.1010075399790548
 50
216.3962103379307109
 51
230.9118625005571914
  0
ARC
  5
18E98
  8
0
 10
3530.1680258333872189
 20
158.2724086147669027
 30
0.0
 40
0.7478183700001692
 50
223.2779534048968912
 51
226.1860888524645077
  0
ARC
  5
18E99
  8
0
 10
3529.0488795479482178
 20
157.1636824180617964
 30
0.0
 40
0.8280008862378554
 50
43.4187893956092168
 51
46.045252861757767
  0
ARC
  5
18E9A
  8
0
 10
3529.8746528570381997
 20
157.783188342625607
 30
0.0
 40
0.1818368807805351
 50
220.8623873661007053
 51
228.9192014728531035
  0
ARC
  5
18E9B
  8
0
 10
3529.6118373150429761
 20
157.5213727471852962
 30
0.0
 40
0.1900131648375735
 50
41.0359980334127528
 51
48.7455908055229088
  0
ARC
  5
18E9C
  8
0
 10
3529.7163553863861125
 20
157.6261208313644033
 30
0.0
 40
0.0851940885780352
 50
36.0195578683111108
 51
53.1968438971220507
  0
ARC
  5
18E9D
  8
0
 10
3529.8283868789649205
 20
157.7366305225270082
 30
0.0
 40
0.074223886508883
 50
214.7383022960977996
 51
234.478099469333813
  0
ARC
  5
18E9E
  8
0
 10
3529.8507680681318561
 20
157.7597199988273928
 30
0.0
 40
0.0579579104527709
 50
211.3466724722966887
 51
238.5197455408222993
  0
ARC
  5
18E9F
  8
0
 10
3529.7707819551110333
 20
157.6799201520182976
 30
0.0
 40
0.0582629305828653
 50
31.4191540095543687
 51
58.4472640035673194
  0
ARC
  5
18EA0
  8
0
 10
3530.9580357115069091
 20
156.8489712322003982
 30
0.0
 40
0.1930783759484543
 50
227.6832019235424127
 51
235.7586367593731893
  0
ARC
  5
18EA1
  8
0
 10
3530.7295673283470023
 20
156.5594628233451999
 30
0.0
 40
0.1767238706961182
 50
47.3088318354123132
 51
56.1330068474967305
  0
ARC
  5
18EA2
  8
0
 10
3530.7042739440389596
 20
157.070632598582506
 30
0.0
 40
0.1930783759484543
 50
227.6832019235424127
 51
235.7586367593731893
  0
ARC
  5
18EA3
  8
0
 10
3530.4758055608790528
 20
156.7811241897273078
 30
0.0
 40
0.1767238706961182
 50
47.3088318354123132
 51
56.1330068474967305
  0
ARC
  5
18EA4
  8
0
 10
3530.7286091416822273
 20
157.1155154177791076
 30
0.0
 40
0.2695737948324372
 50
226.9966575913680913
 51
232.4356752453419972
  0
ARC
  5
18EA5
  8
0
 10
3530.3944694167507805
 20
156.7212859347818892
 30
0.0
 40
0.2478445776753827
 50
46.7580272540686295
 51
52.6743055826444007
  0
ARC
  5
18EA6
  8
0
 10
3530.4889068149582272
 20
157.1378012215548097
 30
0.0
 40
0.0681403781605655
 50
217.6053576608962885
 51
240.5283330648273932
  0
ARC
  5
18EA7
  8
0
 10
3530.393427791610975
 20
157.027706017735909
 30
0.0
 40
0.080101015225478
 50
39.3349501067177414
 51
58.7987406190233131
  0
ARC
  5
18EA8
  8
0
 10
3530.3931474642381545
 20
157.2794742519986926
 30
0.0
 40
0.1750559289259796
 50
224.1131319802024962
 51
232.4929770368568995
  0
ARC
  5
18EA9
  8
0
 10
3530.1577502327068032
 20
157.0152418314820011
 30
0.0
 40
0.1797469565993198
 50
44.2226681173623106
 51
52.3834408997123901
  0
ARC
  5
18EAA
  8
0
 10
3530.3235723730608697
 20
157.2808213374217985
 30
0.0
 40
0.1019652050497628
 50
221.0801338233353022
 51
235.4460385878938951
  0
ARC
  5
18EAB
  8
0
 10
3530.188271435050865
 20
157.129159731605597
 30
0.0
 40
0.1028708303144809
 50
41.1436980261065983
 51
55.3824743851244321
  0
ARC
  5
18EAC
  8
0
 10
3530.1423367642960329
 20
157.4549815086367914
 30
0.0
 40
0.0681743353523354
 50
215.769530220375799
 51
238.8090672818013047
  0
ARC
  5
18EAD
  8
0
 10
3530.057586809654822
 20
157.3631732736459981
 30
0.0
 40
0.0597169212911461
 50
34.1105703302891214
 51
60.4680271718765567
  0
ARC
  5
18EAE
  8
0
 10
3530.1988683994582061
 20
157.5479604224437082
 30
0.0
 40
0.2432992188976712
 50
223.5219439646307933
 51
229.5456028268579018
  0
ARC
  5
18EAF
  8
0
 10
3529.8739942094748585
 20
157.2052100562843009
 30
0.0
 40
0.2296439777273827
 50
43.3426723953990418
 51
49.7248743961085111
  0
ARC
  5
18EB0
  8
0
 10
3529.8799113439699795
 20
157.3894327995664923
 30
0.0
 40
0.1121930048106833
 50
40.1160153125089991
 51
53.1778249238023477
  0
ARC
  5
18EB1
  8
0
 10
3530.0252164850471672
 20
157.5433409504194913
 30
0.0
 40
0.1010075399790548
 50
219.3890940368445968
 51
233.9047461994479988
  0
ARC
  5
18EB2
  8
0
 10
3530.3601994217938227
 20
158.0802941380495099
 30
0.0
 40
0.7478183700001692
 50
224.1148676849184085
 51
227.023003132513594
  0
ARC
  5
18EB3
  8
0
 10
3529.2573670133610904
 20
156.9553395316831086
 30
0.0
 40
0.8280008862378554
 50
44.2557036756400706
 51
46.8821671417882229
  0
LINE
  5
18EB4
  8
0
 10
3530.7884108515709158
 20
156.7156962376911054
 30
0.0
 11
3530.8835515202517854
 21
156.4647088644277915
 31
0.0
  0
ARC
  5
18EB5
  8
0
 10
3453.3611293157850923
 20
127.2332591585634987
 30
0.0
 40
82.8504894152957263
 50
20.599211727350319
 51
20.6599997303792406
  0
ARC
  5
18EB6
  8
0
 10
3531.0790384495571743
 20
156.4442804077945937
 30
0.0
 40
0.1757544028384392
 50
200.5992117273503084
 51
238.8821599587685114
  0
ARC
  5
18EB7
  8
0
 10
3531.0632067758288031
 20
156.4180544086102884
 30
0.0
 40
0.1451203543590461
 50
238.8821599587685114
 51
308.7076696414900994
  0
LINE
  5
18EB8
  8
0
 10
3531.1539573714139806
 20
156.3048102182499122
 30
0.0
 11
3531.223968351359872
 21
156.3748209244012912
 31
0.0
  0
ARC
  5
18EB9
  8
0
 10
3531.210038375008935
 20
156.3887509552289998
 30
0.0
 40
0.0197
 50
314.9998879652835058
 51
45.0000545475732281
  0
LINE
  5
18EBA
  8
0
 10
3530.9294311179551187
 20
156.6958899684900928
 30
0.0
 11
3531.2239683653360771
 21
156.4026809720801907
 31
0.0
  0
ARC
  5
18EBB
  8
0
 10
3531.0137148440921919
 20
156.6662133436020952
 30
0.0
 40
0.038614248049825
 50
139.430268633484701
 51
225.4653286044840002
  0
LINE
  5
18EBC
  8
0
 10
3531.8589176740319999
 20
159.2592138250682012
 30
0.0
 11
3531.5561477144369746
 21
158.9564438654738865
 31
0.0
  0
ARC
  5
18EBD
  8
0
 10
3531.8519880275762262
 20
159.2661434715238897
 30
0.0
 40
0.0098
 50
315.0000000000034106
 51
44.9999999999965397
  0
ARC
  5
18EBE
  8
0
 10
3531.4726311654358142
 20
159.0399604144751038
 30
0.0
 40
0.1181102362801617
 50
247.4805412775153002
 51
315.0000000000046043
  0
LINE
  5
18EBF
  8
0
 10
3531.427395278351014
 20
158.9308561412599943
 30
0.0
 11
3531.4020488666760684
 21
158.94136505518901
 31
0.0
  0
ARC
  5
18EC0
  8
0
 10
3531.3568129794662127
 20
158.8322607816683956
 30
0.0
 40
0.1181102366108901
 50
67.4805412775159112
 51
134.9999998362152098
  0
LINE
  5
18EC1
  8
0
 10
3531.273296430469145
 20
158.9157773311422943
 30
0.0
 11
3531.2255062560211627
 21
158.8679871569673026
 31
0.0
  0
ARC
  5
18EC2
  8
0
 10
3531.253345104968048
 20
158.8401483078611989
 30
0.0
 40
0.0393700778540652
 50
134.9999998362152098
 51
180.0000009656411919
  0
ARC
  5
18EC3
  8
0
 10
3530.7686988056971131
 20
158.8401482996931975
 30
0.0
 40
0.4452762214162097
 50
353.0963209735463124
 51
0.0000009656412351
  0
LINE
  5
18EC4
  8
0
 10
3531.4035369712319152
 20
158.5669194404927964
 30
0.0
 11
3531.1152699603130714
 21
158.2577909178976938
 31
0.0
  0
ARC
  5
18EC5
  8
0
 10
3531.1987174558898914
 20
158.1799748693605068
 30
0.0
 40
0.1141000522697107
 50
136.9999999956972943
 51
178.1708263236174048
  0
ARC
  5
18EC6
  8
0
 10
3531.3973991397469945
 20
158.1585180031588891
 30
0.0
 40
0.3137291854618491
 50
175.4113300931186075
 51
200.1687725447451101
  0
ARC
  5
18EC7
  8
0
 10
3533.7361448856418065
 20
159.1713097131186032
 30
0.0
 40
2.8619038277767381
 50
203.0593105159045137
 51
210.1539333812328891
  0
ARC
  5
18EC8
  8
0
 10
3529.2296042148182096
 20
156.6740244906584962
 30
0.0
 40
2.2916347997204309
 50
16.3344345569105904
 51
27.5428664064532001
  0
ARC
  5
18EC9
  8
0
 10
3530.0194318262902016
 20
156.892118390169486
 30
0.0
 40
1.4724059646897141
 50
359.3984856030044739
 51
16.8342020052951504
  0
ARC
  5
18ECA
  8
0
 10
3531.4327289303141697
 20
156.8784594472977005
 30
0.0
 40
0.0590551181000025
 50
305.5284641860037027
 51
358.25462582099982
  0
ARC
  5
18ECB
  8
0
 10
3530.8993241028861121
 20
157.6254297778889111
 30
0.0
 40
0.9769251441134498
 50
294.0708064181320083
 51
305.5301812374067936
  0
ARC
  5
18ECC
  8
0
 10
3530.8993241225148267
 20
157.6254297232189003
 30
0.0
 40
0.9769250861915864
 50
277.4811520637135231
 51
294.0708066747890825
  0
ARC
  5
18ECD
  8
0
 10
3531.0247230481331826
 20
156.6705030029384886
 30
0.0
 40
0.0138
 50
224.9999999146450875
 51
277.4811520636874889
  0
ARC
  5
18ECE
  8
0
 10
3531.3891293033120746
 20
158.5803548081871099
 30
0.0
 40
0.0197
 50
316.9999999956961005
 51
44.9957806252350565
  0
LINE
  5
18ECF
  8
0
 10
3528.7928710325468273
 20
159.5045732224151891
 30
0.0
 11
3531.4670462924068488
 21
156.8303988019341091
 31
0.0
  0
LINE
  5
18ED0
  8
0
 10
3531.4499032771132079
 20
159.6681680900977085
 30
0.0
 11
3531.1471633835299144
 21
159.3654281963814014
 31
0.0
  0
ARC
  5
18ED1
  8
0
 10
3531.1733151635389731
 20
159.3392764163839104
 30
0.0
 40
0.0369842019606954
 50
135.0000000125442057
 51
178.6122225218340134
  0
ARC
  5
18ED2
  8
0
 10
3531.2340532782441187
 20
159.3378049733574926
 30
0.0
 40
0.0977401376589184
 50
178.6122225218340134
 51
202.2623370715141107
  0
ARC
  5
18ED3
  8
0
 10
3531.3677631060218118
 20
159.4040262892264082
 30
0.0
 40
0.2467999064290698
 50
204.7307718627995996
 51
240.8996127414706905
  0
ARC
  5
18ED4
  8
0
 10
3531.3435479842351015
 20
159.3794498406863056
 30
0.0
 40
0.2137472916434072
 50
243.3680475327572026
 51
250.6986675991630023
  0
ARC
  5
18ED5
  8
0
 10
3531.2965527901319547
 20
159.2452626356489986
 30
0.0
 40
0.0715686917607917
 50
250.6986675991630023
 51
279.4864694232848024
  0
ARC
  5
18ED6
  8
0
 10
3531.3023749252529342
 20
159.2104203839278966
 30
0.0
 40
0.0362433501154514
 50
279.4864694232848024
 51
314.7722628549207116
  0
LINE
  5
18ED7
  8
0
 10
3531.6306406704138681
 20
159.487430696797702
 30
0.0
 11
3531.3279007768128395
 21
159.1846908030975953
 31
0.0
  0
ARC
  5
18ED8
  8
0
 10
3531.4523050938068991
 20
159.6655836957629049
 30
0.0
 40
0.003528146469259
 50
92.2379440410066849
 51
132.9029654530368134
  0
ARC
  5
18ED9
  8
0
 10
3531.4525712402660247
 20
159.6587732872415017
 30
0.0
 40
0.0103437534243473
 50
74.0666598892227057
 51
92.2379440410066849
  0
ARC
  5
18EDA
  8
0
 10
3531.4488258171791131
 20
159.6456538565919914
 30
0.0
 40
0.0239873473303371
 50
61.5479999697313431
 51
74.0666598892227057
  0
ARC
  5
18EDB
  8
0
 10
3531.4274077037830466
 20
159.6061276684781092
 30
0.0
 40
0.0689434940540685
 50
55.8880071036249504
 51
61.5479999697313431
  0
ARC
  5
18EDC
  8
0
 10
3531.4219772028550324
 20
159.598110467392587
 30
0.0
 40
0.0786267710603268
 50
50.13626834817277
 51
55.8880071036249504
  0
ARC
  5
18EDD
  8
0
 10
3531.6153505766760645
 20
159.8296801460217864
 30
0.0
 40
0.22306475643669
 50
230.1362683481727913
 51
232.1033745849327943
  0
ARC
  5
18EDE
  8
0
 10
3531.6282359069477934
 20
159.4897347762457969
 30
0.0
 40
0.0033304158044322
 50
316.2249060974173744
 51
354.8645718588161913
  0
ARC
  5
18EDF
  8
0
 10
3531.621453724013918
 20
159.4903442972635048
 30
0.0
 40
0.0101399327629374
 50
354.8645718588161913
 51
25.3408431321946495
  0
ARC
  5
18EE0
  8
0
 10
3531.561333068922977
 20
159.4618729432058899
 30
0.0
 40
0.0766614418452929
 50
25.3408431321946495
 51
33.8668149925243398
  0
ARC
  5
18EE1
  8
0
 10
3531.5148107567829356
 20
159.4306503437429114
 30
0.0
 40
0.1326897939900458
 50
33.8668149925243398
 51
38.7313028252054181
  0
ENDSEC
  0
EOF
