  0
SECTION
  2
HEADER
  9
$ACADVER
  1
AC1009
  9
$INSBASE
 10
3715.365555726151797
 20
135.3632262423166992
 30
0.0
  9
$EXTMIN
 10
3712.1667401264639921
 20
131.1947129289096097
 30
0.0
  9
$EXTMAX
 10
3718.5643713258391472
 20
138.5620418420039073
 30
0.0
  9
$LIMMIN
 10
0.0
 20
0.0
  9
$LIMMAX
 10
11.6929133858000007
 20
8.2677165353999982
  9
$ORTHOMODE
 70
     0
  9
$REGENMODE
 70
     1
  9
$FILLMODE
 70
     1
  9
$QTEXTMODE
 70
     0
  9
$MIRRTEXT
 70
     0
  9
$DRAGMODE
 70
     2
  9
$LTSCALE
 40
0.6431102362
  9
$OSMODE
 70
  4095
  9
$ATTMODE
 70
     1
  9
$TEXTSIZE
 40
0.2
  9
$TRACEWID
 40
0.05
  9
$TEXTSTYLE
  7
STANDARD
  9
$CLAYER
  8
0
  9
$CELTYPE
  6
BYLAYER
  9
$CECOLOR
 62
   256
  9
$DIMSCALE
 40
1.0
  9
$DIMASZ
 40
0.1875
  9
$DIMEXO
 40
0.0625
  9
$DIMDLI
 40
0.4443307087
  9
$DIMRND
 40
0.0
  9
$DIMDLE
 40
0.0
  9
$DIMEXE
 40
0.125
  9
$DIMTP
 40
0.01
  9
$DIMTM
 40
0.01
  9
$DIMTXT
 40
2.0
  9
$DIMCEN
 40
0.1052362205
  9
$DIMTSZ
 40
0.0
  9
$DIMTOL
 70
     1
  9
$DIMLIM
 70
     0
  9
$DIMTIH
 70
     1
  9
$DIMTOH
 70
     1
  9
$DIMSE1
 70
     0
  9
$DIMSE2
 70
     0
  9
$DIMTAD
 70
     0
  9
$DIMZIN
 70
     0
  9
$DIMBLK
  1

  9
$DIMASO
 70
     1
  9
$DIMSHO
 70
     1
  9
$DIMPOST
  1
\X
  9
$DIMAPOST
  1

  9
$DIMALT
 70
     1
  9
$DIMALTD
 70
     2
  9
$DIMALTF
 40
25.3999999999999986
  9
$DIMLFAC
 40
1.0
  9
$DIMTOFL
 70
     0
  9
$DIMTVP
 40
0.0
  9
$DIMTIX
 70
     0
  9
$DIMSOXD
 70
     0
  9
$DIMSAH
 70
     0
  9
$DIMBLK1
  1

  9
$DIMBLK2
  1

  9
$DIMSTYLE
  2
STANDARD
  9
$DIMCLRD
 70
     0
  9
$DIMCLRE
 70
     0
  9
$DIMCLRT
 70
     0
  9
$DIMTFAC
 40
1.0
  9
$DIMGAP
 40
0.09
  9
$LUNITS
 70
     2
  9
$LUPREC
 70
     4
  9
$SKETCHINC
 40
0.1
  9
$FILLETRAD
 40
0.0
  9
$AUNITS
 70
     0
  9
$AUPREC
 70
     0
  9
$MENU
  1
.
  9
$ELEVATION
 40
0.0
  9
$PELEVATION
 40
0.0
  9
$THICKNESS
 40
0.0
  9
$LIMCHECK
 70
     0
  9
$BLIPMODE
 70
     0
  9
$CHAMFERA
 40
0.0
  9
$CHAMFERB
 40
0.0
  9
$SKPOLY
 70
     0
  9
$TDCREATE
 40
2458060.468368056230247
  9
$TDUPDATE
 40
2459908.8271296299062669
  9
$TDINDWG
 40
0.4395672454
  9
$TDUSRTIMER
 40
0.4395672454
  9
$USRTIMER
 70
     1
  9
$ANGBASE
 50
0.0
  9
$ANGDIR
 70
     0
  9
$PDMODE
 70
     0
  9
$PDSIZE
 40
0.3125
  9
$PLINEWID
 40
0.0
  9
$COORDS
 70
     1
  9
$SPLFRAME
 70
     0
  9
$SPLINETYPE
 70
     6
  9
$SPLINESEGS
 70
     8
  9
$ATTDIA
 70
     1
  9
$ATTREQ
 70
     1
  9
$HANDLING
 70
     1
  9
$HANDSEED
  5
143EA
  9
$SURFTAB1
 70
     6
  9
$SURFTAB2
 70
     6
  9
$SURFTYPE
 70
     6
  9
$SURFU
 70
     6
  9
$SURFV
 70
     6
  9
$UCSNAME
  2

  9
$UCSORG
 10
0.0
 20
0.0
 30
0.0
  9
$UCSXDIR
 10
1.0
 20
0.0
 30
0.0
  9
$UCSYDIR
 10
0.0
 20
1.0
 30
0.0
  9
$PUCSNAME
  2

  9
$PUCSORG
 10
0.0
 20
0.0
 30
0.0
  9
$PUCSXDIR
 10
1.0
 20
0.0
 30
0.0
  9
$PUCSYDIR
 10
0.0
 20
1.0
 30
0.0
  9
$USERI1
 70
     0
  9
$USERI2
 70
     0
  9
$USERI3
 70
     0
  9
$USERI4
 70
     0
  9
$USERI5
 70
     0
  9
$USERR1
 40
0.0
  9
$USERR2
 40
0.0
  9
$USERR3
 40
0.0
  9
$USERR4
 40
0.0
  9
$USERR5
 40
0.0
  9
$WORLDVIEW
 70
     1
  9
$SHADEDGE
 70
     3
  9
$SHADEDIF
 70
    70
  9
$TILEMODE
 70
     1
  9
$MAXACTVP
 70
    64
  9
$PLIMCHECK
 70
     0
  9
$PEXTMIN
 10
1.0000000000000000E+20
 20
1.0000000000000000E+20
 30
1.0000000000000000E+20
  9
$PEXTMAX
 10
-1.0000000000000000E+20
 20
-1.0000000000000000E+20
 30
-1.0000000000000000E+20
  9
$PLIMMIN
 10
0.0
 20
0.0
  9
$PLIMMAX
 10
12.0
 20
9.0
  9
$UNITMODE
 70
     0
  9
$VISRETAIN
 70
     1
  9
$PLINEGEN
 70
     0
  9
$PSLTSCALE
 70
     1
  0
ENDSEC
  0
SECTION
  2
TABLES
  0
TABLE
  2
VPORT
 70
     1
  0
VPORT
  2
*ACTIVE
 70
     0
 10
0.0
 20
0.0
 11
1.0
 21
1.0
 12
-86.2389714318123737
 22
8.3538316188623583
 13
0.0
 23
0.0
 14
1.0
 24
1.0
 15
0.0
 25
0.0
 16
0.0
 26
0.0
 36
17.1152628219792007
 17
3803.5440673828129547
 27
125.9952621967499056
 37
0.0
 40
9.9736981001775717
 41
2.8398203592814371
 42
50.0
 43
0.0
 44
0.0
 50
0.0
 51
0.0
 71
     0
 72
   100
 73
     1
 74
     1
 75
     0
 76
     0
 77
     0
 78
     0
  0
ENDTAB
  0
TABLE
  2
LTYPE
 70
     3
  0
LTYPE
  2
CONTINUOUS
 70
     0
  3
Solid line
 72
    65
 73
     0
 40
0.0
  0
LTYPE
  2
PHANTOM2
 70
     0
  3
___ _ _ ___ _ _ ___ _ _ ___ _ _
 72
    65
 73
     6
 40
1.25
 49
0.625
 49
-0.125
 49
0.125
 49
-0.125
 49
0.125
 49
-0.125
  0
ENDTAB
  0
TABLE
  2
LAYER
 70
     2
  0
LAYER
  2
0
 70
     0
 62
   255
  6
CONTINUOUS
  0
LAYER
  2
DEFPOINTS
 70
     0
 62
     7
  6
CONTINUOUS
  0
ENDTAB
  0
TABLE
  2
STYLE
 70
     1
  0
STYLE
  2
STANDARD
 70
     0
 40
0.0
 41
0.8
 50
0.0
 71
     0
 42
0.2
  3
txt
  4

  0
ENDTAB
  0
TABLE
  2
VIEW
 70
     0
  0
ENDTAB
  0
TABLE
  2
UCS
 70
     0
  0
ENDTAB
  0
TABLE
  2
APPID
 70
     9
  0
APPID
  2
ACAD
 70
     0
  0
APPID
  2
ACAD_MLEADERVER
 70
     0
  0
APPID
  2
ACAD_EXEMPT_FROM_CAD_STANDARDS
 70
     0
  0
APPID
  2
ACAD_NAV_VCDISPLAY
 70
     0
  0
APPID
  2
ACAECLAYERSTANDARD
 70
     0
  0
APPID
  2
ACCMTRANSPARENCY
 70
     0
  0
APPID
  2
ACAD_DSTYLE_DIMJAG
 70
     0
  0
APPID
  2
ACAD_DSTYLE_DIMTALN
 70
     0
  0
APPID
  2
ACDBATTR
 70
     0
  0
ENDTAB
  0
TABLE
  2
DIMSTYLE
 70
     2
  0
DIMSTYLE
  2
STANDARD
 70
     0
  3

  4

  5

  6

  7

 40
1.0
 41
0.1875
 42
0.0625
 43
0.38
 44
0.125
 45
0.0
 46
0.0
 47
0.01
 48
0.01
140
0.15625
141
0.09
142
0.0
143
25.3999999999999986
144
1.0
145
0.0
146
1.0
147
0.09
 71
     1
 72
     0
 73
     1
 74
     1
 75
     0
 76
     0
 77
     0
 78
     4
170
     0
171
     2
172
     0
173
     0
174
     0
175
     0
176
     0
177
     0
178
     0
  0
ENDTAB
  0
ENDSEC
  0
SECTION
  2
BLOCKS
  0
BLOCK
  8
0
  2
$MODEL_SPACE
 70
     0
 10
0.0
 20
0.0
 30
0.0
  3
$MODEL_SPACE
  1

  0
ENDBLK
  5
21
  8
0
  0
BLOCK
 67
     1
  8
0
  2
$PAPER_SPACE
 70
     0
 10
0.0
 20
0.0
 30
0.0
  3
$PAPER_SPACE
  1

  0
ENDBLK
  5
1D
 67
     1
  8
0
  0
BLOCK
  8
0
  2
_FILLED
 70
     0
 10
0.0
 20
0.0
 30
0.0
  3
_FILLED
  1

  0
SOLID
  5
13611
  8
0
  6
BYBLOCK
 62
     0
 10
0.0
 20
0.0
 30
0.0
 11
-1.0
 21
0.1666666667
 31
0.0
 12
-1.0
 22
-0.1666666667
 32
0.0
 13
-1.0
 23
-0.1666666667
 33
0.0
  0
ENDBLK
  5
13612
  8
0
  6
BYBLOCK
 62
     0
  0
ENDSEC
  0
SECTION
  2
ENTITIES
  0
ATTDEF
  5
1332C
  8
DEFPOINTS
 10
3715.3651639912650353
 20
135.3609882307999044
 30
0.0
 40
0.001
  1
K-72433X-4
  3

  2
MODELNUMBER
 70
     0
1001
ACDBATTR
1070
     0
1070
     1
  0
ATTDEF
  5
1332D
  8
DEFPOINTS
 10
3715.3651639912650353
 20
135.3593215641332961
 30
0.0
 40
0.001
  1
JULY
  3

  2
TRADENAME
 70
     0
1001
ACDBATTR
1070
     0
1070
     1
  0
ATTDEF
  5
1332E
  8
DEFPOINTS
 10
3715.3651639912650353
 20
135.3576548974666025
 30
0.0
 40
0.001
  1
VALVE TRIM
  3

  2
PRODUCT
 70
     0
1001
ACDBATTR
1070
     0
1070
     1
  0
ARC
  5
1406E
  8
0
 10
3715.365555726151797
 20
135.3632262423166992
 30
0.0
 40
3.1988155996871601
 50
280.8411011771614767
 51
259.1593488026067007
  0
ARC
  5
1406F
  8
0
 10
3715.365555726151797
 20
135.3632262423166992
 30
0.0
 40
2.704044380172804
 50
283.4723534108806007
 51
256.5319515798710199
  0
ARC
  5
14070
  8
0
 10
3715.365555726151797
 20
135.3632262423166992
 30
0.0
 40
1.662447038384639
 50
294.7761600290750721
 51
245.2307545122930037
  0
ARC
  5
14071
  8
0
 10
3715.5807968087001427
 20
135.2584581276221911
 30
0.0
 40
1.1484064747505951
 50
162.4905674853397102
 51
174.7656784698075114
  0
ARC
  5
14072
  8
0
 10
3716.0242702522500622
 20
135.2034984398108861
 30
0.0
 40
1.595108383417287
 50
174.252996924874509
 51
186.7217332842099893
  0
ARC
  5
14073
  8
0
 10
3715.7043579439327914
 20
135.1685082159490889
 30
0.0
 40
1.2733023848372049
 50
186.8430118092315126
 51
196.3887849150868874
  0
ARC
  5
14074
  8
0
 10
3708.3703876442577894
 20
133.1129519889516928
 30
0.0
 40
6.3434115407751293
 50
7.3738493438515951
 51
15.5101822074612201
  0
ARC
  5
14075
  8
0
 10
3708.0954154409541843
 20
133.1998948430176029
 30
0.0
 40
6.6060688642557324
 50
1.9695107768682281
 51
6.319869290864534
  0
ARC
  5
14076
  8
0
 10
-1784.8885879770989504
 20
-169.8531619489299942
 30
0.0
 40
5507.9421613885151601
 50
3.1446499065859679
 51
3.156435085835422
  0
ARC
  5
14077
  8
0
 10
204153.5539338566013612
 20
11154.0855021311999735
 30
0.0
 40
200741.6001357668137643
 50
183.1474281160321027
 51
183.1475887265262941
  0
ARC
  5
14078
  8
0
 10
3715.3593173417998514
 20
131.7662554532124091
 30
0.0
 40
0.569496176848195
 50
183.262362199209889
 51
226.217866498752386
  0
ARC
  5
14079
  8
0
 10
3715.3661873340688544
 20
131.7760010744457873
 30
0.0
 40
0.581288488677945
 50
226.3936313695280091
 51
269.9377443802890184
  0
ARC
  5
1407A
  8
0
 10
3715.1504639595668777
 20
135.2584541821298956
 30
0.0
 40
1.1484064747505951
 50
5.2353721590479232
 51
17.5104831435147297
  0
ARC
  5
1407B
  8
0
 10
3714.7069915238830617
 20
135.2034863623852061
 30
0.0
 40
1.595108383417287
 50
353.2793173446484047
 51
5.748053703982638
  0
ARC
  5
1407C
  8
0
 10
3715.0269044737619879
 20
135.1685020047397074
 30
0.0
 40
1.2733023848372049
 50
343.6122657137748888
 51
353.1580388196254034
  0
ARC
  5
1407D
  8
0
 10
3722.3609124647991848
 20
133.1130802606080863
 30
0.0
 40
6.3434115407751266
 50
164.4908684213937136
 51
172.6272012850018882
  0
ARC
  5
1407E
  8
0
 10
3722.6358830737917742
 20
133.2000281568062974
 30
0.0
 40
6.6060688642557297
 50
173.6811813379935074
 51
178.0315398519877874
  0
ARC
  5
1407F
  8
0
 10
9215.6254426318791957
 20
-169.7523041058794888
 30
0.0
 40
5507.9421613885142506
 50
176.8446155430202111
 51
176.856400722271502
  0
ARC
  5
14080
  8
0
 10
-196723.0246908807894215
 20
11150.4100786976105155
 30
0.0
 40
200741.600135766697349
 50
356.8534619023293999
 51
356.8536225128236765
  0
ARC
  5
14081
  8
0
 10
3715.3720074627149188
 20
131.7662555695613946
 30
0.0
 40
0.5694961768481949
 50
313.7831841301043028
 51
356.7386884296467997
  0
ARC
  5
14082
  8
0
 10
3715.3651380708920442
 20
131.7759998519098019
 30
0.0
 40
0.5812870730430842
 50
270.0411670702591209
 51
313.6074461081769869
  0
ARC
  5
14083
  8
0
 10
3715.3659421979878061
 20
135.3322236505983085
 30
0.0
 40
0.9176310036626302
 50
90.0201264581901341
 51
117.2352301320008934
  0
ARC
  5
14084
  8
0
 10
3715.3812576541781709
 20
135.3100435737530063
 30
0.0
 40
0.9443674910469591
 50
117.4455720313401059
 51
149.3731369459104883
  0
ARC
  5
14085
  8
0
 10
3715.3573691782949027
 20
135.3292740465535928
 30
0.0
 40
0.9140249978722398
 50
149.6475748932118961
 51
162.5102363365475924
  0
ARC
  5
14086
  8
0
 10
3715.365297520079821
 20
135.3322236505983085
 30
0.0
 40
0.9176310036626302
 50
62.7647698679990569
 51
89.9798735418098943
  0
ARC
  5
14087
  8
0
 10
3715.3499820638899109
 20
135.3100435737530063
 30
0.0
 40
0.9443674910469591
 50
30.6268630540894513
 51
62.5544279686598585
  0
ARC
  5
14088
  8
0
 10
3715.3738705397740887
 20
135.3292740465535928
 30
0.0
 40
0.9140249978722398
 50
17.4897636634523508
 51
30.3524251067881501
  0
ARC
  5
1408A
  8
0
 10
3715.365555726151797
 20
135.3632262423166992
 30
0.0
 40
0.9527711139546592
 50
349.3849119178942146
 51
190.6668834434292989
  0
CIRCLE
  5
1408B
  8
0
 10
3715.365555819401834
 20
136.6278833122667038
 30
0.0
 40
0.1574803150000008
  0
CIRCLE
  5
1408C
  8
0
 10
3715.365555819401834
 20
136.6278833122667038
 30
0.0
 40
0.1837751837001141
  0
CIRCLE
  5
1408D
  8
0
 10
3714.6372091102020931
 20
135.1199324118666993
 30
0.0
 40
0.0590540744999997
  0
CIRCLE
  5
1408E
  8
0
 10
3716.0939023075020486
 20
135.1199328241667104
 30
0.0
 40
0.0590543217999997
  0
ENDSEC
  0
EOF
