  0
SECTION
  2
HEADER
  9
$ACADVER
  1
AC1009
  9
$INSBASE
 10
3710.6933953425491381
 20
144.5849583032048997
 30
0.0
  9
$EXTMIN
 10
3701.4285455420631479
 20
136.3387079707324858
 30
0.0
  9
$EXTMAX
 10
3712.7491547347090091
 20
147.7837739028921078
 30
0.0
  9
$LIMMIN
 10
0.0
 20
0.0
  9
$LIMMAX
 10
11.6929133858000007
 20
8.2677165353999982
  9
$ORTHOMODE
 70
     0
  9
$REGENMODE
 70
     1
  9
$FILLMODE
 70
     1
  9
$QTEXTMODE
 70
     0
  9
$MIRRTEXT
 70
     0
  9
$DRAGMODE
 70
     2
  9
$LTSCALE
 40
0.6431102362
  9
$OSMODE
 70
  4095
  9
$ATTMODE
 70
     1
  9
$TEXTSIZE
 40
0.2
  9
$TRACEWID
 40
0.05
  9
$TEXTSTYLE
  7
STANDARD
  9
$CLAYER
  8
0
  9
$CELTYPE
  6
BYLAYER
  9
$CECOLOR
 62
   256
  9
$DIMSCALE
 40
1.0
  9
$DIMASZ
 40
0.1875
  9
$DIMEXO
 40
0.0625
  9
$DIMDLI
 40
0.4443307087
  9
$DIMRND
 40
0.0
  9
$DIMDLE
 40
0.0
  9
$DIMEXE
 40
0.125
  9
$DIMTP
 40
0.01
  9
$DIMTM
 40
0.01
  9
$DIMTXT
 40
2.0
  9
$DIMCEN
 40
0.1052362205
  9
$DIMTSZ
 40
0.0
  9
$DIMTOL
 70
     1
  9
$DIMLIM
 70
     0
  9
$DIMTIH
 70
     1
  9
$DIMTOH
 70
     1
  9
$DIMSE1
 70
     0
  9
$DIMSE2
 70
     0
  9
$DIMTAD
 70
     0
  9
$DIMZIN
 70
     0
  9
$DIMBLK
  1

  9
$DIMASO
 70
     1
  9
$DIMSHO
 70
     1
  9
$DIMPOST
  1
\X
  9
$DIMAPOST
  1

  9
$DIMALT
 70
     1
  9
$DIMALTD
 70
     2
  9
$DIMALTF
 40
25.3999999999999986
  9
$DIMLFAC
 40
1.0
  9
$DIMTOFL
 70
     0
  9
$DIMTVP
 40
0.0
  9
$DIMTIX
 70
     0
  9
$DIMSOXD
 70
     0
  9
$DIMSAH
 70
     0
  9
$DIMBLK1
  1

  9
$DIMBLK2
  1

  9
$DIMSTYLE
  2
STANDARD
  9
$DIMCLRD
 70
     0
  9
$DIMCLRE
 70
     0
  9
$DIMCLRT
 70
     0
  9
$DIMTFAC
 40
1.0
  9
$DIMGAP
 40
0.09
  9
$LUNITS
 70
     2
  9
$LUPREC
 70
     4
  9
$SKETCHINC
 40
0.1
  9
$FILLETRAD
 40
0.0
  9
$AUNITS
 70
     0
  9
$AUPREC
 70
     0
  9
$MENU
  1
.
  9
$ELEVATION
 40
0.0
  9
$PELEVATION
 40
0.0
  9
$THICKNESS
 40
0.0
  9
$LIMCHECK
 70
     0
  9
$BLIPMODE
 70
     0
  9
$CHAMFERA
 40
0.0
  9
$CHAMFERB
 40
0.0
  9
$SKPOLY
 70
     0
  9
$TDCREATE
 40
2458060.468368056230247
  9
$TDUPDATE
 40
2459908.8272106479853392
  9
$TDINDWG
 40
0.4394283565
  9
$TDUSRTIMER
 40
0.4394283565
  9
$USRTIMER
 70
     1
  9
$ANGBASE
 50
0.0
  9
$ANGDIR
 70
     0
  9
$PDMODE
 70
     0
  9
$PDSIZE
 40
0.3125
  9
$PLINEWID
 40
0.0
  9
$COORDS
 70
     1
  9
$SPLFRAME
 70
     0
  9
$SPLINETYPE
 70
     6
  9
$SPLINESEGS
 70
     8
  9
$ATTDIA
 70
     1
  9
$ATTREQ
 70
     1
  9
$HANDLING
 70
     1
  9
$HANDSEED
  5
1477A
  9
$SURFTAB1
 70
     6
  9
$SURFTAB2
 70
     6
  9
$SURFTYPE
 70
     6
  9
$SURFU
 70
     6
  9
$SURFV
 70
     6
  9
$UCSNAME
  2

  9
$UCSORG
 10
0.0
 20
0.0
 30
0.0
  9
$UCSXDIR
 10
1.0
 20
0.0
 30
0.0
  9
$UCSYDIR
 10
0.0
 20
1.0
 30
0.0
  9
$PUCSNAME
  2

  9
$PUCSORG
 10
0.0
 20
0.0
 30
0.0
  9
$PUCSXDIR
 10
1.0
 20
0.0
 30
0.0
  9
$PUCSYDIR
 10
0.0
 20
1.0
 30
0.0
  9
$USERI1
 70
     0
  9
$USERI2
 70
     0
  9
$USERI3
 70
     0
  9
$USERI4
 70
     0
  9
$USERI5
 70
     0
  9
$USERR1
 40
0.0
  9
$USERR2
 40
0.0
  9
$USERR3
 40
0.0
  9
$USERR4
 40
0.0
  9
$USERR5
 40
0.0
  9
$WORLDVIEW
 70
     1
  9
$SHADEDGE
 70
     3
  9
$SHADEDIF
 70
    70
  9
$TILEMODE
 70
     1
  9
$MAXACTVP
 70
    64
  9
$PLIMCHECK
 70
     0
  9
$PEXTMIN
 10
1.0000000000000000E+20
 20
1.0000000000000000E+20
 30
1.0000000000000000E+20
  9
$PEXTMAX
 10
-1.0000000000000000E+20
 20
-1.0000000000000000E+20
 30
-1.0000000000000000E+20
  9
$PLIMMIN
 10
0.0
 20
0.0
  9
$PLIMMAX
 10
12.0
 20
9.0
  9
$UNITMODE
 70
     0
  9
$VISRETAIN
 70
     1
  9
$PLINEGEN
 70
     0
  9
$PSLTSCALE
 70
     1
  0
ENDSEC
  0
SECTION
  2
TABLES
  0
TABLE
  2
VPORT
 70
     1
  0
VPORT
  2
*ACTIVE
 70
     0
 10
0.0
 20
0.0
 11
1.0
 21
1.0
 12
-92.1149729220337008
 22
17.2629774979129209
 13
0.0
 23
0.0
 14
1.0
 24
1.0
 15
0.0
 25
0.0
 16
0.0
 26
0.0
 36
17.1152628219792007
 17
3803.5440673828129547
 27
125.9952621967499056
 37
0.0
 40
12.5986580151917806
 41
2.8398203592814371
 42
50.0
 43
0.0
 44
0.0
 50
0.0
 51
0.0
 71
     0
 72
   100
 73
     1
 74
     1
 75
     0
 76
     0
 77
     0
 78
     0
  0
ENDTAB
  0
TABLE
  2
LTYPE
 70
     3
  0
LTYPE
  2
CONTINUOUS
 70
     0
  3
Solid line
 72
    65
 73
     0
 40
0.0
  0
LTYPE
  2
PHANTOM2
 70
     0
  3
___ _ _ ___ _ _ ___ _ _ ___ _ _
 72
    65
 73
     6
 40
1.25
 49
0.625
 49
-0.125
 49
0.125
 49
-0.125
 49
0.125
 49
-0.125
  0
ENDTAB
  0
TABLE
  2
LAYER
 70
     2
  0
LAYER
  2
0
 70
     0
 62
   255
  6
CONTINUOUS
  0
LAYER
  2
DEFPOINTS
 70
     0
 62
     7
  6
CONTINUOUS
  0
ENDTAB
  0
TABLE
  2
STYLE
 70
     1
  0
STYLE
  2
STANDARD
 70
     0
 40
0.0
 41
0.8
 50
0.0
 71
     0
 42
0.2
  3
txt
  4

  0
ENDTAB
  0
TABLE
  2
VIEW
 70
     0
  0
ENDTAB
  0
TABLE
  2
UCS
 70
     0
  0
ENDTAB
  0
TABLE
  2
APPID
 70
     9
  0
APPID
  2
ACAD
 70
     0
  0
APPID
  2
ACAD_MLEADERVER
 70
     0
  0
APPID
  2
ACAD_EXEMPT_FROM_CAD_STANDARDS
 70
     0
  0
APPID
  2
ACAD_NAV_VCDISPLAY
 70
     0
  0
APPID
  2
ACAECLAYERSTANDARD
 70
     0
  0
APPID
  2
ACCMTRANSPARENCY
 70
     0
  0
APPID
  2
ACAD_DSTYLE_DIMJAG
 70
     0
  0
APPID
  2
ACAD_DSTYLE_DIMTALN
 70
     0
  0
APPID
  2
ACDBATTR
 70
     0
  0
ENDTAB
  0
TABLE
  2
DIMSTYLE
 70
     2
  0
DIMSTYLE
  2
STANDARD
 70
     0
  3

  4

  5

  6

  7

 40
1.0
 41
0.1875
 42
0.0625
 43
0.38
 44
0.125
 45
0.0
 46
0.0
 47
0.01
 48
0.01
140
0.15625
141
0.09
142
0.0
143
25.3999999999999986
144
1.0
145
0.0
146
1.0
147
0.09
 71
     1
 72
     0
 73
     1
 74
     1
 75
     0
 76
     0
 77
     0
 78
     4
170
     0
171
     2
172
     0
173
     0
174
     0
175
     0
176
     0
177
     0
178
     0
  0
ENDTAB
  0
ENDSEC
  0
SECTION
  2
BLOCKS
  0
BLOCK
  8
0
  2
$MODEL_SPACE
 70
     0
 10
0.0
 20
0.0
 30
0.0
  3
$MODEL_SPACE
  1

  0
ENDBLK
  5
21
  8
0
  0
BLOCK
 67
     1
  8
0
  2
$PAPER_SPACE
 70
     0
 10
0.0
 20
0.0
 30
0.0
  3
$PAPER_SPACE
  1

  0
ENDBLK
  5
1D
 67
     1
  8
0
  0
BLOCK
  8
0
  2
_FILLED
 70
     0
 10
0.0
 20
0.0
 30
0.0
  3
_FILLED
  1

  0
SOLID
  5
134C8
  8
0
  6
BYBLOCK
 62
     0
 10
0.0
 20
0.0
 30
0.0
 11
-1.0
 21
0.1666666667
 31
0.0
 12
-1.0
 22
-0.1666666667
 32
0.0
 13
-1.0
 23
-0.1666666667
 33
0.0
  0
ENDBLK
  5
134C9
  8
0
  6
BYBLOCK
 62
     0
  0
BLOCK
  8
0
  2
A$C8F6992D8
 70
     0
 10
0.0
 20
0.0
 30
0.0
  3
A$C8F6992D8
  1

  0
LINE
  5
13EF0
  8
0
 10
41.4894420408562326
 20
13.9993061363933098
 30
0.0
 11
41.4894420408562183
 21
20.3969439384455917
 31
0.0
  0
LINE
  5
13EF1
  8
0
 10
38.1226420408562277
 20
15.5328140920330995
 30
0.0
 11
38.1226420408562277
 21
17.1981283387830892
 31
0.0
  0
LINE
  5
13EF2
  8
0
 10
40.4894420408567512
 20
19.8066611749479407
 30
0.0
 11
40.4894420408557068
 21
14.5895706400479401
 31
0.0
  0
ARC
  5
13EF3
  8
0
 10
42.4436417984922869
 20
17.3952189051014408
 30
0.0
 40
3.14973814042972
 50
107.6346174210143971
 51
127.2577045421102042
  0
ARC
  5
13EF4
  8
0
 10
40.6094187504246307
 20
19.8066666315428108
 30
0.0
 40
0.119976709691977
 50
127.2562732193477046
 51
180.0026058378930998
  0
LINE
  5
13EF5
  8
0
 10
40.5367871134562208
 20
19.9021603809707202
 30
0.0
 11
40.5367871134562208
 21
14.4940716206251103
 31
0.0
  0
LINE
  5
13EF6
  8
0
 10
40.4794420408562274
 20
18.1508994527377503
 30
0.0
 11
40.4794420408562274
 21
19.4618954350479108
 31
0.0
  0
LINE
  5
13EF7
  8
0
 10
40.4794420408562274
 20
19.4618954350479108
 30
0.0
 11
40.4894420408566802
 21
19.4618954350479108
 31
0.0
  0
LINE
  5
13EF8
  8
0
 10
40.1626703873562221
 20
18.1508994527377503
 30
0.0
 11
40.1626703873562221
 21
16.2453593609946907
 31
0.0
  0
LINE
  5
13EF9
  8
0
 10
40.1233003086562192
 20
18.1115017342479092
 30
0.0
 11
40.1233003086562192
 21
16.2847300807479201
 31
0.0
  0
LINE
  5
13EFA
  8
0
 10
40.1626703873562221
 20
18.1508994527377503
 30
0.0
 11
40.1233003086562192
 21
18.1115017342479092
 31
0.0
  0
LINE
  5
13EFB
  8
0
 10
40.1233003086562192
 20
18.0642576398479093
 30
0.0
 11
39.644256671856219
 21
18.0642576398479093
 31
0.0
  0
ARC
  5
13EFC
  8
0
 10
39.6438538601580888
 20
17.2065311738794797
 30
0.0
 40
0.8577265605540949
 50
89.9730923441677248
 51
120.2524298253341044
  0
ARC
  5
13EFD
  8
0
 10
40.6094665833348003
 20
14.5895552646265099
 30
0.0
 40
0.119976709691977
 50
179.9984447909627931
 51
232.7447774095084867
  0
LINE
  5
13EFE
  8
0
 10
40.4794595113908073
 20
16.2453585619045704
 30
0.0
 11
40.4794835517419997
 21
14.9343240776892596
 31
0.0
  0
LINE
  5
13EFF
  8
0
 10
40.4794835517419997
 20
14.9343240776892596
 30
0.0
 11
40.4894835517407685
 21
14.93432426105859
 31
0.0
  0
LINE
  5
13F00
  8
0
 10
40.1626703873562221
 20
16.2453593609946907
 30
0.0
 11
40.1233170575233729
 21
16.2847112477152294
 31
0.0
  0
LINE
  5
13F01
  8
0
 10
40.1233161912116003
 20
16.3319553421072889
 30
0.0
 11
39.6442566717562315
 21
16.3319465577707206
 31
0.0
  0
ARC
  5
13F02
  8
0
 10
39.6442566721094494
 20
17.1980882900709418
 30
0.0
 40
0.8661417323002291
 50
264.1763007139400088
 51
269.9999999766340011
  0
LINE
  5
13F03
  8
0
 10
39.1080147481531526
 20
18.0847566963330912
 30
0.0
 11
38.2165413202899131
 21
18.0847566963330912
 31
0.0
  0
ARC
  5
13F04
  8
0
 10
38.2166298810019001
 20
18.0453848633126199
 30
0.0
 40
0.0393726052172434
 50
90.0040170541264359
 51
171.5236134292674137
  0
ARC
  5
13F05
  8
0
 10
45.5717413952799575
 20
17.1457671558586107
 30
0.0
 40
7.4492833806718171
 50
173.0187370151550965
 51
179.5972633415429982
  0
ARC
  5
13F06
  8
0
 10
233.7766773414458896
 20
15.7772978765969505
 30
0.0
 40
195.6541880505635902
 50
180.0715951587841062
 51
180.6466266619403882
  0
ARC
  5
13F07
  8
0
 10
40.9457477318186278
 20
13.5333138657662797
 30
0.0
 40
2.8110280410233419
 50
179.2677624486258878
 51
189.646548376701503
  0
ARC
  5
13F08
  8
0
 10
38.2133451937983679
 20
13.0687515330303903
 30
0.0
 40
0.0394146721433679
 50
189.4640380795468104
 51
299.4105289916772108
  0
ARC
  5
13F09
  8
0
 10
39.1107055903243719
 20
18.0273661060747905
 30
0.0
 40
0.0574559928014395
 50
24.6559089148576582
 51
92.7319046543516947
  0
LINE
  5
13F0A
  8
0
 10
39.1629232899062316
 20
18.0513348974330903
 30
0.0
 11
39.4632558960562321
 21
17.411058904333089
 31
0.0
  0
ARC
  5
13F0B
  8
0
 10
38.5720991415185424
 20
16.9931700745422809
 30
0.0
 40
0.9842720331402697
 50
0.0001312531703553
 51
25.1232207813999509
  0
LINE
  5
13F0C
  8
0
 10
39.5563711746562277
 20
16.9931723293126318
 30
0.0
 11
39.5563711746562277
 21
16.009719499078809
 31
0.0
  0
ARC
  5
13F0D
  8
0
 10
39.5106132496405635
 20
16.0079098230877683
 30
0.0
 40
0.0457936963886141
 50
327.9388275198646738
 51
2.264805229153485
  0
LINE
  5
13F0E
  8
0
 10
38.7965286550562283
 20
15.9703700599330904
 30
0.0
 11
39.5169988980642515
 21
15.9703700599330904
 31
0.0
  0
ARC
  5
13F0F
  8
0
 10
39.5217339835589314
 20
16.0051097360007013
 30
0.0
 40
0.0350608917160431
 50
262.2383040119128736
 51
322.1601644121088839
  0
ARC
  5
13F10
  8
0
 10
38.785892565775292
 20
14.8329083832827209
 30
0.0
 40
1.1375114031267799
 50
89.4642586396500832
 51
94.4174587330683011
  0
ARC
  5
13F11
  8
0
 10
38.7113076360092165
 20
15.6163283931786001
 30
0.0
 40
0.3509541676260839
 50
92.1276362788427576
 51
121.2505943048679029
  0
ARC
  5
13F12
  8
0
 10
38.7418622150732475
 20
15.6321624354262507
 30
0.0
 40
0.3549334088232989
 50
126.8019838442961031
 51
167.191718209206698
  0
ARC
  5
13F13
  8
0
 10
39.1370961791351277
 20
15.5501783284060302
 30
0.0
 40
0.7585467339574699
 50
167.7714543993409109
 51
179.8375964356604868
  0
ARC
  5
13F14
  8
0
 10
35.9398913763631427
 20
15.5059882015942598
 30
0.0
 40
2.4391013618655379
 50
357.5043599461741906
 51
1.0886214439271851
  0
ARC
  5
13F15
  8
0
 10
46.3344117603881429
 20
14.8707704449709297
 30
0.0
 40
7.9752967308767797
 50
176.1967091942470063
 51
178.6356177367188991
  0
ARC
  5
13F16
  8
0
 10
311.6883217760226898
 20
13.54188404993379
 30
0.0
 40
273.3311652761217942
 50
179.6816303232575933
 51
179.814797616411397
  0
ARC
  5
13F17
  8
0
 10
52.5671661952031002
 20
14.1313036842748492
 30
0.0
 40
14.21162502973106
 50
178.8142495605829936
 51
181.2525809229495053
  0
ARC
  5
13F18
  8
0
 10
41.579358692707757
 20
13.9842131760097299
 30
0.0
 40
3.2245730988563581
 50
182.9077186425514014
 51
185.7110565357708083
  0
ARC
  5
13F19
  8
0
 10
35.669015264102768
 20
13.4016370602410007
 30
0.0
 40
2.7144200383641008
 50
3.8088940562627869
 51
5.5323927599975322
  0
ARC
  5
13F1A
  8
0
 10
37.1089767063714291
 20
13.5242620119238595
 30
0.0
 40
1.269774130682735
 50
1.0428228850752279
 51
2.6040623166295851
  0
ARC
  5
13F1B
  8
0
 10
33.5288888361364883
 20
13.5283999616389092
 30
0.0
 40
4.8496887983411616
 50
358.6353299138090165
 51
0.2241364712660759
  0
ARC
  5
13F1C
  8
0
 10
36.7990819737230126
 20
13.4489215047452397
 30
0.0
 40
1.5785311482040001
 50
354.1233445880818067
 51
358.6924562699629178
  0
ARC
  5
13F1D
  8
0
 10
37.9961994124193581
 20
13.3122759184884494
 30
0.0
 40
0.3739529093432235
 50
328.4580518275382133
 51
356.1704320475143959
  0
ARC
  5
13F1E
  8
0
 10
38.0832563083301423
 20
13.26600383007613
 30
0.0
 40
0.2756196844301089
 50
302.8342737528291764
 51
327.1886946609993743
  0
ARC
  5
13F1F
  8
0
 10
255.4882654361854861
 20
17.3993561290107301
 30
0.0
 40
217.3115556786825096
 50
179.8281393864689051
 51
180.0530551848125924
  0
ARC
  5
13F20
  8
0
 10
-71.7063635923640135
 20
16.9064195649693012
 30
0.0
 40
109.8837670886121032
 50
359.8726044816907006
 51
0.1521034604184916
  0
LINE
  5
13F21
  8
0
 10
38.1771318733363572
 20
16.6620963696750408
 30
0.0
 11
38.1771310108601227
 21
15.5328140532701404
 31
0.0
  0
LINE
  5
13F22
  8
0
 10
38.1778344479562293
 20
15.5328138565330907
 30
0.0
 11
38.1776663788356529
 21
13.5692377477313304
 31
0.0
  0
ARC
  5
13F23
  8
0
 10
-10.0959979581791401
 20
13.60079329528123
 30
0.0
 40
48.2736746505934207
 50
359.3595451124782016
 51
359.9625469908085051
  0
ARC
  5
13F24
  8
0
 10
38.1494454012484496
 20
17.0132076136000805
 30
0.0
 40
0.0006828199660077
 50
91.2443727321178244
 51
132.9735569372838029
  0
ARC
  5
13F25
  8
0
 10
38.1515969120558225
 20
17.0111368282591897
 30
0.0
 40
0.0036681550312353
 50
135.5144605046343997
 51
161.9074415445736008
  0
ARC
  5
13F26
  8
0
 10
38.1833125450042914
 20
17.0005962623773001
 30
0.0
 40
0.0370894363307777
 50
161.6448017217659867
 51
172.7753931227400983
  0
ARC
  5
13F27
  8
0
 10
38.429936204070593
 20
16.9698724322711882
 30
0.0
 40
0.2856194058233443
 50
172.8827780381251955
 51
178.4963870738332048
  0
ARC
  5
13F28
  8
0
 10
38.7614516929008275
 20
16.9575901392025088
 30
0.0
 40
0.6173534068756585
 50
178.1642132652725934
 51
181.1004905949463932
  0
ARC
  5
13F29
  8
0
 10
38.5707962961927819
 20
16.95159118726
 30
0.0
 40
0.4266243572259005
 50
180.7867477789037025
 51
185.2174467066425905
  0
ARC
  5
13F2A
  8
0
 10
38.2363984712947413
 20
16.9201934715037297
 30
0.0
 40
0.090760911359082
 50
184.6752394102271921
 51
193.7270141041678926
  0
ARC
  5
13F2B
  8
0
 10
38.1494125396087114
 20
17.0132146498772485
 30
0.0
 40
0.0006758632730773
 50
57.3791601685914827
 51
88.4710810805141818
  0
ARC
  5
13F2C
  8
0
 10
38.1486262896137731
 20
17.0121740597719509
 30
0.0
 40
0.0019787492066762
 50
28.8286921348665715
 51
54.4457056108364696
  0
ARC
  5
13F2D
  8
0
 10
38.1329514587403722
 20
17.0047221255846885
 30
0.0
 40
0.0193316451464568
 50
9.1093841785611662
 51
25.7747826014076793
  0
ARC
  5
13F2E
  8
0
 10
37.9474336972235307
 20
16.9726859017452192
 30
0.0
 40
0.2075939180248199
 50
2.578943152080563
 51
9.7334438556610632
  0
ARC
  5
13F2F
  8
0
 10
37.6126758804548231
 20
16.9520548552344401
 30
0.0
 40
0.5429693342185932
 50
357.1297335347811099
 51
3.1643358691534562
  0
ARC
  5
13F30
  8
0
 10
37.9443029365212681
 20
16.9344481666507392
 30
0.0
 40
0.2108789330327068
 50
351.8000522580853726
 51
357.3955906166116279
  0
ARC
  5
13F31
  8
0
 10
38.123371320233872
 20
16.9078388588876685
 30
0.0
 40
0.0298566886688579
 50
338.7099521981236876
 51
353.3298763635391992
  0
ARC
  5
13F32
  8
0
 10
38.1579628916297509
 20
16.9013718316612085
 30
0.0
 40
0.0101046950838027
 50
195.5895559618165862
 51
208.290021823283098
  0
ARC
  5
13F33
  8
0
 10
38.1507203830733701
 20
16.8974390262449816
 30
0.0
 40
0.0018635899672313
 50
207.3494091527724947
 51
239.5504398786409013
  0
ARC
  5
13F34
  8
0
 10
38.150020165640889
 20
16.8963813798713289
 30
0.0
 40
0.0006007835399768
 50
246.0155993924489053
 51
299.0473627054713006
  0
ARC
  5
13F35
  8
0
 10
38.1487539098271284
 20
16.8979636153937491
 30
0.0
 40
0.0026207973335073
 50
306.4740520202831817
 51
338.385336903616178
  0
LINE
  5
13F36
  8
0
 10
38.1494305726562075
 20
17.0138902725330894
 30
0.0
 11
38.1584891306562284
 21
17.0138902725330894
 31
0.0
  0
ARC
  5
13F37
  8
0
 10
38.1582265186139722
 20
17.0126540740049812
 30
0.0
 40
0.0012637847465642
 50
28.4921435725275884
 51
78.0066548374873321
  0
ARC
  5
13F38
  8
0
 10
38.1530153530122291
 20
17.0093495020842695
 30
0.0
 40
0.0074319814028945
 50
18.4129930376572801
 51
31.7194840275862298
  0
ARC
  5
13F39
  8
0
 10
38.0931619686978209
 20
16.9925670332584886
 30
0.0
 40
0.0695860524368918
 50
5.4773018961981004
 51
15.9567056836270709
  0
ARC
  5
13F3A
  8
0
 10
37.8917005165613219
 20
16.9678780495719188
 30
0.0
 40
0.2725366952783263
 50
3.563881642406705
 51
6.601371284355432
  0
ARC
  5
13F3B
  8
0
 10
37.6798572416163466
 20
16.9540843010024389
 30
0.0
 40
0.4848280969212092
 50
0.9909298365670668
 51
3.634623370645619
  0
ARC
  5
13F3C
  8
0
 10
37.6013285517739106
 20
16.9518322555057495
 30
0.0
 40
0.5633846983168054
 50
358.4434385958591065
 51
1.0818106928234721
  0
ARC
  5
13F3D
  8
0
 10
37.7958107213174372
 20
16.9458436244553212
 30
0.0
 40
0.3688122905795681
 50
354.887215369591388
 51
358.5527367222247221
  0
ARC
  5
13F3E
  8
0
 10
38.0848447310121827
 20
16.9185163595014991
 30
0.0
 40
0.0785065688538935
 50
344.5936354013530263
 51
355.9534168894106188
  0
LINE
  5
13F3F
  8
0
 10
38.1500184318562319
 20
16.8957805988330882
 30
0.0
 11
38.1590779636562303
 21
16.8957805988330882
 31
0.0
  0
ARC
  5
13F40
  8
0
 10
38.1590456880731779
 20
16.896524845442169
 30
0.0
 40
0.000744946124486
 50
272.4831778735874082
 51
311.5022854354651258
  0
ARC
  5
13F41
  8
0
 10
38.1562883245314097
 20
16.8990061347235994
 30
0.0
 40
0.0044503661059493
 50
316.9285080548654037
 51
342.3942501668278169
  0
LINE
  5
13F42
  8
0
 10
41.4894420408562183
 20
17.1981283387830892
 30
0.0
 11
44.2521048969759931
 21
20.1078909868144784
 31
0.0
  0
ARC
  5
13F43
  8
0
 10
42.4436392962552986
 20
17.0010319651569084
 30
0.0
 40
3.14973814042972
 50
232.7415680486105032
 51
252.3654303407222983
  0
LINE
  5
13F44
  8
0
 10
40.1626703873562221
 20
18.1508994527377503
 30
0.0
 11
40.4894420408564173
 21
18.1508994527377503
 31
0.0
  0
LINE
  5
13F45
  8
0
 10
40.1626703873562221
 20
16.2453593609916709
 30
0.0
 11
40.4894420408560265
 21
16.2453585367240692
 31
0.0
  0
ENDBLK
  5
13F49
  8
0
  0
ENDSEC
  0
SECTION
  2
ENTITIES
  0
ATTDEF
  5
12FEB
  8
DEFPOINTS
 10
3710.694578420965172
 20
144.5822541668756003
 30
0.0
 40
0.001
  1
K-72433X-4
  3

  2
MODELNUMBER
 70
     0
1001
ACDBATTR
1070
     0
1070
     1
  0
ATTDEF
  5
12FEC
  8
DEFPOINTS
 10
3710.694578420965172
 20
144.5805875002089067
 30
0.0
 40
0.001
  1
JULY
  3

  2
TRADENAME
 70
     0
1001
ACDBATTR
1070
     0
1070
     1
  0
ATTDEF
  5
12FED
  8
DEFPOINTS
 10
3710.694578420965172
 20
144.5789208335422131
 30
0.0
 40
0.001
  1
VALVE TRIM
  3

  2
PRODUCT
 70
     0
1001
ACDBATTR
1070
     0
1070
     1
  0
LINE
  5
1465C
  8
0
 10
3707.3265953425498083
 20
142.9196440564548141
 30
0.0
 11
3707.3265953425498083
 21
144.5849583032048997
 31
0.0
  0
LINE
  5
1465D
  8
0
 10
3709.6933953425500476
 20
147.1934911393697121
 30
0.0
 11
3709.6933953425491381
 21
141.9764006044696885
 31
0.0
  0
ARC
  5
1465E
  8
0
 10
3711.6475951006168543
 20
144.7820488688419118
 30
0.0
 40
3.1497381412331822
 50
107.6346174246026948
 51
127.2577045408627043
  0
ARC
  5
1465F
  8
0
 10
3709.8133720521182113
 20
147.1934965959644899
 30
0.0
 40
0.119976709691977
 50
127.2562732193397039
 51
180.0026058378930998
  0
LINE
  5
14660
  8
0
 10
3709.7407404151499577
 20
147.2889903453925058
 30
0.0
 11
3709.7407404151499577
 21
141.8809015850467858
 31
0.0
  0
LINE
  5
14661
  8
0
 10
3709.6833953425498294
 20
145.5377294171595111
 30
0.0
 11
3709.6833953425498294
 21
146.8487253994697141
 31
0.0
  0
LINE
  5
14662
  8
0
 10
3709.6833953425498294
 20
146.8487253994697141
 30
0.0
 11
3709.6933953425500476
 21
146.8487253994697141
 31
0.0
  0
LINE
  5
14663
  8
0
 10
3709.3666236890489927
 20
145.5377294171595111
 30
0.0
 11
3709.3666236890489927
 21
143.6321893254165047
 31
0.0
  0
LINE
  5
14664
  8
0
 10
3709.3272536103499988
 20
145.4983316986696025
 30
0.0
 11
3709.3272536103499988
 21
143.6715600451695991
 31
0.0
  0
LINE
  5
14665
  8
0
 10
3709.3666236890489927
 20
145.5377294171595111
 30
0.0
 11
3709.3272536103499988
 21
145.4983316986696025
 31
0.0
  0
LINE
  5
14666
  8
0
 10
3709.3272536103499988
 20
145.4510876042697021
 30
0.0
 11
3708.8482099735488191
 21
145.4510876042697021
 31
0.0
  0
ARC
  5
14667
  8
0
 10
3708.8478071618510512
 20
144.5933611383011907
 30
0.0
 40
0.8577265605540949
 50
89.9730923441801451
 51
120.2524298253368045
  0
ARC
  5
14668
  8
0
 10
3709.8136021032028111
 20
141.976535749221199
 30
0.0
 40
0.1202068366241557
 50
180.0644158496693876
 51
232.7190786616507978
  0
LINE
  5
14669
  8
0
 10
3709.6834128130849422
 20
143.6321885263263027
 30
0.0
 11
3709.6834368534350688
 21
142.3211540421110044
 31
0.0
  0
LINE
  5
1466A
  8
0
 10
3709.6834368534350688
 20
142.3211540421110044
 30
0.0
 11
3709.6934368534339228
 21
142.3211542254803135
 31
0.0
  0
LINE
  5
1466B
  8
0
 10
3709.3666236890489927
 20
143.6321893254165047
 30
0.0
 11
3709.3272703592160724
 21
143.6715412121369866
 31
0.0
  0
LINE
  5
1466C
  8
0
 10
3709.3272694929050886
 20
143.7187853065290994
 30
0.0
 11
3708.8482099734487747
 21
143.7187765221925133
 31
0.0
  0
ARC
  5
1466D
  8
0
 10
3708.8482099738021134
 20
144.5849182544926919
 30
0.0
 40
0.8661417323002291
 50
264.1763007139400088
 51
269.9999999766284873
  0
LINE
  5
1466E
  8
0
 10
3708.3119680498471098
 20
145.4715866607548094
 30
0.0
 11
3707.4204946219829253
 21
145.4715866607548094
 31
0.0
  0
ARC
  5
1466F
  8
0
 10
3707.420583182694827
 20
145.4322148277344127
 30
0.0
 40
0.0393726052172434
 50
90.0040170541227837
 51
171.5236134292694885
  0
ARC
  5
14670
  8
0
 10
3714.7756946969730052
 20
144.5325971202803998
 30
0.0
 40
7.4492833806718171
 50
173.0187370151535902
 51
179.5972633415431972
  0
ARC
  5
14671
  8
0
 10
3902.9806306431391931
 20
143.1641278410187113
 30
0.0
 40
195.6541880505635902
 50
180.0715951587843051
 51
180.6466266619403882
  0
ARC
  5
14672
  8
0
 10
3710.1497010335119739
 20
140.9201438301880103
 30
0.0
 40
2.8110280410233419
 50
179.2677624486258878
 51
189.6465483767009914
  0
ARC
  5
14673
  8
0
 10
3707.4172984954921048
 20
140.4555814974521013
 30
0.0
 40
0.0394146721433679
 50
189.4640380795482031
 51
299.4105289916748802
  0
ARC
  5
14674
  8
0
 10
3708.3146588920180875
 20
145.4141960704965015
 30
0.0
 40
0.0574559928014395
 50
24.6559089148546207
 51
92.7319046543555885
  0
LINE
  5
14675
  8
0
 10
3708.3668765915999757
 20
145.4381648618548013
 30
0.0
 11
3708.6672091977497985
 21
144.7978888687547965
 31
0.0
  0
ARC
  5
14676
  8
0
 10
3707.7760524432110287
 20
144.380000038963999
 30
0.0
 40
0.9842720331402697
 50
0.0001312531699482
 51
25.1232207813947603
  0
LINE
  5
14677
  8
0
 10
3708.7603244763499788
 20
144.3800022937344067
 30
0.0
 11
3708.7603244763499788
 21
143.3965494635004916
 31
0.0
  0
ARC
  5
14678
  8
0
 10
3708.7145665513330641
 20
143.3947397875095078
 30
0.0
 40
0.0457936963886141
 50
327.9388275198693918
 51
2.2648052291537639
  0
LINE
  5
14679
  8
0
 10
3708.0004819567488994
 20
143.3572000243549098
 30
0.0
 11
3708.7209521997569937
 21
143.3572000243549098
 31
0.0
  0
ARC
  5
1467A
  8
0
 10
3708.7256872852522065
 20
143.3919397004223981
 30
0.0
 40
0.0350608917160431
 50
262.2383040119183875
 51
322.1601644121080881
  0
ARC
  5
1467B
  8
0
 10
3707.9898458674679205
 20
142.2197383477044923
 30
0.0
 40
1.1375114031267799
 50
89.4642586396417414
 51
94.4174587330675195
  0
ARC
  5
1467C
  8
0
 10
3707.9152609377028966
 20
143.0031583576003982
 30
0.0
 40
0.3509541676260839
 50
92.1276362788466514
 51
121.2505943048596038
  0
ARC
  5
1467D
  8
0
 10
3707.9458155167671976
 20
143.0189923998480026
 30
0.0
 40
0.3549334088232989
 50
126.8019838442969984
 51
167.1917182092078065
  0
ARC
  5
1467E
  8
0
 10
3708.3410494808290423
 20
142.9370082928278123
 30
0.0
 40
0.7585467339574699
 50
167.7714543993413088
 51
179.8375964356607994
  0
ARC
  5
1467F
  8
0
 10
3705.1438446780571212
 20
142.8928181660160135
 30
0.0
 40
2.4391013618655379
 50
357.5043599461745885
 51
1.0886214439274551
  0
ARC
  5
14680
  8
0
 10
3715.538365062081084
 20
142.257600409392694
 30
0.0
 40
7.9752967308767797
 50
176.1967091942466936
 51
178.6356177367196096
  0
ARC
  5
14681
  8
0
 10
3980.8922750777160218
 20
140.9287140143555064
 30
0.0
 40
273.3311652761217942
 50
179.6816303232573944
 51
179.8147976164109991
  0
ARC
  5
14682
  8
0
 10
3721.7711194968960626
 20
141.5181336486965904
 30
0.0
 40
14.21162502973106
 50
178.8142495605833062
 51
181.2525809229491927
  0
ARC
  5
14683
  8
0
 10
3710.7833119944011742
 20
141.3710431404315102
 30
0.0
 40
3.2245730988563581
 50
182.9077186425512025
 51
185.7110565357708936
  0
ARC
  5
14684
  8
0
 10
3704.8729685657958726
 20
140.7884670246627081
 30
0.0
 40
2.7144200383641008
 50
3.8088940562639908
 51
5.5323927599971423
  0
ARC
  5
14685
  8
0
 10
3706.3129300080649955
 20
140.9110919763456025
 30
0.0
 40
1.269774130682735
 50
1.0428228850751959
 51
2.604062316629344
  0
ARC
  5
14686
  8
0
 10
3702.7328421378301755
 20
140.9152299260605901
 30
0.0
 40
4.8496887983411616
 50
358.6353299138087891
 51
0.2241364712664187
  0
ARC
  5
14687
  8
0
 10
3706.0030352754160958
 20
140.8357514691670076
 30
0.0
 40
1.5785311482040001
 50
354.1233445880819204
 51
358.6924562699629746
  0
ARC
  5
14688
  8
0
 10
3707.2001527141128463
 20
140.699105882910203
 30
0.0
 40
0.3739529093432235
 50
328.4580518275315058
 51
356.1704320475137138
  0
ARC
  5
14689
  8
0
 10
3707.2872096100240924
 20
140.6528337944978944
 30
0.0
 40
0.2756196844301089
 50
302.8342737528284943
 51
327.188694661005286
  0
ARC
  5
1468A
  8
0
 10
3924.6922187378791023
 20
144.7861860934324909
 30
0.0
 40
217.3115556786825096
 50
179.8281393864687061
 51
180.0530551848127914
  0
ARC
  5
1468B
  8
0
 10
3624.5374496253589314
 20
144.2661034778485885
 30
0.0
 40
82.843920217469261
 50
359.8497976922910766
 51
0.2205240991503864
  0
LINE
  5
1468C
  8
0
 10
3707.3810851750290567
 20
144.0489263340967909
 30
0.0
 11
3707.3810843125538668
 21
142.9196440176918941
 31
0.0
  0
LINE
  5
1468D
  8
0
 10
3707.3817877496499023
 20
142.9196438209548035
 30
0.0
 11
3707.3816196805501022
 21
140.9560678071547954
 31
0.0
  0
ARC
  5
1468E
  8
0
 10
3659.1079553435138223
 20
140.9876232597030139
 30
0.0
 40
48.2736746505934207
 50
359.3595451124782016
 51
359.9625469908082209
  0
ARC
  5
1468F
  8
0
 10
3707.3533987029418313
 20
144.4000375780217951
 30
0.0
 40
0.0006828199660077
 50
91.244372732104992
 51
132.9735569372888051
  0
ARC
  5
14690
  8
0
 10
3707.3555502137492113
 20
144.3979667926809043
 30
0.0
 40
0.0036681550312353
 50
135.5144605046268111
 51
161.9074415445741977
  0
ARC
  5
14691
  8
0
 10
3707.3872658466980283
 20
144.3874262267989934
 30
0.0
 40
0.0370894363307777
 50
161.644801721764992
 51
172.7753931227393025
  0
ARC
  5
14692
  8
0
 10
3707.6338895057638183
 20
144.3567023966928957
 30
0.0
 40
0.2856194058233443
 50
172.8827780381257924
 51
178.4963870738328922
  0
ARC
  5
14693
  8
0
 10
3707.9654049945938823
 20
144.3444201036242873
 30
0.0
 40
0.6173534068756585
 50
178.1642132652721955
 51
181.1004905949465069
  0
ARC
  5
14694
  8
0
 10
3707.774749597886057
 20
144.3384211516818141
 30
0.0
 40
0.4266243572259005
 50
180.7867477789037878
 51
185.2174467066427894
  0
ARC
  5
14695
  8
0
 10
3707.4403517729879241
 20
144.3070234359254869
 30
0.0
 40
0.090760911359082
 50
184.6752394102271069
 51
193.7270141041655052
  0
ARC
  5
14696
  8
0
 10
3707.353365841302093
 20
144.4000446142989915
 30
0.0
 40
0.0006758632730773
 50
57.3791601685996184
 51
88.4710810805202783
  0
ARC
  5
14697
  8
0
 10
3707.3525795913069487
 20
144.3990040241936867
 30
0.0
 40
0.0019787492066762
 50
28.8286921348610896
 51
54.4457056108369599
  0
ARC
  5
14698
  8
0
 10
3707.3369047604328443
 20
144.3915520900063996
 30
0.0
 40
0.0193316451464568
 50
9.1093841785626388
 51
25.7747826014103296
  0
ARC
  5
14699
  8
0
 10
3707.1513869989171326
 20
144.3595158661669871
 30
0.0
 40
0.2075939180248199
 50
2.578943152081262
 51
9.7334438556604201
  0
ARC
  5
1469A
  8
0
 10
3706.8166291821480627
 20
144.3388848196561867
 30
0.0
 40
0.5429693342185932
 50
357.1297335347816215
 51
3.1643358691533652
  0
ARC
  5
1469B
  8
0
 10
3707.1482562382147989
 20
144.3212781310724893
 30
0.0
 40
0.2108789330327068
 50
351.8000522580841789
 51
357.3955906166116279
  0
ARC
  5
1469C
  8
0
 10
3707.3273246219268913
 20
144.2946688233093937
 30
0.0
 40
0.0298566886688579
 50
338.7099521981264161
 51
353.3298763635398245
  0
ARC
  5
1469D
  8
0
 10
3707.3619161933229407
 20
144.2882017960828875
 30
0.0
 40
0.0101046950838027
 50
195.5895559618188031
 51
208.2900218232842064
  0
ARC
  5
1469E
  8
0
 10
3707.3546736847670218
 20
144.2842689906667033
 30
0.0
 40
0.0018635899672313
 50
207.3494091527769001
 51
239.5504398786322042
  0
ARC
  5
1469F
  8
0
 10
3707.3539734673340718
 20
144.2832113442931075
 30
0.0
 40
0.0006007835399768
 50
246.0155993924402082
 51
299.0473627054715848
  0
ARC
  5
146A0
  8
0
 10
3707.3527072115211922
 20
144.2847935798154992
 30
0.0
 40
0.0026207973335073
 50
306.4740520202922767
 51
338.3853369036132221
  0
LINE
  5
146A1
  8
0
 10
3707.3533838743492197
 20
144.4007202369548111
 30
0.0
 11
3707.3624424323488711
 21
144.4007202369548111
 31
0.0
  0
ARC
  5
146A2
  8
0
 10
3707.3621798203071194
 20
144.3994840384266922
 30
0.0
 40
0.0012637847465642
 50
28.4921435725280787
 51
78.00665483748665
  0
ARC
  5
146A3
  8
0
 10
3707.3569686547061792
 20
144.3961794665059983
 30
0.0
 40
0.0074319814028945
 50
18.4129930376593904
 51
31.7194840275902088
  0
ARC
  5
146A4
  8
0
 10
3707.2971152703908047
 20
144.3793969976802032
 30
0.0
 40
0.0695860524368918
 50
5.4773018961987798
 51
15.9567056836271508
  0
ARC
  5
146A5
  8
0
 10
3707.0956538182540498
 20
144.3547080139937009
 30
0.0
 40
0.2725366952783263
 50
3.5638816424066162
 51
6.6013712843548387
  0
ARC
  5
146A6
  8
0
 10
3706.8838105433101191
 20
144.3409142654242032
 30
0.0
 40
0.4848280969212092
 50
0.9909298365669538
 51
3.6346233706465929
  0
ARC
  5
146A7
  8
0
 10
3706.8052818534679318
 20
144.3386622199274996
 30
0.0
 40
0.5633846983168054
 50
358.4434385958584812
 51
1.081810692823107
  0
ARC
  5
146A8
  8
0
 10
3706.9997640230108118
 20
144.3326735888770997
 30
0.0
 40
0.3688122905795681
 50
354.8872153695921838
 51
358.5527367222243811
  0
ARC
  5
146A9
  8
0
 10
3707.2887980327050172
 20
144.3053463239232883
 30
0.0
 40
0.0785065688538935
 50
344.5936354013537084
 51
355.9534168894098229
  0
LINE
  5
146AA
  8
0
 10
3707.3539717335488604
 20
144.2826105632549059
 30
0.0
 11
3707.3630312653499459
 21
144.2826105632549059
 31
0.0
  0
ARC
  5
146AB
  8
0
 10
3707.3629989897658561
 20
144.2833548098639085
 30
0.0
 40
0.000744946124486
 50
272.4831778735857029
 51
311.5022854354688207
  0
ARC
  5
146AC
  8
0
 10
3707.3602416262251609
 20
144.2858360991453139
 30
0.0
 40
0.0044503661059493
 50
316.9285080548719975
 51
342.3942501668278737
  0
ARC
  5
146AD
  8
0
 10
3711.6475925979489148
 20
144.3878619295786905
 30
0.0
 40
3.14973814042972
 50
232.7415680486153065
 51
252.3654303407303132
  0
LINE
  5
146AE
  8
0
 10
3709.3666236890489927
 20
145.5377294171595111
 30
0.0
 11
3709.6933953425500476
 21
145.5377294171595111
 31
0.0
  0
LINE
  5
146AF
  8
0
 10
3709.3666236890489927
 20
143.6321893254134068
 30
0.0
 11
3709.6933953425491381
 21
143.632188501145805
 31
0.0
  0
LINE
  5
146B0
  8
0
 10
3710.6933953425491381
 20
147.7837739028919941
 30
0.0
 11
3710.6933953425491381
 21
141.3861361008150936
 31
0.0
  0
ENDSEC
  0
EOF
