  0
SECTION
  2
HEADER
  9
$ACADVER
  1
AC1009
  9
$INSBASE
 10
-1.527306403611024
 20
-1.965322717613069
 30
0.0
  9
$EXTMIN
 10
-5.5565053149110293
 20
-2.398393583813069
 30
0.0
  9
$EXTMAX
 10
-1.009303952510983
 20
6.1751475317201683
 30
0.0
  9
$LIMMIN
 10
0.0
 20
0.0
  9
$LIMMAX
 10
11.6929133858000007
 20
8.2677165353999982
  9
$ORTHOMODE
 70
     0
  9
$REGENMODE
 70
     1
  9
$FILLMODE
 70
     1
  9
$QTEXTMODE
 70
     0
  9
$MIRRTEXT
 70
     0
  9
$DRAGMODE
 70
     2
  9
$LTSCALE
 40
0.6431102362
  9
$OSMODE
 70
  3839
  9
$ATTMODE
 70
     1
  9
$TEXTSIZE
 40
0.2
  9
$TRACEWID
 40
0.05
  9
$TEXTSTYLE
  7
STANDARD
  9
$CLAYER
  8
0
  9
$CELTYPE
  6
BYLAYER
  9
$CECOLOR
 62
   256
  9
$DIMSCALE
 40
1.0
  9
$DIMASZ
 40
0.1875
  9
$DIMEXO
 40
0.0625
  9
$DIMDLI
 40
0.4443307087
  9
$DIMRND
 40
0.0
  9
$DIMDLE
 40
0.0
  9
$DIMEXE
 40
0.125
  9
$DIMTP
 40
0.01
  9
$DIMTM
 40
0.01
  9
$DIMTXT
 40
1.0
  9
$DIMCEN
 40
0.1052362205
  9
$DIMTSZ
 40
0.0
  9
$DIMTOL
 70
     1
  9
$DIMLIM
 70
     0
  9
$DIMTIH
 70
     1
  9
$DIMTOH
 70
     1
  9
$DIMSE1
 70
     0
  9
$DIMSE2
 70
     0
  9
$DIMTAD
 70
     0
  9
$DIMZIN
 70
     0
  9
$DIMBLK
  1

  9
$DIMASO
 70
     1
  9
$DIMSHO
 70
     1
  9
$DIMPOST
  1
\X
  9
$DIMAPOST
  1

  9
$DIMALT
 70
     1
  9
$DIMALTD
 70
     2
  9
$DIMALTF
 40
25.3999999999999986
  9
$DIMLFAC
 40
1.0
  9
$DIMTOFL
 70
     0
  9
$DIMTVP
 40
0.0
  9
$DIMTIX
 70
     0
  9
$DIMSOXD
 70
     0
  9
$DIMSAH
 70
     0
  9
$DIMBLK1
  1

  9
$DIMBLK2
  1

  9
$DIMSTYLE
  2
STANDARD
  9
$DIMCLRD
 70
     0
  9
$DIMCLRE
 70
     0
  9
$DIMCLRT
 70
     0
  9
$DIMTFAC
 40
1.0
  9
$DIMGAP
 40
0.09
  9
$LUNITS
 70
     2
  9
$LUPREC
 70
     4
  9
$SKETCHINC
 40
0.1
  9
$FILLETRAD
 40
0.0
  9
$AUNITS
 70
     0
  9
$AUPREC
 70
     0
  9
$MENU
  1
.
  9
$ELEVATION
 40
0.0
  9
$PELEVATION
 40
0.0
  9
$THICKNESS
 40
0.0
  9
$LIMCHECK
 70
     0
  9
$BLIPMODE
 70
     0
  9
$CHAMFERA
 40
0.0
  9
$CHAMFERB
 40
0.0
  9
$SKPOLY
 70
     0
  9
$TDCREATE
 40
2457893.7626041672192514
  9
$TDUPDATE
 40
2459093.8213310190476477
  9
$TDINDWG
 40
0.3221916551
  9
$TDUSRTIMER
 40
0.3221916551
  9
$USRTIMER
 70
     1
  9
$ANGBASE
 50
0.0
  9
$ANGDIR
 70
     0
  9
$PDMODE
 70
     0
  9
$PDSIZE
 40
0.3125
  9
$PLINEWID
 40
0.0
  9
$COORDS
 70
     1
  9
$SPLFRAME
 70
     0
  9
$SPLINETYPE
 70
     6
  9
$SPLINESEGS
 70
     8
  9
$ATTDIA
 70
     1
  9
$ATTREQ
 70
     1
  9
$HANDLING
 70
     1
  9
$HANDSEED
  5
44CE
  9
$SURFTAB1
 70
     6
  9
$SURFTAB2
 70
     6
  9
$SURFTYPE
 70
     6
  9
$SURFU
 70
     6
  9
$SURFV
 70
     6
  9
$UCSNAME
  2

  9
$UCSORG
 10
0.0
 20
0.0
 30
0.0
  9
$UCSXDIR
 10
1.0
 20
0.0
 30
0.0
  9
$UCSYDIR
 10
0.0
 20
1.0
 30
0.0
  9
$PUCSNAME
  2

  9
$PUCSORG
 10
0.0
 20
0.0
 30
0.0
  9
$PUCSXDIR
 10
1.0
 20
0.0
 30
0.0
  9
$PUCSYDIR
 10
0.0
 20
1.0
 30
0.0
  9
$USERI1
 70
     0
  9
$USERI2
 70
     0
  9
$USERI3
 70
     0
  9
$USERI4
 70
     0
  9
$USERI5
 70
     0
  9
$USERR1
 40
0.0
  9
$USERR2
 40
0.0
  9
$USERR3
 40
0.0
  9
$USERR4
 40
0.0
  9
$USERR5
 40
0.0
  9
$WORLDVIEW
 70
     1
  9
$SHADEDGE
 70
     3
  9
$SHADEDIF
 70
    70
  9
$TILEMODE
 70
     1
  9
$MAXACTVP
 70
    48
  9
$PLIMCHECK
 70
     0
  9
$PEXTMIN
 10
1.0000000000000000E+20
 20
1.0000000000000000E+20
 30
1.0000000000000000E+20
  9
$PEXTMAX
 10
-1.0000000000000000E+20
 20
-1.0000000000000000E+20
 30
-1.0000000000000000E+20
  9
$PLIMMIN
 10
0.0
 20
0.0
  9
$PLIMMAX
 10
12.0
 20
9.0
  9
$UNITMODE
 70
     0
  9
$VISRETAIN
 70
     1
  9
$PLINEGEN
 70
     0
  9
$PSLTSCALE
 70
     1
  0
ENDSEC
  0
SECTION
  2
TABLES
  0
TABLE
  2
VPORT
 70
     1
  0
VPORT
  2
*ACTIVE
 70
     0
 10
0.0
 20
0.0
 11
1.0
 21
1.0
 12
0.0
 22
0.0
 13
0.0
 23
0.0
 14
1.0
 24
1.0
 15
0.0
 25
0.0
 16
-0.0000000000000089
 26
0.0
 36
40.28960697117477
 17
-3.2829045653343201
 27
1.8883459568023679
 37
0.0
 40
9.7047197083048626
 41
3.314341846758349
 42
50.0
 43
0.0
 44
0.0
 50
0.0
 51
0.0
 71
     0
 72
   100
 73
     1
 74
     1
 75
     0
 76
     0
 77
     0
 78
     0
  0
ENDTAB
  0
TABLE
  2
LTYPE
 70
     2
  0
LTYPE
  2
CONTINUOUS
 70
     0
  3
Solid line
 72
    65
 73
     0
 40
0.0
  0
LTYPE
  2
PHANTOM2
 70
     0
  3
___ _ _ ___ _ _ ___ _ _ ___ _ _
 72
    65
 73
     6
 40
1.25
 49
0.625
 49
-0.125
 49
0.125
 49
-0.125
 49
0.125
 49
-0.125
  0
ENDTAB
  0
TABLE
  2
LAYER
 70
     2
  0
LAYER
  2
0
 70
     0
 62
     7
  6
CONTINUOUS
  0
LAYER
  2
DEFPOINTS
 70
     0
 62
     7
  6
CONTINUOUS
  0
ENDTAB
  0
TABLE
  2
STYLE
 70
     1
  0
STYLE
  2
STANDARD
 70
     0
 40
0.0
 41
0.8
 50
0.0
 71
     0
 42
0.2
  3
txt
  4

  0
ENDTAB
  0
TABLE
  2
VIEW
 70
     0
  0
ENDTAB
  0
TABLE
  2
UCS
 70
     0
  0
ENDTAB
  0
TABLE
  2
APPID
 70
     9
  0
APPID
  2
ACAD
 70
     0
  0
APPID
  2
ACAD_MLEADERVER
 70
     0
  0
APPID
  2
ACAD_NAV_VCDISPLAY
 70
     0
  0
APPID
  2
ACAD_EXEMPT_FROM_CAD_STANDARDS
 70
     0
  0
APPID
  2
ACAD_DSTYLE_DIMJAG
 70
     0
  0
APPID
  2
ACAD_DSTYLE_DIMTALN
 70
     0
  0
APPID
  2
ACDBATTR
 70
     0
  0
APPID
  2
ACAD_PSEXT
 70
     0
  0
APPID
  2
ACADANNOTATIVE
 70
     0
  0
ENDTAB
  0
TABLE
  2
DIMSTYLE
 70
     3
  0
DIMSTYLE
  2
STANDARD
 70
     0
  3

  4

  5

  6

  7

 40
1.0
 41
0.1875
 42
0.0625
 43
0.38
 44
0.125
 45
0.0
 46
0.0
 47
0.01
 48
0.01
140
0.15625
141
0.09
142
0.0
143
25.3999999999999986
144
1.0
145
0.0
146
1.0
147
0.09
 71
     1
 72
     0
 73
     1
 74
     1
 75
     0
 76
     0
 77
     0
 78
     4
170
     0
171
     2
172
     0
173
     0
174
     0
175
     0
176
     0
177
     0
178
     0
  0
DIMSTYLE
  2
ANNOTATIVE
 70
     0
  3

  4

  5

  6

  7

 40
0.0
 41
2.5
 42
0.625
 43
3.75
 44
1.25
 45
0.0
 46
0.0
 47
0.0
 48
0.0
140
2.5
141
2.5
142
0.0
143
0.03937007874016
144
1.0
145
0.0
146
1.0
147
0.625
 71
     0
 72
     0
 73
     0
 74
     0
 75
     0
 76
     0
 77
     1
 78
     8
170
     0
171
     3
172
     1
173
     0
174
     0
175
     0
176
     0
177
     0
178
     0
  0
DIMSTYLE
  2
ISO-25
 70
     0
  3

  4

  5

  6

  7

 40
1.0
 41
2.5
 42
0.625
 43
3.75
 44
1.25
 45
0.0
 46
0.0
 47
0.0
 48
0.0
140
2.5
141
2.5
142
0.0
143
0.03937007874016
144
1.0
145
0.0
146
1.0
147
0.625
 71
     0
 72
     0
 73
     0
 74
     0
 75
     0
 76
     0
 77
     1
 78
     8
170
     0
171
     3
172
     1
173
     0
174
     0
175
     0
176
     0
177
     0
178
     0
  0
ENDTAB
  0
ENDSEC
  0
SECTION
  2
BLOCKS
  0
BLOCK
  8
0
  2
$MODEL_SPACE
 70
     0
 10
0.0
 20
0.0
 30
0.0
  3
$MODEL_SPACE
  1

  0
ENDBLK
  5
21
  8
0
  0
BLOCK
 67
     1
  8
0
  2
$PAPER_SPACE
 70
     0
 10
0.0
 20
0.0
 30
0.0
  3
$PAPER_SPACE
  1

  0
ENDBLK
  5
1D
 67
     1
  8
0
  0
BLOCK
  8
0
  2
_FILLED
 70
     0
 10
0.0
 20
0.0
 30
0.0
  3
_FILLED
  1

  0
SOLID
  5
1F2C
  8
0
  6
BYBLOCK
 62
     0
 10
0.0
 20
0.0
 30
0.0
 11
-1.0
 21
0.1666666667
 31
0.0
 12
-1.0
 22
-0.1666666667
 32
0.0
 13
-1.0
 23
-0.1666666667
 33
0.0
  0
ENDBLK
  5
1F2D
  8
0
  6
BYBLOCK
 62
     0
  0
ENDSEC
  0
SECTION
  2
ENTITIES
  0
ATTDEF
  5
1B48
  8
DEFPOINTS
 10
-1.5382931906219779
 20
-1.966704799691481
 30
0.0
 40
0.001
  1
K-72437T-E2
  3

  2
MODELNUMBER
 70
     0
1001
ACDBATTR
1070
     0
1070
     1
  0
ATTDEF
  5
1B49
  8
DEFPOINTS
 10
-1.5382931906219779
 20
-1.968371466358146
 30
0.0
 40
0.001
  1
RAINJOY
  3

  2
TRADENAME
 70
     0
1001
ACDBATTR
1070
     0
1070
     1
  0
ATTDEF
  5
1B4A
  8
DEFPOINTS
 10
-1.5382931906219779
 20
-1.9700381330248109
 30
0.0
 40
0.001
  1
HANDSHOWER
  3

  2
PRODUCT
 70
     0
1001
ACDBATTR
1070
     0
1070
     1
  0
LINE
  5
3F4E
  8
0
 10
-1.893448055311022
 20
-2.398393583813069
 30
0.0
 11
-1.1611647519110231
 21
-2.398393583813069
 31
0.0
  0
LINE
  5
3F4F
  8
0
 10
-1.122404912177501
 20
-2.1575921630444759
 30
0.0
 11
-1.1611647519110231
 21
-2.137657600963387
 31
0.0
  0
LINE
  5
3F50
  8
0
 10
-1.1611647519110231
 20
-2.1206247864262799
 30
0.0
 11
-1.1611647519110231
 21
-2.1376576009633861
 31
0.0
  0
LINE
  5
3F51
  8
0
 10
-1.121842648077503
 20
-2.1711978943444761
 30
0.0
 11
-1.1218291489775041
 21
-2.1581923415444759
 31
0.0
  0
LINE
  5
3F52
  8
0
 10
-1.1611647519110231
 20
-2.1919912450262791
 30
0.0
 11
-1.1224157864790021
 21
-2.1717943757672251
 31
0.0
  0
ARC
  5
3F53
  8
0
 10
-1.13359087565022
 20
-2.1688993406113259
 30
0.0
 40
0.0159052835039596
 50
42.3123927159076629
 51
45.30876029143311
  0
ARC
  5
3F54
  8
0
 10
-0.9320319670648373
 20
-2.3541540183726588
 30
0.0
 40
0.2636304950985489
 50
136.0534546634507933
 51
136.2332354861769943
  0
ARC
  5
3F55
  8
0
 10
2.617735445030589
 20
-148.2760958202443931
 30
0.0
 40
146.1451580061882964
 50
91.5637717042244503
 51
91.6913260838953903
  0
ARC
  5
3F56
  8
0
 10
-1.70504892632848
 20
8.9443483216590725
 30
0.0
 40
11.1347418134487892
 50
271.7217188237012238
 51
272.6905230184980269
  0
ARC
  5
3F57
  8
0
 10
-1.184711640867391
 20
-1.889519947438099
 30
0.0
 40
0.2886086901460297
 50
270.4647860579067924
 51
282.5818873563019906
  0
ARC
  5
3F58
  8
0
 10
2.6177208701305901
 20
-148.2630903988442981
 30
0.0
 40
146.1451580061882964
 50
91.5637717042244503
 51
91.6913260838953903
  0
ARC
  5
3F59
  8
0
 10
-1.70506350122848
 20
8.9573537430590715
 30
0.0
 40
11.1347418134487892
 50
271.7217188237012238
 51
272.6905230184980269
  0
ARC
  5
3F5A
  8
0
 10
-1.197568822761603
 20
-1.654056562584344
 30
0.0
 40
0.5112826672511199
 50
271.7017884344330128
 51
278.1108188394363765
  0
ARC
  5
3F5B
  8
0
 10
-1.127023232905962
 20
-2.153194158831667
 30
0.0
 40
0.0072083519813121
 50
282.7457723770846769
 51
316.1011221898473877
  0
LINE
  5
3F5C
  8
0
 10
-1.122404912177501
 20
-2.0862257044444772
 30
0.0
 11
-1.1611647519110231
 21
-2.0662911423633861
 31
0.0
  0
LINE
  5
3F5D
  8
0
 10
-1.1611647519110231
 20
-2.0491824381239372
 30
0.0
 11
-1.1611647519110231
 21
-2.0662911423633861
 31
0.0
  0
LINE
  5
3F5E
  8
0
 10
-1.121842648077503
 20
-2.0998314357444761
 30
0.0
 11
-1.1218291489775041
 21
-2.0868258829444768
 31
0.0
  0
LINE
  5
3F5F
  8
0
 10
-1.1611647519110231
 20
-2.1206247864262791
 30
0.0
 11
-1.1224157864790021
 21
-2.1004279171672251
 31
0.0
  0
ARC
  5
3F60
  8
0
 10
-1.13359087565022
 20
-2.0975328820113259
 30
0.0
 40
0.0159052835039596
 50
42.3123927159076629
 51
45.30876029143311
  0
ARC
  5
3F61
  8
0
 10
-0.9320319670648373
 20
-2.2827875597726601
 30
0.0
 40
0.2636304950985489
 50
136.0534546634507933
 51
136.2332354861769943
  0
ARC
  5
3F62
  8
0
 10
2.617735445030589
 20
-148.2047293616442971
 30
0.0
 40
146.1451580061882964
 50
91.5637717042244503
 51
91.6913260838953903
  0
ARC
  5
3F63
  8
0
 10
-1.70504892632848
 20
9.0157147802590725
 30
0.0
 40
11.1347418134487892
 50
271.7217188237012238
 51
272.6905230184980269
  0
ARC
  5
3F64
  8
0
 10
-1.184711640867391
 20
-1.818153488838099
 30
0.0
 40
0.2886086901460297
 50
270.4647860579067924
 51
282.5818873563019906
  0
ARC
  5
3F65
  8
0
 10
2.6177208701305901
 20
-148.1917239402444011
 30
0.0
 40
146.1451580061882964
 50
91.5637717042244503
 51
91.6913260838953903
  0
ARC
  5
3F66
  8
0
 10
-1.70506350122848
 20
9.0287202016590715
 30
0.0
 40
11.1347418134487892
 50
271.7217188237012238
 51
272.6905230184980269
  0
ARC
  5
3F67
  8
0
 10
-1.197568822761603
 20
-1.5826901039843451
 30
0.0
 40
0.5112826672511199
 50
271.7017884344330128
 51
278.1108188394363765
  0
ARC
  5
3F68
  8
0
 10
-1.127023232905962
 20
-2.081827700231667
 30
0.0
 40
0.0072083519813121
 50
282.7457723770846769
 51
316.1011221898473877
  0
LINE
  5
3F69
  8
0
 10
-1.122404912177501
 20
-2.0148592458444772
 30
0.0
 11
-1.1611647519110231
 21
-1.9949246837633861
 31
0.0
  0
LINE
  5
3F6A
  8
0
 10
-1.1611647519110231
 20
-1.965322717613069
 30
0.0
 11
-1.1611647519110231
 21
-1.9949246837633881
 31
0.0
  0
LINE
  5
3F6B
  8
0
 10
-1.121842648077503
 20
-2.0284649771444769
 30
0.0
 11
-1.1218291489775041
 21
-2.0154594243444768
 31
0.0
  0
LINE
  5
3F6C
  8
0
 10
-1.1611647519110271
 20
-2.0491824381239381
 30
0.0
 11
-1.1224157864790021
 21
-2.029061458567226
 31
0.0
  0
ARC
  5
3F6D
  8
0
 10
-1.13359087565022
 20
-2.0261664234113268
 30
0.0
 40
0.0159052835039596
 50
42.3123927159076629
 51
45.30876029143311
  0
ARC
  5
3F6E
  8
0
 10
-0.9320319670648373
 20
-2.2114211011726601
 30
0.0
 40
0.2636304950985489
 50
136.0534546634507933
 51
136.2332354861769943
  0
ARC
  5
3F6F
  8
0
 10
2.617735445030589
 20
-148.1333629030442864
 30
0.0
 40
146.1451580061882964
 50
91.5637717042244503
 51
91.6913260838953903
  0
ARC
  5
3F70
  8
0
 10
-1.70504892632848
 20
9.0870812388590725
 30
0.0
 40
11.1347418134487892
 50
271.7217188237012238
 51
272.6905230184980269
  0
ARC
  5
3F71
  8
0
 10
-1.184711640867391
 20
-1.7467870302380999
 30
0.0
 40
0.2886086901460297
 50
270.4647860579067924
 51
282.5818873563019906
  0
ARC
  5
3F72
  8
0
 10
2.6177208701305901
 20
-148.1203574816443904
 30
0.0
 40
146.1451580061882964
 50
91.5637717042244503
 51
91.6913260838953903
  0
ARC
  5
3F73
  8
0
 10
-1.70506350122848
 20
9.1000866602590715
 30
0.0
 40
11.1347418134487892
 50
271.7217188237012238
 51
272.6905230184980269
  0
ARC
  5
3F74
  8
0
 10
-1.197568822761603
 20
-1.511323645384345
 30
0.0
 40
0.5112826672511199
 50
271.7017884344330128
 51
278.1108188394363765
  0
ARC
  5
3F75
  8
0
 10
-1.127023232905962
 20
-2.0104612416316678
 30
0.0
 40
0.0072083519813121
 50
282.7457723770846769
 51
316.1011221898473877
  0
LINE
  5
3F76
  8
0
 10
-1.0464845846604041
 20
-1.965322717613069
 30
0.0
 11
-2.0019299386056448
 21
-1.965322717613069
 31
0.0
  0
ARC
  5
3F77
  8
0
 10
-1.0502050601725721
 20
-1.924567631219998
 30
0.0
 40
0.0409245525930739
 50
275.2159952275031856
 51
358.0604951054398839
  0
ARC
  5
3F78
  8
0
 10
-12.7797545058894109
 20
-2.368725093405748
 30
0.0
 40
11.7787755572389692
 50
2.1542959319151471
 51
23.22930275773966
  0
LINE
  5
3F79
  8
0
 10
-1.122404912177501
 20
-2.2289586216444759
 30
0.0
 11
-1.1611647519110231
 21
-2.209024059563387
 31
0.0
  0
LINE
  5
3F7A
  8
0
 10
-1.1611647519110231
 20
-2.19199124502628
 30
0.0
 11
-1.1611647519110231
 21
-2.2090240595633861
 31
0.0
  0
LINE
  5
3F7B
  8
0
 10
-1.121842648077503
 20
-2.2425643529444761
 30
0.0
 11
-1.1218291489775041
 21
-2.2295588001444759
 31
0.0
  0
LINE
  5
3F7C
  8
0
 10
-1.1611647519110231
 20
-2.26335770362628
 30
0.0
 11
-1.1224157864790021
 21
-2.243160834367226
 31
0.0
  0
ARC
  5
3F7D
  8
0
 10
-1.13359087565022
 20
-2.240265799211326
 30
0.0
 40
0.0159052835039596
 50
42.3123927159076629
 51
45.30876029143311
  0
ARC
  5
3F7E
  8
0
 10
-0.9320319670648409
 20
-2.4255204769726588
 30
0.0
 40
0.2636304950985489
 50
136.0534546634507933
 51
136.2332354861769943
  0
ARC
  5
3F7F
  8
0
 10
2.617735445030589
 20
-148.3474622788444037
 30
0.0
 40
146.1451580061882964
 50
91.5637717042244503
 51
91.6913260838953903
  0
ARC
  5
3F80
  8
0
 10
-1.70504892632848
 20
8.8729818630590724
 30
0.0
 40
11.1347418134487892
 50
271.7217188237012238
 51
272.6905230184980269
  0
ARC
  5
3F81
  8
0
 10
-1.184711640867391
 20
-1.9608864060380991
 30
0.0
 40
0.2886086901460297
 50
270.4647860579067924
 51
282.5818873563019906
  0
ARC
  5
3F82
  8
0
 10
2.6177208701305901
 20
-148.334456857444394
 30
0.0
 40
146.1451580061882964
 50
91.5637717042244503
 51
91.6913260838953903
  0
ARC
  5
3F83
  8
0
 10
-1.70506350122848
 20
8.8859872844590715
 30
0.0
 40
11.1347418134487892
 50
271.7217188237012238
 51
272.6905230184980269
  0
ARC
  5
3F84
  8
0
 10
-1.197568822761603
 20
-1.725423021184344
 30
0.0
 40
0.5112826672511199
 50
271.7017884344330128
 51
278.1108188394363765
  0
ARC
  5
3F85
  8
0
 10
-1.127023232905962
 20
-2.224560617431667
 30
0.0
 40
0.0072083519813121
 50
282.7457723770846769
 51
316.1011221898473877
  0
LINE
  5
3F86
  8
0
 10
-1.122404912177501
 20
-2.3003250802444768
 30
0.0
 11
-1.1611647519110231
 21
-2.280390518163387
 31
0.0
  0
LINE
  5
3F87
  8
0
 10
-1.1611647519110231
 20
-2.26335770362628
 30
0.0
 11
-1.1611647519110231
 21
-2.280390518163387
 31
0.0
  0
LINE
  5
3F88
  8
0
 10
-1.121842648077503
 20
-2.3139308115444761
 30
0.0
 11
-1.1218291489775041
 21
-2.3009252587444768
 31
0.0
  0
LINE
  5
3F89
  8
0
 10
-1.1611647519110271
 20
-2.33472416222628
 30
0.0
 11
-1.1224157864790021
 21
-2.314527292967226
 31
0.0
  0
ARC
  5
3F8A
  8
0
 10
-1.13359087565022
 20
-2.311632257811326
 30
0.0
 40
0.0159052835039596
 50
42.3123927159076629
 51
45.30876029143311
  0
ARC
  5
3F8B
  8
0
 10
-0.9320319670648444
 20
-2.4968869355726602
 30
0.0
 40
0.2636304950985489
 50
136.0534546634507933
 51
136.2332354861769943
  0
ARC
  5
3F8C
  8
0
 10
2.617735445030589
 20
-148.4188287374443007
 30
0.0
 40
146.1451580061882964
 50
91.5637717042244503
 51
91.6453968447794267
  0
ARC
  5
3F8D
  8
0
 10
-2.781099005724303
 20
21.0860159959922804
 30
0.0
 40
23.4507951634868306
 50
272.0731181824880878
 51
272.9392148101438806
  0
ARC
  5
3F8E
  8
0
 10
-1.70504892632848
 20
8.8016154044590724
 30
0.0
 40
11.1347418134487892
 50
271.7217188237012238
 51
272.6905230184980269
  0
ARC
  5
3F8F
  8
0
 10
-1.184711640867391
 20
-2.0322528646380991
 30
0.0
 40
0.2886086901460297
 50
270.4647860579067924
 51
282.5818873563019906
  0
ARC
  5
3F90
  8
0
 10
2.6177208701305901
 20
-148.4058233160444047
 30
0.0
 40
146.1451580061882964
 50
91.5637717042244503
 51
91.6453928771382209
  0
ARC
  5
3F91
  8
0
 10
-1.4634834644072889
 20
-8.1362313051223651
 30
0.0
 40
5.8164473213010419
 50
91.1343348241821758
 51
94.592327651878108
  0
ARC
  5
3F92
  8
0
 10
-1.70506350122848
 20
8.8146208258590715
 30
0.0
 40
11.1347418134487892
 50
271.7217188237012238
 51
272.6905230184980269
  0
ARC
  5
3F93
  8
0
 10
-1.197568822761603
 20
-1.796789479784344
 30
0.0
 40
0.5112826672511199
 50
271.7017884344330128
 51
278.1108188394363765
  0
ARC
  5
3F94
  8
0
 10
-1.127023232905962
 20
-2.295927076031667
 30
0.0
 40
0.0072083519813121
 50
282.7457723770846769
 51
316.1011221898473877
  0
LINE
  5
3F95
  8
0
 10
-1.1611647519110231
 20
-2.398393583813069
 30
0.0
 11
-1.16116475191103
 21
-2.33472416222628
 31
0.0
  0
LINE
  5
3F96
  8
0
 10
-1.932207895044548
 20
-2.193091414157375
 30
0.0
 11
-1.893448055311026
 21
-2.1731568520762861
 31
0.0
  0
LINE
  5
3F97
  8
0
 10
-1.893448055311026
 20
-2.156124037539179
 30
0.0
 11
-1.893448055311026
 21
-2.1731568520762852
 31
0.0
  0
LINE
  5
3F98
  8
0
 10
-1.9327701591445461
 20
-2.2066971454573752
 30
0.0
 11
-1.932783658244545
 21
-2.193691592657375
 31
0.0
  0
LINE
  5
3F99
  8
0
 10
-1.893448055311026
 20
-2.227490496139179
 30
0.0
 11
-1.9321970207430459
 21
-2.2072936268801242
 31
0.0
  0
ARC
  5
3F9A
  8
0
 10
-1.9210219315718291
 20
-2.204398591724225
 30
0.0
 40
0.0159052835039596
 50
134.6912397085669113
 51
137.6876072840923086
  0
ARC
  5
3F9B
  8
0
 10
-2.1225808401572119
 20
-2.3896532694855579
 30
0.0
 40
0.2636304950985489
 50
43.7667645138229702
 51
43.946545336549228
  0
ARC
  5
3F9C
  8
0
 10
-1.5852928552265551
 20
-6.6897900286239427
 30
0.0
 40
4.4965389218638858
 50
91.4073212688631145
 51
94.4320424601556851
  0
ARC
  5
3F9D
  8
0
 10
-1.4481281786825191
 20
-8.2110661735117798
 30
0.0
 40
6.0345464271692197
 50
92.3516622256121593
 51
94.5722591123947751
  0
ARC
  5
3F9E
  8
0
 10
-1.9275895743160869
 20
-2.1886934099445661
 30
0.0
 40
0.0072083519813121
 50
223.8988778101524986
 51
257.2542276229150957
  0
LINE
  5
3F9F
  8
0
 10
-1.932207895044548
 20
-2.1217249555573758
 30
0.0
 11
-1.893448055311026
 21
-2.1017903934762852
 31
0.0
  0
LINE
  5
3FA0
  8
0
 10
-1.893448055311026
 20
-2.0846816892368358
 30
0.0
 11
-1.893448055311026
 21
-2.101790393476286
 31
0.0
  0
LINE
  5
3FA1
  8
0
 10
-1.9327701591445461
 20
-2.135330686857376
 30
0.0
 11
-1.932783658244545
 21
-2.1223251340573759
 31
0.0
  0
LINE
  5
3FA2
  8
0
 10
-1.893448055311026
 20
-2.156124037539179
 30
0.0
 11
-1.9321970207430459
 21
-2.1359271682801251
 31
0.0
  0
ARC
  5
3FA3
  8
0
 10
-1.9210219315718291
 20
-2.133032133124225
 30
0.0
 40
0.0159052835039596
 50
134.6912397085669113
 51
137.6876072840923086
  0
ARC
  5
3FA4
  8
0
 10
-2.1225808401572119
 20
-2.3182868108855592
 30
0.0
 40
0.2636304950985489
 50
43.7667645138229702
 51
43.946545336549228
  0
ARC
  5
3FA5
  8
0
 10
-1.5464928078589819
 20
-7.3791757642933451
 30
0.0
 40
5.2580530035618347
 50
91.6263940133184036
 51
94.2129697157060093
  0
ARC
  5
3FA6
  8
0
 10
-1.4780001993305161
 20
-7.6459167169195412
 30
0.0
 40
5.5399618540956039
 50
92.2525253133907768
 51
94.6713960246219983
  0
ARC
  5
3FA7
  8
0
 10
-1.9275895743160869
 20
-2.1173269513445661
 30
0.0
 40
0.0072083519813121
 50
223.8988778101524986
 51
257.2542276229150957
  0
LINE
  5
3FA8
  8
0
 10
-1.932207895044548
 20
-2.0503584969573758
 30
0.0
 11
-1.893448055311026
 21
-2.030423934876286
 31
0.0
  0
LINE
  5
3FA9
  8
0
 10
-1.893448055311026
 20
-1.965322717613069
 30
0.0
 11
-1.893448055311026
 21
-2.0304239348762851
 31
0.0
  0
LINE
  5
3FAA
  8
0
 10
-1.9327701591445461
 20
-2.063964228257376
 30
0.0
 11
-1.932783658244545
 21
-2.0509586754573759
 31
0.0
  0
LINE
  5
3FAB
  8
0
 10
-1.893448055311022
 20
-2.0846816892368372
 30
0.0
 11
-1.9321970207430459
 21
-2.0645607096801251
 31
0.0
  0
ARC
  5
3FAC
  8
0
 10
-1.9210219315718291
 20
-2.0616656745242259
 30
0.0
 40
0.0159052835039596
 50
134.6912397085669113
 51
137.6876072840923086
  0
ARC
  5
3FAD
  8
0
 10
-2.1225808401572119
 20
-2.2469203522855592
 30
0.0
 40
0.2636304950985489
 50
43.7667645138229702
 51
43.946545336549228
  0
ARC
  5
3FAE
  8
0
 10
-1.496295020039752
 20
-8.2920368987612179
 30
0.0
 40
6.2433484394300303
 50
91.8305214188787033
 51
94.0088423101374531
  0
ARC
  5
3FAF
  8
0
 10
-1.495352186755919
 20
-7.2877227794319346
 30
0.0
 40
5.252677507021259
 50
92.1863670972634708
 51
94.7375542407403231
  0
ARC
  5
3FB0
  8
0
 10
-1.9275895743160869
 20
-2.0459604927445669
 30
0.0
 40
0.0072083519813121
 50
223.8988778101524986
 51
257.2542276229150957
  0
LINE
  5
3FB1
  8
0
 10
-1.932207895044548
 20
-2.264457872757375
 30
0.0
 11
-1.893448055311026
 21
-2.2445233106762861
 31
0.0
  0
LINE
  5
3FB2
  8
0
 10
-1.893448055311026
 20
-2.227490496139179
 30
0.0
 11
-1.893448055311026
 21
-2.2445233106762852
 31
0.0
  0
LINE
  5
3FB3
  8
0
 10
-1.9327701591445461
 20
-2.2780636040573752
 30
0.0
 11
-1.932783658244545
 21
-2.265058051257375
 31
0.0
  0
LINE
  5
3FB4
  8
0
 10
-1.893448055311026
 20
-2.2988569547391791
 30
0.0
 11
-1.9321970207430459
 21
-2.2786600854801251
 31
0.0
  0
ARC
  5
3FB5
  8
0
 10
-1.9210219315718291
 20
-2.275765050324225
 30
0.0
 40
0.0159052835039596
 50
134.6912397085669113
 51
137.6876072840923086
  0
ARC
  5
3FB6
  8
0
 10
-2.1225808401572079
 20
-2.4610197280855579
 30
0.0
 40
0.2636304950985489
 50
43.7667645138229702
 51
43.946545336549228
  0
ARC
  5
3FB7
  8
0
 10
-1.1130248089444019
 20
-16.0209119996765494
 30
0.0
 40
13.7672751285120807
 50
92.4257800005775749
 51
93.4135837284361941
  0
ARC
  5
3FB8
  8
0
 10
-1.6688837808790771
 20
-4.6333536374369011
 30
0.0
 40
2.3805366744454481
 50
90.6464504755771401
 51
96.2774708624253606
  0
ARC
  5
3FB9
  8
0
 10
-1.9275895743160869
 20
-2.2600598685445661
 30
0.0
 40
0.0072083519813121
 50
223.8988778101524986
 51
257.2542276229150957
  0
LINE
  5
3FBA
  8
0
 10
-1.893448055311026
 20
-2.398393583813069
 30
0.0
 11
-1.893448055311022
 21
-2.37022341333918
 31
0.0
  0
LINE
  5
3FBB
  8
0
 10
-1.8934480553110149
 20
-2.3158897692762799
 30
0.0
 11
-1.893448055311026
 21
-2.2988569547391791
 31
0.0
  0
ARC
  5
3FBC
  8
0
 10
-1.998209463093481
 20
-1.924567631219998
 30
0.0
 40
0.0409245525930739
 50
181.9395048945600024
 51
264.7840047724968144
  0
ARC
  5
3FBD
  8
0
 10
-21.7226265549576496
 20
-2.521013450630972
 30
0.0
 40
19.692508697605291
 50
1.731605720792978
 51
13.35232853974248
  0
LINE
  5
3FBF
  8
0
 10
-1.932207895044548
 20
-2.335824331357375
 30
0.0
 11
-1.893448055311026
 21
-2.3158897692762861
 31
0.0
  0
LINE
  5
3FC0
  8
0
 10
-1.9327701591445461
 20
-2.3494300626573752
 30
0.0
 11
-1.932783658244545
 21
-2.336424509857375
 31
0.0
  0
LINE
  5
3FC1
  8
0
 10
-1.893448055311026
 20
-2.3702234133391791
 30
0.0
 11
-1.9321970207430459
 21
-2.3500265440801238
 31
0.0
  0
ARC
  5
3FC2
  8
0
 10
-1.9210219315718291
 20
-2.3471315089242251
 30
0.0
 40
0.0159052835039596
 50
134.6912397085669113
 51
137.6876072840923086
  0
ARC
  5
3FC3
  8
0
 10
-2.1225808401572079
 20
-2.5323861866855579
 30
0.0
 40
0.2636304950985489
 50
43.7667645138229702
 51
43.946545336549228
  0
ARC
  5
3FC4
  8
0
 10
-1.9275895743160869
 20
-2.3314263271445661
 30
0.0
 40
0.0072083519813121
 50
223.8988778101524133
 51
257.2542276229150957
  0
ARC
  5
3FC5
  8
0
 10
-12.5718610224336498
 20
-2.3388148506598041
 30
0.0
 40
11.3428796255740298
 50
1.88694515451755
 51
23.3555636043539998
  0
ARC
  5
3FC6
  8
0
 10
-12.8115642175186597
 20
-2.3772127214475001
 30
0.0
 40
11.8113551501929894
 50
23.2062776288211197
 51
37.2786772160444713
  0
ARC
  5
3FC7
  8
0
 10
-8.2379336306577038
 20
1.1042709950933249
 30
0.0
 40
6.0634141611422958
 50
37.2786772160444713
 51
56.5313195802745199
  0
ARC
  5
3FC8
  8
0
 10
-4.9371398551980699
 20
6.0965758291948404
 30
0.0
 40
0.0785717025253276
 50
56.7638997882427319
 51
129.0023936678873042
  0
LINE
  5
3FC9
  8
0
 10
-4.9865891807110279
 20
6.1576354446869308
 30
0.0
 11
-5.5131836612200633
 21
5.730765327362632
 31
0.0
  0
ARC
  5
3FCA
  8
0
 10
-5.4383950787110207
 20
5.6393503623869243
 30
0.0
 40
0.1181102362000077
 50
129.2873494927520142
 51
179.9999999999974136
  0
ARC
  5
3FCB
  8
0
 10
-5.4383950812805484
 20
5.6393503621548886
 30
0.0
 40
0.1181102336304782
 50
179.9999998874359051
 51
200.6405237274130968
  0
ARC
  5
3FCC
  8
0
 10
-4.9098036806494871
 20
1.0990014678580431
 30
0.0
 40
2.9481461332914969
 50
21.0497276414158314
 51
46.1897232046827924
  0
ARC
  5
3FCD
  8
0
 10
-1.4869380391858149
 20
4.9103820326118983
 30
0.0
 40
2.1783625923245662
 50
214.913466415304498
 51
230.6247892724107942
  0
ARC
  5
3FCE
  8
0
 10
302.0942023129774157
 20
215.4032300703846943
 30
0.0
 40
371.5951193702256887
 50
214.2706225213981099
 51
214.737164062911404
  0
ARC
  5
3FCF
  8
0
 10
-3.3921163089687019
 20
1.82979582079612
 30
0.0
 40
0.8527330305351888
 50
13.3536634168266701
 51
70.3768566607047319
  0
LINE
  5
3FD0
  8
0
 10
-3.1057412142101208
 20
2.6330037182098209
 30
0.0
 11
-3.3206948246110262
 21
2.51479882858693
 31
0.0
  0
ARC
  5
3FD1
  8
0
 10
-3.3783091282804429
 20
2.6200695934045148
 30
0.0
 40
0.1200055911722089
 50
228.7927991647669899
 51
298.6917261964238719
  0
LINE
  5
3FD2
  8
0
 10
-3.4573668937110269
 20
2.5297855325869292
 30
0.0
 11
-3.5506207928880338
 21
2.6145968889485189
 31
0.0
  0
ARC
  5
3FD3
  8
0
 10
-3138.7788371192777959
 20
-2132.72499586081085
 30
0.0
 40
3793.3271866283648706
 50
34.2579740248035876
 51
34.3103166450022883
  0
ARC
  5
3FD4
  8
0
 10
1.819662513213931
 20
8.3733346896964846
 30
0.0
 40
7.8740157480267223
 50
200.640520919469509
 51
201.575112340897789
  0
LINE
  5
3FD5
  8
0
 10
-3.562169744162929
 20
2.6315536238730601
 30
0.0
 11
-3.5658236882293961
 21
2.6290625535425831
 31
0.0
  0
ARC
  5
3FD6
  8
0
 10
-4767.3351713935926455
 20
-3242.9900940383331545
 30
0.0
 40
5764.3336221781391941
 50
34.2671227447182503
 51
34.3011681937293602
  0
LINE
  5
3FD7
  8
0
 10
-5.4952282870547959
 20
5.4591458311257242
 30
0.0
 11
-5.4915746463557289
 21
5.4616366946361259
 31
0.0
  0
ARC
  5
3FD8
  8
0
 10
-3.304003710881696
 20
2.0573506488401812
 30
0.0
 40
0.5905511807756848
 50
16.0468087275748417
 51
68.545468419458544
  0
ARC
  5
3FD9
  8
0
 10
-2.8499727073339081
 20
2.187943465125687
 30
0.0
 40
0.1181121520661679
 50
270.0012343873933105
 51
16.0468087244071604
  0
ARC
  5
3FDA
  8
0
 10
-2.6476240459654998
 20
3.0124331769714701
 30
0.0
 40
0.9640758397349259
 50
207.0212106108162118
 51
257.8843225831412838
  0
LINE
  5
3FDB
  8
0
 10
-5.3227090526053562
 20
5.8851686140208272
 30
0.0
 11
-3.088002083113988
 21
2.6069814284707031
 31
0.0
  0
LINE
  5
3FDC
  8
0
 10
-4.5115286975110278
 20
3.9457693283869308
 30
0.0
 11
-4.5351988649110293
 21
3.9252081699869299
 31
0.0
  0
ARC
  5
3FDD
  8
0
 10
-4.5274554103630829
 20
3.9162938441576922
 30
0.0
 40
0.0118078911464292
 50
130.9793066758180089
 51
215.5900331907047871
  0
LINE
  5
3FDE
  8
0
 10
-4.537057611190833
 20
3.9094218697260259
 30
0.0
 11
-4.482560664868422
 21
3.8294848271532049
 31
0.0
  0
ARC
  5
3FDF
  8
0
 10
-4.4728062442004823
 20
3.8361880605528151
 30
0.0
 40
0.0118356267504847
 50
214.4968315400678875
 51
298.853511562153983
  0
LINE
  5
3FE0
  8
0
 10
-4.4670947033937081
 20
3.825821751557354
 30
0.0
 11
-4.437721992111026
 21
3.8419725637869302
 31
0.0
  0
ARC
  5
3FE1
  8
0
 10
-4.442505381304481
 20
3.8460725814241039
 30
0.0
 40
0.0063000759361466
 50
319.3989141832681753
 51
16.5514854148639188
  0
ARC
  5
3FE2
  8
0
 10
-4.6205728432889197
 20
3.7887767620035149
 30
0.0
 40
0.1933192439435796
 50
17.6249268208750713
 51
20.3430470521477105
  0
ARC
  5
3FE3
  8
0
 10
-4.6205728432889197
 20
3.7887767620035149
 30
0.0
 40
0.1933192439435796
 50
49.8569767506074868
 51
54.4842614190250032
  0
ARC
  5
3FE4
  8
0
 10
-4.5094574437888939
 20
3.9419630979359161
 30
0.0
 40
0.0043332992312653
 50
74.0761149390484803
 51
118.5539071100000967
  0
ARC
  5
3FE5
  8
0
 10
-4.4007896470922416
 20
3.8777189461854018
 30
0.0
 40
0.071019825397517
 50
219.7859241850568139
 51
244.8601004162453023
  0
ARC
  5
3FE6
  8
0
 10
-4.4288744750651201
 20
3.8178727840477711
 30
0.0
 40
0.0049114243816852
 50
244.8601004162451034
 51
359.5779810338128755
  0
ARC
  5
3FE7
  8
0
 10
-4.7133866427840561
 20
3.7235461023828571
 30
0.0
 40
0.3043955290819935
 50
18.0449550921226916
 51
52.843522584950037
  0
ARC
  5
3FE8
  8
0
 10
-4.5315584077064388
 20
3.9621737905511658
 30
0.0
 40
0.0044584841183379
 50
62.9899881769177625
 51
168.2975017005236964
  0
ARC
  5
3FE9
  8
0
 10
-4.4754503075294219
 20
3.9647901165766211
 30
0.0
 40
0.0604981387056155
 50
181.621605972183886
 51
212.1364828370971907
  0
LINE
  5
3FEA
  8
0
 10
-4.5001192054110284
 20
3.8402231283869308
 30
0.0
 11
-4.5237893728110281
 21
3.8196619699869299
 31
0.0
  0
ARC
  5
3FEB
  8
0
 10
-4.5160459182630834
 20
3.8107476441576922
 30
0.0
 40
0.0118078911464292
 50
130.9793066758180089
 51
215.5900331907047871
  0
LINE
  5
3FEC
  8
0
 10
-4.5256481190908326
 20
3.8038756697260259
 30
0.0
 11
-4.4711511727684217
 21
3.7239386271532049
 31
0.0
  0
ARC
  5
3FED
  8
0
 10
-4.461396752100482
 20
3.7306418605528151
 30
0.0
 40
0.0118356267504847
 50
214.4968315400678875
 51
298.853511562153983
  0
LINE
  5
3FEE
  8
0
 10
-4.4556852112937078
 20
3.720275551557354
 30
0.0
 11
-4.4263125000110248
 21
3.7364263637869302
 31
0.0
  0
ARC
  5
3FEF
  8
0
 10
-4.4310958892044807
 20
3.7405263814241039
 30
0.0
 40
0.0063000759361466
 50
319.3989141832681753
 51
340.4788970233756231
  0
ARC
  5
3FF0
  8
0
 10
-4.4980479516888936
 20
3.8364168979359161
 30
0.0
 40
0.0043332992312653
 50
91.2261025632406444
 51
118.5539071100000967
  0
ARC
  5
3FF1
  8
0
 10
-4.3893801549922422
 20
3.7721727461854022
 30
0.0
 40
0.071019825397517
 50
219.7859241850568139
 51
244.8601004162453023
  0
ARC
  5
3FF2
  8
0
 10
-4.4174649829651189
 20
3.712326584047771
 30
0.0
 40
0.0049114243816852
 50
244.8601004162451034
 51
359.5779810338128755
  0
ARC
  5
3FF3
  8
0
 10
-4.8292626083415646
 20
3.5273948410349929
 30
0.0
 40
0.4558867096696144
 50
23.9270704837668902
 51
46.9614071933052912
  0
ARC
  5
3FF4
  8
0
 10
-4.5201489156064394
 20
3.8566275905511662
 30
0.0
 40
0.0044584841183379
 50
62.9899881769177625
 51
168.2975017005236964
  0
ARC
  5
3FF5
  8
0
 10
-4.4640408154294224
 20
3.859243916576621
 30
0.0
 40
0.0604981387056155
 50
181.621605972183886
 51
212.1364828370971907
  0
LINE
  5
3FF6
  8
0
 10
-4.340707621859746
 20
3.6939017268082921
 30
0.0
 11
-4.3636482187833137
 21
3.6725296171257078
 31
0.0
  0
ARC
  5
3FF7
  8
0
 10
-4.3555993551589376
 20
3.663890051877265
 30
0.0
 40
0.0118078911464292
 50
132.9728117869948107
 51
217.5835383018815889
  0
LINE
  5
3FF8
  8
0
 10
-4.3649566945768088
 20
3.656688212366094
 30
0.0
 11
-4.3077120244588301
 21
3.5786952916819672
 31
0.0
  0
ARC
  5
3FF9
  8
0
 10
-4.2981966874670654
 20
3.5857337874381581
 30
0.0
 40
0.0118356267504847
 50
216.4903366512446894
 51
300.8470166733308133
  0
LINE
  5
3FFA
  8
0
 10
-4.2921279988334131
 20
3.5755724352227989
 30
0.0
 11
-4.2633348901188208
 21
3.5927352378587489
 31
0.0
  0
ARC
  5
3FFB
  8
0
 10
-4.2682580083614372
 20
3.5966663780967041
 30
0.0
 40
0.0063000759361466
 50
321.3924192944450056
 51
18.5449905260407597
  0
ARC
  5
3FFC
  8
0
 10
-4.4442245954589072
 20
3.5332109436097778
 30
0.0
 40
0.1933192439435795
 50
19.6184319320518803
 51
22.3365521633245585
  0
ARC
  5
3FFD
  8
0
 10
-4.4442245954589072
 20
3.5332109436097778
 30
0.0
 40
0.1933192439435795
 50
51.8504818617843597
 51
56.4777665302018193
  0
ARC
  5
3FFE
  8
0
 10
-4.3385052173831582
 20
3.6901698510401042
 30
0.0
 40
0.0043332992312653
 50
76.0696200502252537
 51
120.5474122211769981
  0
ARC
  5
3FFF
  8
0
 10
-4.2276683785209519
 20
3.6297447219621981
 30
0.0
 40
0.071019825397517
 50
221.7794292962335874
 51
246.8536055274221042
  0
ARC
  5
4000
  8
0
 10
-4.2536543878374049
 20
3.568957815438877
 30
0.0
 40
0.0049114243816852
 50
246.8536055274219052
 51
1.5714861449896831
  0
ARC
  5
4001
  8
0
 10
-4.5347130945650891
 20
3.4647911229378399
 30
0.0
 40
0.3043955290819934
 50
20.0384602032995005
 51
54.837027696126853
  0
ARC
  5
4002
  8
0
 10
-4.3612958586465149
 20
3.7095995029381079
 30
0.0
 40
0.0044584841183379
 50
64.9834932880946354
 51
170.2910068117006119
  0
ARC
  5
4003
  8
0
 10
-4.3053127284608488
 20
3.7141660335643261
 30
0.0
 40
0.0604981387056155
 50
183.6151110833606879
 51
214.1299879482739925
  0
LINE
  5
4004
  8
0
 10
-4.3656759972708574
 20
3.6430198894792771
 30
0.0
 11
-4.389346164670858
 21
3.6224587310792771
 31
0.0
  0
ARC
  5
4005
  8
0
 10
-4.3816027101229116
 20
3.6135444052500381
 30
0.0
 40
0.0118078911464292
 50
130.9793066758180089
 51
215.5900331907047871
  0
LINE
  5
4006
  8
0
 10
-4.3912049109506617
 20
3.6066724308183722
 30
0.0
 11
-4.3367079646282507
 21
3.5267353882455512
 31
0.0
  0
ARC
  5
4007
  8
0
 10
-4.3269535439603111
 20
3.533438621645161
 30
0.0
 40
0.0118356267504847
 50
214.4968315400678875
 51
298.853511562153983
  0
LINE
  5
4008
  8
0
 10
-4.3212420031535368
 20
3.5230723126496999
 30
0.0
 11
-4.2918692918708539
 21
3.539223124879276
 31
0.0
  0
ARC
  5
4009
  8
0
 10
-4.2966526810643098
 20
3.5433231425164511
 30
0.0
 40
0.0063000759361466
 50
319.3989141832681753
 51
334.9417906567202863
  0
ARC
  5
400A
  8
0
 10
-4.3636047435487226
 20
3.639213659028262
 30
0.0
 40
0.0043332992312653
 50
98.8944494898918975
 51
118.5539071100000967
  0
ARC
  5
400B
  8
0
 10
-4.2549369468520712
 20
3.5749695072777481
 30
0.0
 40
0.071019825397517
 50
219.7859241850568139
 51
244.8601004162453023
  0
ARC
  5
400C
  8
0
 10
-4.2830217748249479
 20
3.5151233451401169
 30
0.0
 40
0.0049114243816852
 50
244.8601004162451034
 51
359.5779810338128755
  0
ARC
  5
400D
  8
0
 10
-4.73432515370716
 20
3.3020703910647611
 30
0.0
 40
0.5034957528820313
 50
25.0289172016993398
 51
45.8595604753730015
  0
ARC
  5
400E
  8
0
 10
-4.3857057074662684
 20
3.6594243516435121
 30
0.0
 40
0.0044584841183379
 50
62.9899881769177625
 51
168.2975017005236964
  0
ARC
  5
400F
  8
0
 10
-4.3295976072892506
 20
3.6620406776689669
 30
0.0
 40
0.0604981387056155
 50
181.621605972183886
 51
212.1364828370971907
  0
LINE
  5
4010
  8
0
 10
-4.2470819238730364
 20
3.4601274529735302
 30
0.0
 11
-4.2669257467110269
 21
3.4428900596869298
 31
0.0
  0
ARC
  5
4011
  8
0
 10
-4.2591822921630822
 20
3.4339757338576922
 30
0.0
 40
0.0118078911464292
 50
130.9793066758180089
 51
215.5900331907047871
  0
LINE
  5
4012
  8
0
 10
-4.2687844929908323
 20
3.427103759426025
 30
0.0
 11
-4.2142875466684213
 21
3.347166716853204
 31
0.0
  0
ARC
  5
4013
  8
0
 10
-4.2045331260004799
 20
3.3538699502528142
 30
0.0
 40
0.0118356267504847
 50
214.4968315400678875
 51
298.853511562153983
  0
LINE
  5
4014
  8
0
 10
-4.1988215851937074
 20
3.3435036412573531
 30
0.0
 11
-4.1657667743820141
 21
3.361679084360508
 31
0.0
  0
ARC
  5
4015
  8
0
 10
-4.0962269620780312
 20
3.4380137388935141
 30
0.0
 40
0.1184259996903191
 50
225.1779102944271926
 51
239.3269372185405075
  0
ARC
  5
4016
  8
0
 10
-4.1554378338078406
 20
3.3386139129567871
 30
0.0
 40
0.00273602105783
 50
243.9205178844634929
 51
44.9060658488666888
  0
ARC
  5
4017
  8
0
 10
-4.5605561187151071
 20
3.1184019485412828
 30
0.0
 40
0.4637266341405879
 50
28.6226994518038786
 51
50.749912802675631
  0
ARC
  5
4018
  8
0
 10
-4.2677870960168054
 20
3.4742985617976312
 30
0.0
 40
0.003271424550673
 50
78.8283292229880175
 51
208.800719368296086
  0
ARC
  5
4019
  8
0
 10
-4.1762490250743598
 20
3.5097084121418729
 30
0.0
 40
0.1013914582591587
 50
201.3942450414330096
 51
215.8752447516897064
  0
LINE
  5
401A
  8
0
 10
-4.1778722254110292
 20
3.4568044552869308
 30
0.0
 11
-4.2015423928110289
 21
3.4362432968869312
 31
0.0
  0
ARC
  5
401B
  8
0
 10
-4.1937989382630843
 20
3.4273289710576931
 30
0.0
 40
0.0118078911464292
 50
130.9793066758180089
 51
215.5900331907047871
  0
LINE
  5
401C
  8
0
 10
-4.2034011390908343
 20
3.4204569966260259
 30
0.0
 11
-4.1489041927684234
 21
3.3405199540532049
 31
0.0
  0
ARC
  5
401D
  8
0
 10
-4.139149772100482
 20
3.3472231874528151
 30
0.0
 40
0.0118356267504847
 50
214.4968315400678875
 51
298.853511562153983
  0
LINE
  5
401E
  8
0
 10
-4.1334382312937086
 20
3.336856878457354
 30
0.0
 11
-4.1040655200110256
 21
3.3530076906869302
 31
0.0
  0
ARC
  5
401F
  8
0
 10
-4.1088489092044824
 20
3.3571077083241052
 30
0.0
 40
0.0063000759361466
 50
319.3989141832681753
 51
16.5514854148639188
  0
ARC
  5
4020
  8
0
 10
-4.2869163711889211
 20
3.2998118889035162
 30
0.0
 40
0.1933192439435796
 50
17.6249268208750713
 51
20.3430470521477105
  0
ARC
  5
4021
  8
0
 10
-4.2869163711889211
 20
3.2998118889035162
 30
0.0
 40
0.1933192439435796
 50
49.8569767506074868
 51
54.4842614190250032
  0
ARC
  5
4022
  8
0
 10
-4.1758009716888953
 20
3.452998224835917
 30
0.0
 40
0.0043332992312653
 50
74.0761149390484803
 51
118.5539071100000967
  0
ARC
  5
4023
  8
0
 10
-4.067133174992243
 20
3.3887540730854031
 30
0.0
 40
0.071019825397517
 50
219.7859241850568139
 51
244.8601004162453023
  0
ARC
  5
4024
  8
0
 10
-4.0952180029651197
 20
3.3289079109477711
 30
0.0
 40
0.0049114243816852
 50
244.8601004162451034
 51
359.5779810338128755
  0
ARC
  5
4025
  8
0
 10
-4.3797301706840566
 20
3.2345812292828571
 30
0.0
 40
0.3043955290819935
 50
18.0449550921226916
 51
52.843522584950037
  0
ARC
  5
4026
  8
0
 10
-4.1979019356064402
 20
3.4732089174511671
 30
0.0
 40
0.0044584841183379
 50
62.9899881769177625
 51
168.2975017005236964
  0
ARC
  5
4027
  8
0
 10
-4.1417938354294233
 20
3.475825243476621
 30
0.0
 40
0.0604981387056155
 50
181.621605972183886
 51
212.1364828370971907
  0
LINE
  5
4028
  8
0
 10
-4.2851192536110272
 20
3.4057044947869302
 30
0.0
 11
-4.2900406820847081
 21
3.402349319048326
 31
0.0
  0
ARC
  5
4029
  8
0
 10
-4.2789521499110332
 20
3.3860844725869308
 30
0.0
 40
0.0196850393999941
 50
124.2841453977220993
 51
214.278114070756402
  0
LINE
  5
402A
  8
0
 10
-4.295218163533435
 20
3.374997652618374
 30
0.0
 11
-4.2172623268202338
 21
3.2606507128600182
 31
0.0
  0
ARC
  5
402B
  8
0
 10
-4.2212918036541573
 20
3.301507370639988
 30
0.0
 40
0.0196851333874449
 50
214.4197623686231964
 51
304.2840320617631846
  0
LINE
  5
402C
  8
0
 10
-4.2102032507110279
 20
3.2852424245869312
 30
0.0
 11
-4.1942441794992069
 21
3.2961496366122631
 31
0.0
  0
ARC
  5
402D
  8
0
 10
-5.1773122258172419
 20
2.5731683844474271
 30
0.0
 40
1.220296961675063
 50
36.3320120770401402
 51
43.0189791688993424
  0
ARC
  5
402E
  8
0
 10
-4.2009825292492016
 20
3.2717173368853971
 30
0.0
 40
0.0196850698823472
 50
214.2069451631479069
 51
304.284108585221702
  0
LINE
  5
402F
  8
0
 10
-4.1898939903550696
 20
3.2554524581134521
 30
0.0
 11
-4.173806146742419
 21
3.2664203188340499
 31
0.0
  0
LINE
  5
4030
  8
0
 10
-4.1420128981343316
 20
3.3060104295879089
 30
0.0
 11
-4.161856720972323
 21
3.288773036301309
 31
0.0
  0
ARC
  5
4031
  8
0
 10
-4.1541132664243783
 20
3.2798587104720709
 30
0.0
 40
0.0118078911464292
 50
130.9793066758180089
 51
215.5900331907047018
  0
LINE
  5
4032
  8
0
 10
-4.1637154672521284
 20
3.272986736040405
 30
0.0
 11
-4.1092185209297174
 21
3.193049693467584
 31
0.0
  0
ARC
  5
4033
  8
0
 10
-4.099464100261776
 20
3.1997529268671929
 30
0.0
 40
0.0118356267504847
 50
214.4968315400678023
 51
298.853511562153983
  0
LINE
  5
4034
  8
0
 10
-4.0937525594550026
 20
3.1893866178717332
 30
0.0
 11
-4.0606977486433102
 21
3.2075620609748872
 31
0.0
  0
ARC
  5
4035
  8
0
 10
-3.9911579363393268
 20
3.2838967155078929
 30
0.0
 40
0.1184259996903191
 50
225.1779102944271926
 51
239.3269372185405075
  0
ARC
  5
4036
  8
0
 10
-4.0503688080691367
 20
3.1844968895711658
 30
0.0
 40
0.00273602105783
 50
243.9205178844634077
 51
44.9060658488666888
  0
ARC
  5
4037
  8
0
 10
-4.4554870929764032
 20
2.964284925155662
 30
0.0
 40
0.4637266341405879
 50
28.6226994518038786
 51
50.749912802675631
  0
ARC
  5
4038
  8
0
 10
-4.1627180702781006
 20
3.3201815384120099
 30
0.0
 40
0.003271424550673
 50
78.8283292229880175
 51
208.800719368296086
  0
ARC
  5
4039
  8
0
 10
-4.0711799993356559
 20
3.3555913887562521
 30
0.0
 40
0.1013914582591587
 50
201.394245041432896
 51
215.8752447516897064
  0
LINE
  5
403A
  8
0
 10
-4.0404644458156422
 20
3.2459789512072561
 30
0.0
 11
-4.0603082686536327
 21
3.2287415579206549
 31
0.0
  0
ARC
  5
403B
  8
0
 10
-4.052564814105688
 20
3.2198272320914172
 30
0.0
 40
0.0118078911464292
 50
130.9793066758180089
 51
215.5900331907047018
  0
LINE
  5
403C
  8
0
 10
-4.0621670149334381
 20
3.2129552576597509
 30
0.0
 11
-4.0076700686110271
 21
3.1330182150869299
 31
0.0
  0
ARC
  5
403D
  8
0
 10
-3.9979156479430862
 20
3.1397214484865401
 30
0.0
 40
0.0118356267504847
 50
214.4968315400678023
 51
298.853511562153983
  0
LINE
  5
403E
  8
0
 10
-3.9922041071363128
 20
3.129355139491079
 30
0.0
 11
-3.9591492963246191
 21
3.147530582594233
 31
0.0
  0
ARC
  5
403F
  8
0
 10
-3.8896094840206361
 20
3.2238652371272392
 30
0.0
 40
0.1184259996903191
 50
225.1779102944271926
 51
239.3269372185405075
  0
ARC
  5
4040
  8
0
 10
-3.9488203557504469
 20
3.1244654111905121
 30
0.0
 40
0.00273602105783
 50
243.9205178844634077
 51
44.9060658488666888
  0
ARC
  5
4041
  8
0
 10
-4.3539386406577121
 20
2.9042534467750079
 30
0.0
 40
0.4637266341405879
 50
28.6226994518038786
 51
50.749912802675631
  0
ARC
  5
4042
  8
0
 10
-4.0611696179594112
 20
3.2601500600313571
 30
0.0
 40
0.003271424550673
 50
78.8283292229880175
 51
208.800719368296086
  0
ARC
  5
4043
  8
0
 10
-3.9696315470169661
 20
3.2955599103755979
 30
0.0
 40
0.1013914582591587
 50
201.394245041432896
 51
215.8752447516897064
  0
LINE
  5
4044
  8
0
 10
-4.0572270189806838
 20
3.1821558374171599
 30
0.0
 11
-4.0770708418186761
 21
3.16491844413056
 31
0.0
  0
ARC
  5
4045
  8
0
 10
-4.0693273872707296
 20
3.156004118301321
 30
0.0
 40
0.0118078911464292
 50
130.9793066758180089
 51
215.5900331907047018
  0
LINE
  5
4046
  8
0
 10
-4.0789295880984797
 20
3.1491321438696551
 30
0.0
 11
-4.0244326417760687
 21
3.0691951012968341
 31
0.0
  0
ARC
  5
4047
  8
0
 10
-4.0146782211081291
 20
3.0758983346964439
 30
0.0
 40
0.0118356267504847
 50
214.4968315400678023
 51
298.853511562153983
  0
LINE
  5
4048
  8
0
 10
-4.0089666803013548
 20
3.0655320257009828
 30
0.0
 11
-3.975911869489662
 21
3.0837074688041382
 31
0.0
  0
ARC
  5
4049
  8
0
 10
-3.906372057185679
 20
3.160042123337143
 30
0.0
 40
0.1184259996903191
 50
225.1779102944271926
 51
239.3269372185405075
  0
ARC
  5
404A
  8
0
 10
-3.9655829289154889
 20
3.0606422974004159
 30
0.0
 40
0.00273602105783
 50
243.9205178844634077
 51
44.9060658488666888
  0
ARC
  5
404B
  8
0
 10
-4.3707012138227546
 20
2.8404303329849121
 30
0.0
 40
0.4637266341405879
 50
28.6226994518038786
 51
50.749912802675631
  0
ARC
  5
404C
  8
0
 10
-4.0779321911244528
 20
3.1963269462412609
 30
0.0
 40
0.003271424550673
 50
78.8283292229880175
 51
208.800719368296086
  0
ARC
  5
404D
  8
0
 10
-3.986394120182009
 20
3.2317367965855031
 30
0.0
 40
0.1013914582591587
 50
201.394245041432896
 51
215.8752447516897064
  0
LINE
  5
404E
  8
0
 10
-3.8017148384851298
 20
2.83121538374871
 30
0.0
 11
-3.7290549327955271
 21
2.724636605185875
 31
0.0
  0
ARC
  5
404F
  8
0
 10
-3.7193005121275871
 20
2.7313398385854848
 30
0.0
 40
0.0118356267504847
 50
214.4968315400678023
 51
298.853511562153983
  0
LINE
  5
4050
  8
0
 10
-3.7135889713208128
 20
2.720973529590025
 30
0.0
 11
-3.68053416050912
 21
2.739148972693179
 31
0.0
  0
ARC
  5
4051
  8
0
 10
-3.4976530370404819
 20
2.9804815887094991
 30
0.0
 40
0.296943913493498
 50
225.590801510553689
 51
232.2509674513005962
  0
ARC
  5
4052
  8
0
 10
-3.6790924001993921
 20
2.7460273135997548
 30
0.0
 40
0.0004880564195787
 50
224.0356532852458997
 51
350.4850932008178006
  0
ARC
  5
4053
  8
0
 10
-4.4472397850843262
 20
2.1211131541946719
 30
0.0
 40
0.9905589329385882
 50
39.1083428485099418
 51
46.6034569575872695
  0
LINE
  5
4054
  8
0
 10
-3.8359794407156409
 20
2.9459259429072562
 30
0.0
 11
-3.8558232635536331
 21
2.9286885496206549
 31
0.0
  0
ARC
  5
4055
  8
0
 10
-3.8480798090056871
 20
2.9197742237914168
 30
0.0
 40
0.0118078911464292
 50
130.9793066758180089
 51
215.5900331907047018
  0
LINE
  5
4056
  8
0
 10
-3.8576820098334368
 20
2.912902249359751
 30
0.0
 11
-3.8031850635110258
 21
2.83296520678693
 31
0.0
  0
ARC
  5
4057
  8
0
 10
-3.7934306428430862
 20
2.8396684401865402
 30
0.0
 40
0.0118356267504847
 50
214.4968315400678023
 51
298.853511562153983
  0
LINE
  5
4058
  8
0
 10
-3.7877191020363119
 20
2.8293021311910791
 30
0.0
 11
-3.7546642912246191
 21
2.8474775742942331
 31
0.0
  0
ARC
  5
4059
  8
0
 10
-3.7042159870643738
 20
2.883737728046158
 30
0.0
 40
0.0689339000033572
 50
215.0226447848681914
 51
236.3659673506645902
  0
ARC
  5
405A
  8
0
 10
-4.1494536355577116
 20
2.6042004384750079
 30
0.0
 40
0.4637266341405879
 50
28.6226994518038786
 51
50.749912802675631
  0
ARC
  5
405B
  8
0
 10
-3.8566846128594099
 20
2.9600970517313572
 30
0.0
 40
0.003271424550673
 50
78.8283292229880175
 51
208.800719368296086
  0
ARC
  5
405C
  8
0
 10
-3.7651465419169661
 20
2.995506902075598
 30
0.0
 40
0.1013914582591587
 50
201.394245041432896
 51
215.8752447516897064
  0
LINE
  5
405D
  8
0
 10
-3.9221594660156418
 20
3.0727843780072561
 30
0.0
 11
-3.942003288853634
 21
3.0555469847206549
 31
0.0
  0
ARC
  5
405E
  8
0
 10
-3.934259834305688
 20
3.0466326588914172
 30
0.0
 40
0.0118078911464292
 50
130.9793066758180089
 51
215.5900331907047018
  0
LINE
  5
405F
  8
0
 10
-3.9438620351334381
 20
3.0397606844597509
 30
0.0
 11
-3.8893650888110272
 21
2.9598236418869299
 31
0.0
  0
ARC
  5
4060
  8
0
 10
-3.8796106681430871
 20
2.9665268752865401
 30
0.0
 40
0.0118356267504847
 50
214.4968315400678023
 51
298.853511562153983
  0
LINE
  5
4061
  8
0
 10
-3.8738991273363128
 20
2.956160566291079
 30
0.0
 11
-3.84084431652462
 21
2.974336009394233
 31
0.0
  0
ARC
  5
4062
  8
0
 10
-3.771304504220637
 20
3.0506706639272392
 30
0.0
 40
0.1184259996903191
 50
225.1779102944271926
 51
239.3269372185405075
  0
ARC
  5
4063
  8
0
 10
-3.8305153759504469
 20
2.9512708379905122
 30
0.0
 40
0.00273602105783
 50
243.9205178844634077
 51
44.9060658488666888
  0
ARC
  5
4064
  8
0
 10
-4.2356336608577134
 20
2.7310588735750079
 30
0.0
 40
0.4637266341405879
 50
28.6226994518038786
 51
50.749912802675631
  0
ARC
  5
4065
  8
0
 10
-3.9428646381594108
 20
3.0869554868313571
 30
0.0
 40
0.003271424550673
 50
78.8283292229880175
 51
208.800719368296086
  0
ARC
  5
4066
  8
0
 10
-3.8513265672169661
 20
3.1223653371755979
 30
0.0
 40
0.1013914582591587
 50
201.394245041432896
 51
215.8752447516897064
  0
LINE
  5
4067
  8
0
 10
-4.02090338257364
 20
3.0658320828962409
 30
0.0
 11
-3.939235988247999
 21
2.9437156922716712
 31
0.0
  0
ARC
  5
4068
  8
0
 10
-3.9294815675800581
 20
2.9504189256712801
 30
0.0
 40
0.0118356267504847
 50
214.4968315400678023
 51
298.853511562153983
  0
LINE
  5
4069
  8
0
 10
-3.9237700267732851
 20
2.9400526166758199
 30
0.0
 11
-3.8926272249257141
 21
2.9571767268780502
 31
0.0
  0
ARC
  5
406A
  8
0
 10
-3.6978268094599889
 20
3.1326382173309151
 30
0.0
 40
0.2641840201451073
 50
221.9077425362445126
 51
228.1669887606699945
  0
ARC
  5
406B
  8
0
 10
-4.3601398204619306
 20
2.641902186729693
 30
0.0
 40
0.5676352837456619
 50
36.5645531349807271
 51
49.5811236674314912
  0
ARC
  5
406C
  8
0
 10
-3.7391192730969478
 20
2.7600741051733051
 30
0.0
 40
0.0118713368518275
 50
225.461754634794886
 51
303.8399724454732223
  0
LINE
  5
406D
  8
0
 10
-3.732508419811027
 20
2.7502138182869298
 30
0.0
 11
-3.7003489646065311
 21
2.771775203119029
 31
0.0
  0
ARC
  5
406E
  8
0
 10
4.5572685673132609
 20
11.2081635211931303
 30
0.0
 40
11.8146350432513003
 50
225.603922812604992
 51
226.5639194953886033
  0
ARC
  5
406F
  8
0
 10
-3.9588418041523101
 20
2.993564851375075
 30
0.0
 40
0.0118911883873728
 50
230.0540343231562872
 51
299.8740780579282159
  0
LINE
  5
4070
  8
0
 10
-3.9529188569110261
 20
2.9832537380869302
 30
0.0
 11
-3.9210064599150019
 21
3.0015849733733941
 31
0.0
  0
ARC
  5
4071
  8
0
 10
-3.5178870107271019
 20
3.257771105768966
 30
0.0
 40
0.4809366741406342
 50
221.1142744884407989
 51
224.6745327583805931
  0
ARC
  5
4072
  8
0
 10
-5.1116554958006448
 20
1.8750728189729851
 30
0.0
 40
1.63002416935938
 50
40.5975288361909676
 51
43.4914175716195288
  0
ARC
  5
4073
  8
0
 10
-3.8723907146551819
 20
3.0394348967847509
 30
0.0
 40
0.0673710238402729
 50
217.2124504844863964
 51
241.803802862180703
  0
LINE
  5
4074
  8
0
 10
-4.6404710580155397
 20
4.0458332874024991
 30
0.0
 11
-4.6641412254155412
 21
4.0252721290024978
 31
0.0
  0
ARC
  5
4075
  8
0
 10
-4.6563977708675948
 20
4.0163578031732596
 30
0.0
 40
0.0118078911464292
 50
130.9793066758180089
 51
215.5900331907047871
  0
LINE
  5
4076
  8
0
 10
-4.6659999716953449
 20
4.0094858287415942
 30
0.0
 11
-4.6115030253729339
 21
3.9295487861687728
 31
0.0
  0
ARC
  5
4077
  8
0
 10
-4.6017486047049942
 20
3.9362520195683821
 30
0.0
 40
0.0118356267504847
 50
214.4968315400678875
 51
298.853511562153983
  0
LINE
  5
4078
  8
0
 10
-4.59603706389822
 20
3.9258857105729219
 30
0.0
 11
-4.566664352615537
 21
3.9420365228024981
 31
0.0
  0
ARC
  5
4079
  8
0
 10
-4.5714477418089929
 20
3.9461365404396722
 30
0.0
 40
0.0063000759361466
 50
319.3989141832681753
 51
16.5514854148639188
  0
ARC
  5
407A
  8
0
 10
-4.7495152037934316
 20
3.8888407210190832
 30
0.0
 40
0.1933192439435796
 50
17.6249268208750713
 51
20.3430470521477105
  0
ARC
  5
407B
  8
0
 10
-4.7495152037934316
 20
3.8888407210190832
 30
0.0
 40
0.1933192439435796
 50
49.8569767506074868
 51
54.4842614190250032
  0
ARC
  5
407C
  8
0
 10
-4.6383998042934058
 20
4.0420270569514836
 30
0.0
 40
0.0043332992312653
 50
74.0761149390484803
 51
118.5539071100000967
  0
ARC
  5
407D
  8
0
 10
-4.5297320075967544
 20
3.9777829052009701
 30
0.0
 40
0.071019825397517
 50
219.7859241850568139
 51
244.8601004162453023
  0
ARC
  5
407E
  8
0
 10
-4.557816835569632
 20
3.9179367430633381
 30
0.0
 40
0.0049114243816852
 50
244.8601004162451034
 51
359.5779810338128755
  0
ARC
  5
407F
  8
0
 10
-4.842329003288568
 20
3.823610061398425
 30
0.0
 40
0.3043955290819935
 50
18.0449550921226916
 51
52.843522584950037
  0
ARC
  5
4080
  8
0
 10
-4.6605007682109507
 20
4.0622377495667337
 30
0.0
 40
0.0044584841183379
 50
62.9899881769177625
 51
168.2975017005236964
  0
ARC
  5
4081
  8
0
 10
-4.6043926680339338
 20
4.064854075592188
 30
0.0
 40
0.0604981387056155
 50
181.621605972183886
 51
212.1364828370971907
  0
LINE
  5
4082
  8
0
 10
-4.694532983211027
 20
4.0180606601869302
 30
0.0
 11
-4.7049563082312513
 21
4.0109545756165961
 31
0.0
  0
ARC
  5
4083
  8
0
 10
-4.6938677760258791
 20
3.994689729196653
 30
0.0
 40
0.0196850393836004
 50
124.2841455419129062
 51
214.2841452049727025
  0
LINE
  5
4084
  8
0
 10
-4.7101326225110292
 20
3.9836011970869301
 30
0.0
 11
-4.652472255384505
 21
3.899023995530972
 31
0.0
  0
ARC
  5
4085
  8
0
 10
-4.6362074089207521
 20
3.910112527672073
 30
0.0
 40
0.0196850393835937
 50
214.2841453155153886
 51
304.2841451489970837
  0
LINE
  5
4086
  8
0
 10
-4.6251188768269218
 20
3.8938476811760929
 30
0.0
 11
-4.6146955518110264
 21
3.9009537656869311
 31
0.0
  0
ARC
  5
4087
  8
0
 10
-4.622153583501813
 20
3.9027533790780349
 30
0.0
 40
0.0076720821853144
 50
346.4339297561714943
 51
23.8402867395042506
  0
ARC
  5
4088
  8
0
 10
-4.9398559023627078
 20
3.7539185241717998
 30
0.0
 40
0.3585072294665033
 50
25.0748118805403486
 51
35.1164352815705314
  0
ARC
  5
4089
  8
0
 10
-4.898003924678787
 20
3.8069029726350321
 30
0.0
 40
0.2944251716422215
 50
31.3646381960852487
 51
45.6417988727752828
  0
ARC
  5
408A
  8
0
 10
-4.6940683483278738
 20
4.0150926782658392
 30
0.0
 40
0.0030041308657604
 50
50.5359992823754567
 51
98.8973868473613749
  0
ARC
  5
408B
  8
0
 10
-5.0252467064585602
 20
3.1767934899200712
 30
0.0
 40
0.7238458266408418
 50
34.2004971519937016
 51
40.1263288049192681
  0
ARC
  5
408C
  8
0
 10
-3.9043642030691981
 20
4.0264620303891334
 30
0.0
 40
0.6846704777156811
 50
214.030801044414801
 51
220.2960249124948007
  0
ARC
  5
408D
  8
0
 10
1.4112004178311779
 20
8.0289636499867676
 30
0.0
 40
7.3398989984493248
 50
216.3987487100642113
 51
219.0612571002853883
  0
ARC
  5
408E
  8
0
 10
1.4112004178311779
 20
8.0289636499867676
 30
0.0
 40
7.3398989984493248
 50
220.1723137551028913
 51
221.5635199169996099
  0
LINE
  5
408F
  8
0
 10
-4.4057241198527102
 20
3.5526363350634611
 30
0.0
 11
-4.4133794314525012
 21
3.5474173389833759
 31
0.0
  0
ARC
  5
4090
  8
0
 10
-4.4244679637110274
 20
3.5636821853869312
 30
0.0
 40
0.0196850394000014
 50
214.2841453353028953
 51
304.2841456966137912
  0
LINE
  5
4091
  8
0
 10
-4.4407328101845058
 20
3.5525936532309719
 30
0.0
 11
-4.6411649494771927
 21
3.846590904453675
 31
0.0
  0
ARC
  5
4092
  8
0
 10
-4.6249008082550498
 20
3.857678955805703
 30
0.0
 40
0.0196841858475028
 50
123.5985630718890036
 51
214.2841453353053112
  0
ARC
  5
4093
  8
0
 10
-5.6619213596907603
 20
2.9842391130717991
 30
0.0
 40
1.358214147984939
 50
30.6167632309462192
 51
31.6904865663999189
  0
ARC
  5
4094
  8
0
 10
-5.6619213596907603
 20
2.9842391130717991
 30
0.0
 40
1.358214147984939
 50
37.2962063157039196
 51
40.9311081120471911
  0
ARC
  5
4095
  8
0
 10
-125.290363063357205
 20
180.8547368366652961
 30
0.0
 40
214.4395169452706114
 50
304.2837064766616209
 51
304.2854653597087236
  0
ARC
  5
4096
  8
0
 10
-4.5095886921538284
 20
3.688567241873316
 30
0.0
 40
0.0197251725835281
 50
217.1144128599582075
 51
304.2374603685487955
  0
LINE
  5
4097
  8
0
 10
-4.4815607635110259
 20
3.7094149214869301
 30
0.0
 11
-4.4937273515396452
 21
3.7011203702239661
 31
0.0
  0
ARC
  5
4098
  8
0
 10
-4.5048158837110259
 20
3.7173852166869299
 30
0.0
 40
0.0196850394000003
 50
214.2841453353007921
 51
304.2841453896339772
  0
LINE
  5
4099
  8
0
 10
-4.5210807301845062
 20
3.7062966845309719
 30
0.0
 11
-4.578741097319293
 21
3.7908738860812972
 31
0.0
  0
ARC
  5
409A
  8
0
 10
-4.5624762508963608
 20
3.8019624182027938
 30
0.0
 40
0.0196850393388232
 50
124.2841452185178071
 51
214.2841453353003942
  0
LINE
  5
409B
  8
0
 10
-4.5735647829847066
 20
3.8182272646483271
 30
0.0
 11
-4.5648842518755952
 21
3.8241452023349578
 31
0.0
  0
ARC
  5
409C
  8
0
 10
-4.82458919640123
 20
3.5479108706702811
 30
0.0
 40
0.3791464943808604
 50
25.2119127844176099
 51
46.7665508848062004
  0
LINE
  5
409D
  8
0
 10
-4.615120405137624
 20
4.0977188355670568
 30
0.0
 11
-4.6429086762944252
 21
4.0831981590810917
 31
0.0
  0
ARC
  5
409E
  8
0
 10
-4.6483772494257174
 20
4.0936633872789647
 30
0.0
 40
0.0118078911464292
 50
212.9784544958623087
 51
297.5891810107490869
  0
LINE
  5
409F
  8
0
 10
-4.658282597827113
 20
4.0872360731919697
 30
0.0
 11
-4.7127798191711348
 21
4.1671729282685703
 31
0.0
  0
ARC
  5
40A0
  8
0
 10
-4.7029759247769816
 20
4.1738035930380368
 30
0.0
 40
0.0118356267504847
 50
129.714976124413198
 51
214.0716561464992083
  0
LINE
  5
40A1
  8
0
 10
-4.710538522222917
 20
4.182907942572605
 30
0.0
 11
-4.6847719981407776
 21
4.2043483516287621
 31
0.0
  0
ARC
  5
40A2
  8
0
 10
-4.6827032730989444
 20
4.1983976093639264
 30
0.0
 40
0.0063000759361466
 50
52.0170022717031912
 51
109.1695735032990058
  0
ARC
  5
40A3
  8
0
 10
-4.8011012297536162
 20
4.0535778738281421
 30
0.0
 40
0.1933192439435795
 50
48.225440634419428
 51
50.9435608656920067
  0
ARC
  5
40A4
  8
0
 10
-4.8011012297536162
 20
4.0535778738281421
 30
0.0
 40
0.1933192439435795
 50
14.0842262675421708
 51
18.711510935959609
  0
ARC
  5
40A5
  8
0
 10
-4.6179066408455567
 20
4.1010376264323449
 30
0.0
 40
0.0043332992312653
 50
310.0145805765669138
 51
354.4923727475186865
  0
ARC
  5
40A6
  8
0
 10
-4.6380026341554688
 20
4.2256656815641476
 30
0.0
 40
0.071019825397517
 50
183.7083872703217935
 51
208.7825635015103103
  0
ARC
  5
40A7
  8
0
 10
-4.703972614822173
 20
4.221389896758466
 30
0.0
 40
0.0049114243816852
 50
68.990506652754263
 51
183.7083872703219072
  0
ARC
  5
40A8
  8
0
 10
-4.8957346382801852
 20
3.9910162376449909
 30
0.0
 40
0.3043955290819934
 50
15.7249651016171299
 51
50.5235325944444966
  0
ARC
  5
40A9
  8
0
 10
-4.6071688614398427
 20
4.0730800729716607
 30
0.0
 40
0.0044584841183379
 50
260.2709859860432857
 51
5.5784995096493608
  0
ARC
  5
40AA
  8
0
 10
-4.5842321696779988
 20
4.124352602052717
 30
0.0
 40
0.0604981387056155
 50
216.4320048494699051
 51
246.9468817143830961
  0
LINE
  5
40AB
  8
0
 10
-4.7091997119551952
 20
4.1469048180533861
 30
0.0
 11
-4.7369879831119936
 21
4.1323841415674174
 31
0.0
  0
ARC
  5
40AC
  8
0
 10
-4.7424565562432877
 20
4.1428493697652931
 30
0.0
 40
0.0118078911464292
 50
212.9784544958623087
 51
297.5891810107490869
  0
LINE
  5
40AD
  8
0
 10
-4.7523619046446832
 20
4.136422055678298
 30
0.0
 11
-4.8068591259887077
 21
4.216358910754896
 31
0.0
  0
ARC
  5
40AE
  8
0
 10
-4.7970552315945527
 20
4.222989575524366
 30
0.0
 40
0.0118356267504847
 50
129.714976124413198
 51
214.0716561464992083
  0
LINE
  5
40AF
  8
0
 10
-4.8046178290404882
 20
4.2320939250589307
 30
0.0
 11
-4.7788513049583488
 21
4.2535343341150886
 31
0.0
  0
ARC
  5
40B0
  8
0
 10
-4.7767825799165147
 20
4.2475835918502538
 30
0.0
 40
0.0063000759361466
 50
88.0895906631915437
 51
109.1695735032990058
  0
ARC
  5
40B1
  8
0
 10
-4.7119859476631296
 20
4.1502236089186697
 30
0.0
 40
0.0043332992312653
 50
310.0145805765669138
 51
337.3423851233264941
  0
ARC
  5
40B2
  8
0
 10
-4.7320819409730417
 20
4.274851664050475
 30
0.0
 40
0.071019825397517
 50
183.7083872703217935
 51
208.7825635015103103
  0
ARC
  5
40B3
  8
0
 10
-4.798051921639745
 20
4.2705758792447908
 30
0.0
 40
0.0049114243816852
 50
68.990506652754263
 51
183.7083872703219924
  0
ARC
  5
40B4
  8
0
 10
-5.1206628001649932
 20
3.9548239910531442
 30
0.0
 40
0.4558867096696143
 50
21.6070804932618294
 51
44.6414172028002696
  0
ARC
  5
40B5
  8
0
 10
-4.7012481682574139
 20
4.1222660554579882
 30
0.0
 40
0.0044584841183379
 50
260.2709859860432857
 51
5.5784995096493608
  0
ARC
  5
40B6
  8
0
 10
-4.6783114764955691
 20
4.1735385845390454
 30
0.0
 40
0.0604981387056155
 50
216.4320048494699051
 51
246.9468817143830961
  0
LINE
  5
40B7
  8
0
 10
-4.7871565116721166
 20
4.3487580887927013
 30
0.0
 11
-4.815433083997398
 21
4.3352128491481903
 31
0.0
  0
ARC
  5
40B8
  8
0
 10
-4.8205343018124536
 20
4.345861974470453
 30
0.0
 40
0.0118078911464292
 50
210.9849493846855069
 51
295.5956758995723135
  0
LINE
  5
40B9
  8
0
 10
-4.8306572371531571
 20
4.3397831198568069
 30
0.0
 11
-4.8823407754148347
 21
4.421567346982278
 31
0.0
  0
ARC
  5
40BA
  8
0
 10
-4.872312158879839
 20
4.4278529584060582
 30
0.0
 40
0.0118356267504847
 50
127.7214710132361972
 51
212.0781510353224917
  0
LINE
  5
40BB
  8
0
 10
-4.8795534734659496
 20
4.4372148718665514
 30
0.0
 11
-4.8530567133480806
 21
4.4577459850128696
 31
0.0
  0
ARC
  5
40BC
  8
0
 10
-4.8511962441070224
 20
4.4517268811755608
 30
0.0
 40
0.0063000759361466
 50
50.0234971605263468
 51
107.1760683921222039
  0
ARC
  5
40BD
  8
0
 10
-4.974560273052318
 20
4.3111134099039941
 30
0.0
 40
0.1933192439435795
 50
46.2319355232425622
 51
48.950055754515212
  0
ARC
  5
40BE
  8
0
 10
-4.974560273052318
 20
4.3111134099039941
 30
0.0
 40
0.1933192439435795
 50
12.0907211563653192
 51
16.7180058247827716
  0
ARC
  5
40BF
  8
0
 10
-4.7898256129348296
 20
4.3521717936242679
 30
0.0
 40
0.0043332992312653
 50
308.0210754653900835
 51
352.4988676363419131
  0
ARC
  5
40C0
  8
0
 10
-4.8055741061909059
 20
4.477423484364202
 30
0.0
 40
0.071019825397517
 50
181.7148821591449916
 51
206.7890583903335084
  0
ARC
  5
40C1
  8
0
 10
-4.8716528986297361
 20
4.4754451328546132
 30
0.0
 40
0.0049114243816852
 50
66.9970015415774753
 51
181.7148821591451906
  0
ARC
  5
40C2
  8
0
 10
-5.0713126893460041
 20
4.2518815749450543
 30
0.0
 40
0.3043955290819933
 50
13.7314599904403405
 51
48.5300274832675882
  0
ARC
  5
40C3
  8
0
 10
-4.780066869562634
 20
4.3238576340946571
 30
0.0
 40
0.0044584841183379
 50
258.277480874866626
 51
3.584994398472563
  0
ARC
  5
40C4
  8
0
 10
-4.755360482742268
 20
4.3743012513086104
 30
0.0
 40
0.0604981387056155
 50
214.4384997382929896
 51
244.9533766032064079
  0
LINE
  5
40C5
  8
0
 10
-4.843643288938666
 20
4.344107805501797
 30
0.0
 11
-4.8714315600954663
 21
4.3295871290158319
 31
0.0
  0
ARC
  5
40C6
  8
0
 10
-4.8769001332267621
 20
4.3400523572137093
 30
0.0
 40
0.0118078911464292
 50
212.9784544958623087
 51
297.5891810107490869
  0
LINE
  5
40C7
  8
0
 10
-4.8868054816281559
 20
4.3336250431267116
 30
0.0
 11
-4.9413027029721803
 21
4.4135618982033122
 31
0.0
  0
ARC
  5
40C8
  8
0
 10
-4.9314988085780271
 20
4.4201925629727787
 30
0.0
 40
0.0118356267504847
 50
129.714976124413198
 51
214.0716561464992083
  0
LINE
  5
40C9
  8
0
 10
-4.939061406023959
 20
4.4292969125073451
 30
0.0
 11
-4.9132948819418214
 21
4.450737321563504
 31
0.0
  0
ARC
  5
40CA
  8
0
 10
-4.9112261568999891
 20
4.44478657929867
 30
0.0
 40
0.0063000759361466
 50
93.6266970298467953
 51
109.1695735032990058
  0
ARC
  5
40CB
  8
0
 10
-4.8464295246466023
 20
4.3474265963670851
 30
0.0
 40
0.0043332992312653
 50
310.0145805765669138
 51
329.6740381966752125
  0
ARC
  5
40CC
  8
0
 10
-4.8665255179565143
 20
4.4720546514988904
 30
0.0
 40
0.071019825397517
 50
183.7083872703217935
 51
208.7825635015103103
  0
ARC
  5
40CD
  8
0
 10
-4.9324954986232177
 20
4.467778866693207
 30
0.0
 40
0.0049114243816852
 50
68.990506652754263
 51
183.7083872703219924
  0
ARC
  5
40CE
  8
0
 10
-5.2957181069558672
 20
4.125528026187645
 30
0.0
 40
0.5034957528820311
 50
22.7089272111941192
 51
43.5395704848677596
  0
ARC
  5
40CF
  8
0
 10
-4.8356917452408856
 20
4.3194690429064027
 30
0.0
 40
0.0044584841183379
 50
260.2709859860432857
 51
5.5784995096493608
  0
ARC
  5
40D0
  8
0
 10
-4.8127550534790444
 20
4.3707415719874581
 30
0.0
 40
0.0604981387056155
 50
216.4320048494699051
 51
246.9468817143830961
  0
LINE
  5
40D1
  8
0
 10
-4.9705566804079071
 20
4.5213285397342
 30
0.0
 11
-4.993852904743421
 21
4.5091551686377498
 31
0.0
  0
ARC
  5
40D2
  8
0
 10
-4.999321477874715
 20
4.5196203968356272
 30
0.0
 40
0.0118078911464292
 50
212.9784544958623087
 51
297.5891810107490869
  0
LINE
  5
40D3
  8
0
 10
-5.0092268262761124
 20
4.5131930827486304
 30
0.0
 11
-5.0637240476201342
 21
4.593129937825231
 31
0.0
  0
ARC
  5
40D4
  8
0
 10
-5.0539201532259801
 20
4.5997606025946993
 30
0.0
 40
0.0118356267504847
 50
129.714976124413198
 51
214.0716561464992083
  0
LINE
  5
40D5
  8
0
 10
-5.0614827506719147
 20
4.6088649521292631
 30
0.0
 11
-5.0324861908850709
 21
4.6329930844714262
 31
0.0
  0
ARC
  5
40D6
  8
0
 10
-4.9360206275697207
 20
4.6698327380012641
 30
0.0
 40
0.1184259996903191
 50
189.2415504680265883
 51
203.3905773921397895
  0
ARC
  5
40D7
  8
0
 10
-5.0501824416583574
 20
4.6510355857901677
 30
0.0
 40
0.00273602105783
 50
23.6624218377004816
 51
184.6479698021036029
  0
ARC
  5
40D8
  8
0
 10
-5.4031935342814901
 20
4.3543921929378033
 30
0.0
 40
0.4637266341405878
 50
17.8185748838915003
 51
39.9457882347632065
  0
ARC
  5
40D9
  8
0
 10
-4.9649308710561062
 20
4.496877062315753
 30
0.0
 40
0.003271424550673
 50
219.7677683182708961
 51
349.7401584635791778
  0
ARC
  5
40DA
  8
0
 10
-4.8985224487338188
 20
4.5691473700356626
 30
0.0
 40
0.1013914582591587
 50
212.6932429348773042
 51
227.1742426451340862
  0
LINE
  5
40DB
  8
0
 10
-4.9483614604648567
 20
4.5869669194103224
 30
0.0
 11
-4.9761497316216579
 21
4.5724462429243573
 31
0.0
  0
ARC
  5
40DC
  8
0
 10
-4.9816183047529519
 20
4.582911471122233
 30
0.0
 40
0.0118078911464292
 50
212.9784544958623087
 51
297.5891810107490869
  0
LINE
  5
40DD
  8
0
 10
-4.9915236531543474
 20
4.5764841570352353
 30
0.0
 11
-5.046020874498371
 21
4.6564210121118359
 31
0.0
  0
ARC
  5
40DE
  8
0
 10
-5.0362169801042169
 20
4.6630516768813042
 30
0.0
 40
0.0118356267504847
 50
129.714976124413198
 51
214.0716561464992083
  0
LINE
  5
40DF
  8
0
 10
-5.0437795775501497
 20
4.6721560264158688
 30
0.0
 11
-5.018013053468013
 21
4.6935964354720294
 31
0.0
  0
ARC
  5
40E0
  8
0
 10
-5.0159443284261789
 20
4.6876456932071937
 30
0.0
 40
0.0063000759361466
 50
52.0170022717031912
 51
109.1695735032990058
  0
ARC
  5
40E1
  8
0
 10
-5.1343422850808507
 20
4.5428259576714067
 30
0.0
 40
0.1933192439435795
 50
48.225440634419428
 51
50.9435608656920209
  0
ARC
  5
40E2
  8
0
 10
-5.1343422850808507
 20
4.5428259576714067
 30
0.0
 40
0.1933192439435795
 50
14.0842262675421708
 51
18.711510935959609
  0
ARC
  5
40E3
  8
0
 10
-4.951147696172792
 20
4.5902857102756096
 30
0.0
 40
0.0043332992312653
 50
310.0145805765669138
 51
354.4923727475186865
  0
ARC
  5
40E4
  8
0
 10
-4.971243689482705
 20
4.714913765407414
 30
0.0
 40
0.071019825397517
 50
183.7083872703217935
 51
208.7825635015103103
  0
ARC
  5
40E5
  8
0
 10
-5.0372136701494092
 20
4.7106379806017307
 30
0.0
 40
0.0049114243816852
 50
68.990506652754263
 51
183.7083872703219924
  0
ARC
  5
40E6
  8
0
 10
-5.2289756936074197
 20
4.4802643214882556
 30
0.0
 40
0.3043955290819934
 50
15.7249651016171299
 51
50.5235325944444966
  0
ARC
  5
40E7
  8
0
 10
-4.9404099167670772
 20
4.5623281568149281
 30
0.0
 40
0.0044584841183379
 50
260.2709859860432857
 51
5.5784995096493608
  0
ARC
  5
40E8
  8
0
 10
-4.9174732250052351
 20
4.6136006858959808
 30
0.0
 40
0.0604981387056155
 50
216.4320048494699051
 51
246.9468817143830961
  0
LINE
  5
40E9
  8
0
 10
-5.0351149773027331
 20
4.5058068409413279
 30
0.0
 11
-5.0400363942620334
 21
4.5024516483132979
 31
0.0
  0
ARC
  5
40EA
  8
0
 10
-5.0511249823281359
 20
4.5187164566699831
 30
0.0
 40
0.0196850393999941
 50
214.2903736158106938
 51
304.2843422888449254
  0
LINE
  5
40EB
  8
0
 10
-5.0673886233376972
 20
4.5076261565256468
 30
0.0
 11
-5.1453448534589974
 21
4.6219728280776931
 31
0.0
  0
ARC
  5
40EC
  8
0
 10
-5.1087855552000727
 20
4.6032934041219127
 30
0.0
 40
0.0196851333874449
 50
124.2844556248039964
 51
214.1487253179438994
  0
LINE
  5
40ED
  8
0
 10
-5.1198742283826446
 20
4.6195582682016241
 30
0.0
 11
-5.103889929644466
 21
4.6304284762013914
 31
0.0
  0
ARC
  5
40EE
  8
0
 10
-6.1360826972056897
 20
3.9795039296772212
 30
0.0
 40
1.220296961675063
 50
25.5495085176677996
 51
32.2364756095269769
  0
ARC
  5
40EF
  8
0
 10
-5.1290949754435191
 20
4.6330833384509829
 30
0.0
 40
0.0196850698823472
 50
124.2843791013454933
 51
214.3615425234191889
  0
LINE
  5
40F0
  8
0
 10
-5.1401835911304801
 20
4.6493481648693553
 30
0.0
 11
-5.1240957852578504
 21
4.6603160809474486
 31
0.0
  0
LINE
  5
40F1
  8
0
 10
-5.0756262358235062
 20
4.6754452020121411
 30
0.0
 11
-5.0989224601590202
 21
4.6632718309156909
 31
0.0
  0
ARC
  5
40F2
  8
0
 10
-5.1043910332903151
 20
4.6737370591135683
 30
0.0
 40
0.0118078911464292
 50
212.9784544958623087
 51
297.5891810107490869
  0
LINE
  5
40F3
  8
0
 10
-5.114296381691708
 20
4.6673097450265706
 30
0.0
 11
-5.1687936030357342
 21
4.7472466001031712
 31
0.0
  0
ARC
  5
40F4
  8
0
 10
-5.1589897086415792
 20
4.7538772648726377
 30
0.0
 40
0.0118356267504847
 50
129.714976124413198
 51
214.0716561464992083
  0
LINE
  5
40F5
  8
0
 10
-5.1665523060875129
 20
4.762981614407205
 30
0.0
 11
-5.13755574630067
 21
4.7871097467493673
 31
0.0
  0
ARC
  5
40F6
  8
0
 10
-5.041090182985319
 20
4.8239494002792043
 30
0.0
 40
0.1184259996903191
 50
189.2415504680265883
 51
203.3905773921397895
  0
ARC
  5
40F7
  8
0
 10
-5.1552519970739574
 20
4.805152248068107
 30
0.0
 40
0.00273602105783
 50
23.6624218377004816
 51
184.6479698021036882
  0
ARC
  5
40F8
  8
0
 10
-5.5082630896970883
 20
4.5085088552157444
 30
0.0
 40
0.4637266341405878
 50
17.8185748838915003
 51
39.9457882347632065
  0
ARC
  5
40F9
  8
0
 10
-5.0700004264717036
 20
4.6509937245936941
 30
0.0
 40
0.003271424550673
 50
219.7677683182708961
 51
349.7401584635791778
  0
ARC
  5
40FA
  8
0
 10
-5.0035920041494171
 20
4.7232640323136037
 30
0.0
 40
0.1013914582591587
 50
212.6932429348773042
 51
227.1742426451340862
  0
LINE
  5
40FB
  8
0
 10
-5.0944021698108841
 20
4.7919069161837511
 30
0.0
 11
-5.1176983941463989
 21
4.7797335450873009
 31
0.0
  0
ARC
  5
40FC
  8
0
 10
-5.1231669672776929
 20
4.7901987732851783
 30
0.0
 40
0.0118078911464292
 50
212.9784544958623087
 51
297.5891810107490869
  0
LINE
  5
40FD
  8
0
 10
-5.1330723156790876
 20
4.7837714591981806
 30
0.0
 11
-5.1875695370231121
 21
4.8637083142747812
 31
0.0
  0
ARC
  5
40FE
  8
0
 10
-5.177765642628958
 20
4.8703389790442477
 30
0.0
 40
0.0118356267504847
 50
129.714976124413198
 51
214.0716561464992083
  0
LINE
  5
40FF
  8
0
 10
-5.1853282400748908
 20
4.8794433285788141
 30
0.0
 11
-5.156331680288047
 21
4.9035714609209746
 31
0.0
  0
ARC
  5
4100
  8
0
 10
-5.0598661169726986
 20
4.940411114450816
 30
0.0
 40
0.1184259996903191
 50
189.2415504680265883
 51
203.3905773921397895
  0
ARC
  5
4101
  8
0
 10
-5.1740279310613353
 20
4.921613962239717
 30
0.0
 40
0.00273602105783
 50
23.6624218377004816
 51
184.6479698021036882
  0
ARC
  5
4102
  8
0
 10
-5.5270390236844662
 20
4.6249705693873544
 30
0.0
 40
0.4637266341405878
 50
17.8185748838915003
 51
39.9457882347632065
  0
ARC
  5
4103
  8
0
 10
-5.0887763604590841
 20
4.7674554387653059
 30
0.0
 40
0.003271424550673
 50
219.7677683182708961
 51
349.7401584635791778
  0
ARC
  5
4104
  8
0
 10
-5.0223679381367949
 20
4.8397257464852137
 30
0.0
 40
0.1013914582591587
 50
212.6932429348773042
 51
227.1742426451340862
  0
LINE
  5
4105
  8
0
 10
-5.1599370906471993
 20
4.7996236424297019
 30
0.0
 11
-5.1832333149827132
 21
4.7874502713332516
 31
0.0
  0
ARC
  5
4106
  8
0
 10
-5.1887018881140072
 20
4.7979154995311291
 30
0.0
 40
0.0118078911464292
 50
212.9784544958623087
 51
297.5891810107490869
  0
LINE
  5
4107
  8
0
 10
-5.1986072365154028
 20
4.791488185444134
 30
0.0
 11
-5.2531044578594246
 21
4.8714250405207311
 31
0.0
  0
ARC
  5
4108
  8
0
 10
-5.2433005634652723
 20
4.8780557052901994
 30
0.0
 40
0.0118356267504847
 50
129.714976124413198
 51
214.0716561464992083
  0
LINE
  5
4109
  8
0
 10
-5.250863160911206
 20
4.8871600548247658
 30
0.0
 11
-5.2218666011243631
 21
4.9112881871669281
 31
0.0
  0
ARC
  5
410A
  8
0
 10
-5.125401037809012
 20
4.9481278406967659
 30
0.0
 40
0.1184259996903191
 50
189.2415504680265883
 51
203.3905773921397895
  0
ARC
  5
410B
  8
0
 10
-5.2395628518976478
 20
4.9293306884856696
 30
0.0
 40
0.00273602105783
 50
23.6624218377004816
 51
184.6479698021036882
  0
ARC
  5
410C
  8
0
 10
-5.5925739445207814
 20
4.6326872956333052
 30
0.0
 40
0.4637266341405878
 50
17.8185748838915003
 51
39.9457882347632065
  0
ARC
  5
410D
  8
0
 10
-5.1543112812953966
 20
4.7751721650112566
 30
0.0
 40
0.003271424550673
 50
219.7677683182708961
 51
349.7401584635791778
  0
ARC
  5
410E
  8
0
 10
-5.087902858973111
 20
4.8474424727311671
 30
0.0
 40
0.1013914582591587
 50
212.6932429348773042
 51
227.1742426451340862
  0
LINE
  5
410F
  8
0
 10
-5.393250474934109
 20
5.1656981445671759
 30
0.0
 11
-5.4659107473056237
 21
5.2722766731443
 31
0.0
  0
ARC
  5
4110
  8
0
 10
-5.4561068529114687
 20
5.2789073379137683
 30
0.0
 40
0.0118356267504847
 50
129.714976124413198
 51
214.0716561464992083
  0
LINE
  5
4111
  8
0
 10
-5.4636694503574041
 20
5.2880116874483347
 30
0.0
 11
-5.4346728905705604
 21
5.3121398197904952
 31
0.0
  0
ARC
  5
4112
  8
0
 10
-5.1432045045015569
 20
5.3941953911842928
 30
0.0
 40
0.2969439134934979
 50
196.3175202352664996
 51
202.9776861760134068
  0
ARC
  5
4113
  8
0
 10
-5.4277433495042731
 20
5.3109686208200246
 30
0.0
 40
0.0004880564195787
 50
78.0833944857493094
 51
204.5328344013211108
  0
ARC
  5
4114
  8
0
 10
-6.2901202704984938
 20
4.8242714278272461
 30
0.0
 40
0.9905589329385882
 50
21.9650307289798299
 51
29.4601448380572606
  0
LINE
  5
4115
  8
0
 10
-5.2989914799697866
 20
5.0918888144198462
 30
0.0
 11
-5.3222877043053032
 21
5.0797154433233969
 31
0.0
  0
ARC
  5
4116
  8
0
 10
-5.3277562774365954
 20
5.0901806715212716
 30
0.0
 40
0.0118078911464292
 50
212.9784544958623087
 51
297.5891810107490869
  0
LINE
  5
4117
  8
0
 10
-5.337661625837991
 20
5.0837533574342766
 30
0.0
 11
-5.3921588471820154
 21
5.1636902125108746
 31
0.0
  0
ARC
  5
4118
  8
0
 10
-5.3823549527878596
 20
5.170320877280342
 30
0.0
 40
0.0118356267504847
 50
129.714976124413198
 51
214.0716561464992083
  0
LINE
  5
4119
  8
0
 10
-5.389917550233795
 20
5.1794252268149101
 30
0.0
 11
-5.3609209904469513
 21
5.2035533591570733
 31
0.0
  0
ARC
  5
411A
  8
0
 10
-5.3087347996868193
 20
5.2372643608732012
 30
0.0
 40
0.0689339000033572
 50
192.2025203359025056
 51
213.5458429016987907
  0
ARC
  5
411B
  8
0
 10
-5.7316283338433687
 20
4.9249524676234477
 30
0.0
 40
0.4637266341405878
 50
17.8185748838915003
 51
39.9457882347632065
  0
ARC
  5
411C
  8
0
 10
-5.2933656706179866
 20
5.0674373370014001
 30
0.0
 40
0.003271424550673
 50
219.7677683182708961
 51
349.7401584635791778
  0
ARC
  5
411D
  8
0
 10
-5.2269572482957001
 20
5.1397076447213097
 30
0.0
 40
0.1013914582591587
 50
212.6932429348773042
 51
227.1742426451340862
  0
LINE
  5
411E
  8
0
 10
-5.2123938883436214
 20
4.965315055522999
 30
0.0
 11
-5.2356901126791371
 21
4.953141684426547
 31
0.0
  0
ARC
  5
411F
  8
0
 10
-5.2411586858104293
 20
4.9636069126244244
 30
0.0
 40
0.0118078911464292
 50
212.9784544958623087
 51
297.5891810107490869
  0
LINE
  5
4120
  8
0
 10
-5.2510640342118249
 20
4.9571795985374294
 30
0.0
 11
-5.3055612555558467
 21
5.0371164536140292
 31
0.0
  0
ARC
  5
4121
  8
0
 10
-5.2957573611616944
 20
5.0437471183834957
 30
0.0
 40
0.0118356267504847
 50
129.714976124413198
 51
214.0716561464992083
  0
LINE
  5
4122
  8
0
 10
-5.3033199586076281
 20
5.0528514679180629
 30
0.0
 11
-5.2743233988207852
 21
5.0769796002602252
 31
0.0
  0
ARC
  5
4123
  8
0
 10
-5.1778578355054341
 20
5.1138192537900622
 30
0.0
 40
0.1184259996903191
 50
189.2415504680265883
 51
203.3905773921397895
  0
ARC
  5
4124
  8
0
 10
-5.2920196495940699
 20
5.095022101578965
 30
0.0
 40
0.00273602105783
 50
23.6624218377004816
 51
184.6479698021036882
  0
ARC
  5
4125
  8
0
 10
-5.6450307422172026
 20
4.7983787087265997
 30
0.0
 40
0.4637266341405878
 50
17.8185748838915003
 51
39.9457882347632065
  0
ARC
  5
4126
  8
0
 10
-5.2067680789918214
 20
4.940863578104552
 30
0.0
 40
0.003271424550673
 50
219.7677683182708961
 51
349.7401584635791778
  0
ARC
  5
4127
  8
0
 10
-5.140359656669534
 20
5.0131338858244616
 30
0.0
 40
0.1013914582591587
 50
212.6932429348773042
 51
227.1742426451340862
  0
LINE
  5
4128
  8
0
 10
-5.2549453885378092
 20
4.8759390783493339
 30
0.0
 11
-5.3387776892109136
 21
4.996579542203575
 31
0.0
  0
ARC
  5
4129
  8
0
 10
-5.3289737948167586
 20
5.0032102069730424
 30
0.0
 40
0.0118356267504847
 50
129.714976124413198
 51
214.0716561464992083
  0
LINE
  5
412A
  8
0
 10
-5.3365363922626941
 20
5.0123145565076088
 30
0.0
 11
-5.3092170976266644
 21
5.035047031025905
 31
0.0
  0
ARC
  5
412B
  8
0
 10
-5.0747100019784588
 20
5.1522663066942194
 30
0.0
 40
0.2641840201451073
 50
200.4014989258969877
 51
206.6607451503226116
  0
ARC
  5
412C
  8
0
 10
-5.7735158462525549
 20
4.7150583832972703
 30
0.0
 40
0.5676352837456617
 50
18.9873640191356685
 51
32.0039345515864468
  0
ARC
  5
412D
  8
0
 10
-5.4366009706914014
 20
5.2499597659686561
 30
0.0
 40
0.0118713368518275
 50
124.728515241093902
 51
203.1067330517722098
  0
LINE
  5
412E
  8
0
 10
-5.4433639362183612
 20
5.2597163502034583
 30
0.0
 11
-5.411542708574216
 21
5.281773851107852
 31
0.0
  0
ARC
  5
412F
  8
0
 10
5.3822086258322734
 20
9.85379898161165
 30
0.0
 40
11.7316499311441298
 50
201.9994718615091926
 51
202.9662625444454136
  0
ARC
  5
4130
  8
0
 10
-5.2995390960780737
 20
4.9601150459154626
 30
0.0
 40
0.0118911883873728
 50
128.6944096286389083
 51
198.5144533634106949
  0
LINE
  5
4131
  8
0
 10
-5.3069730687799028
 20
4.9693960162921238
 30
0.0
 11
-5.2782489142786728
 21
4.992403802307928
 31
0.0
  0
ARC
  5
4132
  8
0
 10
-4.8924814398876464
 20
5.2740420107373316
 30
0.0
 40
0.4809366741406341
 50
203.8939549281865027
 51
207.4542131981262969
  0
ARC
  5
4133
  8
0
 10
-6.7619182073707442
 20
4.2956971284465801
 30
0.0
 40
1.63002416935938
 50
25.0770701149475705
 51
27.9709588503761388
  0
ARC
  5
4134
  8
0
 10
-5.2252524749946039
 20
5.0238280733833749
 30
0.0
 40
0.0673710238402729
 50
186.7646848243863076
 51
211.3560372020806994
  0
ARC
  5
4135
  8
0
 10
-5.5186322143482442
 20
3.9004970226766602
 30
0.0
 40
0.7238458266408417
 50
28.4421588816478987
 51
34.3679905345734227
  0
ARC
  5
4136
  8
0
 10
-4.3181560920194162
 20
4.633416728228072
 30
0.0
 40
0.684670477715681
 50
208.2724627740722951
 51
214.5376866421522948
  0
ARC
  5
4137
  8
0
 10
1.3498403324942989
 20
8.1189673282838477
 30
0.0
 40
7.3398989984493239
 50
209.5072305862817075
 51
212.1697389765027992
  0
ARC
  5
4138
  8
0
 10
1.3498403324942989
 20
8.1189673282838477
 30
0.0
 40
7.3398989984493239
 50
207.0049677695674859
 51
208.3961739314642045
  0
LINE
  5
4139
  8
0
 10
-4.9424104076540694
 20
4.339853949389302
 30
0.0
 11
-4.9500657013737133
 21
4.3346349270824147
 31
0.0
  0
ARC
  5
413A
  8
0
 10
-4.9389771133924567
 20
4.3183701186678816
 30
0.0
 40
0.0196850394000014
 50
124.2843419899533046
 51
214.2843423512640868
  0
LINE
  5
413B
  8
0
 10
-4.9552419217370662
 20
4.307281530584059
 30
0.0
 11
-4.7548087715133169
 21
4.013284968564478
 31
0.0
  0
ARC
  5
413C
  8
0
 10
-4.7385446684183909
 20
4.024373075841944
 30
0.0
 40
0.0196841858475028
 50
214.2843423512616994
 51
304.9699246146781206
  0
ARC
  5
413D
  8
0
 10
-5.9305062078855739
 20
3.3782024548709231
 30
0.0
 40
1.358214147984939
 50
36.8780011201672266
 51
37.9517244556209405
  0
ARC
  5
413E
  8
0
 10
-5.9305062078855739
 20
3.3782024548709231
 30
0.0
 40
1.358214147984939
 50
27.6373795745199615
 51
31.2722813708632614
  0
ARC
  5
413F
  8
0
 10
115.9302418626039071
 20
-172.9704184770409086
 30
0.0
 40
214.4395169452704977
 50
124.2830223268583012
 51
124.2847812099055034
  0
ARC
  5
4140
  8
0
 10
-4.8538293958944791
 20
4.1935034619931519
 30
0.0
 40
0.019725172583528
 50
124.3310273180182008
 51
211.4540748266088883
  0
LINE
  5
4141
  8
0
 10
-4.8241821378666323
 20
4.2119758906561131
 30
0.0
 11
-4.8363486973894547
 21
4.2036812975805207
 31
0.0
  0
ARC
  5
4142
  8
0
 10
-4.8252601093210554
 20
4.1874164892253978
 30
0.0
 40
0.0196850394000003
 50
124.2843422969331044
 51
214.28434235126619
  0
LINE
  5
4143
  8
0
 10
-4.8415249176656623
 20
4.1763279011415717
 30
0.0
 11
-4.7838642597059753
 21
4.0917508978613766
 31
0.0
  0
ARC
  5
4144
  8
0
 10
-4.7675994514119138
 20
4.1028394859107378
 30
0.0
 40
0.0196850393388232
 50
214.2843423512667016
 51
304.2843424680492035
  0
LINE
  5
4145
  8
0
 10
-4.7565108633293987
 20
4.0865746776392777
 30
0.0
 11
-4.7478303525937484
 21
4.0924926452099371
 31
0.0
  0
ARC
  5
4146
  8
0
 10
-5.099857739099412
 20
3.9516779323732218
 30
0.0
 40
0.3791464943808603
 50
21.8019368017609203
 51
43.3565749021495392
  0
ARC
  5
4147
  8
0
 10
1.5733068242481669
 20
8.2055159154829411
 30
0.0
 40
7.5759460287959826
 50
213.6658953773018084
 51
214.9040640981185106
  0
ENDSEC
  0
EOF
