  0
SECTION
  2
HEADER
  9
$ACADVER
  1
AC1009
  9
$INSBASE
 10
3116.6226939447092263
 20
151.2834499726571948
 30
0.0
  9
$EXTMIN
 10
3105.2580181464350062
 20
133.3684116393455099
 30
-0.0000000000000058
  9
$EXTMAX
 10
3128.103609190572115
 20
151.2928330853135037
 30
0.0000000000000104
  9
$LIMMIN
 10
0.0
 20
0.0
  9
$LIMMAX
 10
11.6929133858000007
 20
8.2677165353999982
  9
$ORTHOMODE
 70
     0
  9
$REGENMODE
 70
     1
  9
$FILLMODE
 70
     1
  9
$QTEXTMODE
 70
     0
  9
$MIRRTEXT
 70
     0
  9
$DRAGMODE
 70
     2
  9
$LTSCALE
 40
0.6431102362
  9
$OSMODE
 70
   575
  9
$ATTMODE
 70
     1
  9
$TEXTSIZE
 40
0.2
  9
$TRACEWID
 40
0.05
  9
$TEXTSTYLE
  7
STANDARD
  9
$CLAYER
  8
0
  9
$CELTYPE
  6
BYLAYER
  9
$CECOLOR
 62
   256
  9
$DIMSCALE
 40
1.0
  9
$DIMASZ
 40
0.1875
  9
$DIMEXO
 40
0.0625
  9
$DIMDLI
 40
0.4443307087
  9
$DIMRND
 40
0.0
  9
$DIMDLE
 40
0.0
  9
$DIMEXE
 40
0.125
  9
$DIMTP
 40
0.01
  9
$DIMTM
 40
0.01
  9
$DIMTXT
 40
2.0
  9
$DIMCEN
 40
0.1052362205
  9
$DIMTSZ
 40
0.0
  9
$DIMTOL
 70
     1
  9
$DIMLIM
 70
     0
  9
$DIMTIH
 70
     1
  9
$DIMTOH
 70
     1
  9
$DIMSE1
 70
     0
  9
$DIMSE2
 70
     0
  9
$DIMTAD
 70
     0
  9
$DIMZIN
 70
     0
  9
$DIMBLK
  1

  9
$DIMASO
 70
     1
  9
$DIMSHO
 70
     1
  9
$DIMPOST
  1
\X
  9
$DIMAPOST
  1

  9
$DIMALT
 70
     1
  9
$DIMALTD
 70
     2
  9
$DIMALTF
 40
25.3999999999999986
  9
$DIMLFAC
 40
1.0
  9
$DIMTOFL
 70
     0
  9
$DIMTVP
 40
0.0
  9
$DIMTIX
 70
     0
  9
$DIMSOXD
 70
     0
  9
$DIMSAH
 70
     0
  9
$DIMBLK1
  1

  9
$DIMBLK2
  1

  9
$DIMSTYLE
  2
STANDARD
  9
$DIMCLRD
 70
     0
  9
$DIMCLRE
 70
     0
  9
$DIMCLRT
 70
     0
  9
$DIMTFAC
 40
1.0
  9
$DIMGAP
 40
0.09
  9
$LUNITS
 70
     2
  9
$LUPREC
 70
     4
  9
$SKETCHINC
 40
0.1
  9
$FILLETRAD
 40
0.0
  9
$AUNITS
 70
     0
  9
$AUPREC
 70
     0
  9
$MENU
  1
.
  9
$ELEVATION
 40
0.0
  9
$PELEVATION
 40
0.0
  9
$THICKNESS
 40
0.0
  9
$LIMCHECK
 70
     0
  9
$BLIPMODE
 70
     0
  9
$CHAMFERA
 40
0.0
  9
$CHAMFERB
 40
0.0
  9
$SKPOLY
 70
     0
  9
$TDCREATE
 40
2458060.468368056230247
  9
$TDUPDATE
 40
2459546.0211342591792345
  9
$TDINDWG
 40
0.6635834491
  9
$TDUSRTIMER
 40
0.6635834491
  9
$USRTIMER
 70
     1
  9
$ANGBASE
 50
0.0
  9
$ANGDIR
 70
     0
  9
$PDMODE
 70
     0
  9
$PDSIZE
 40
0.3125
  9
$PLINEWID
 40
0.0
  9
$COORDS
 70
     1
  9
$SPLFRAME
 70
     0
  9
$SPLINETYPE
 70
     6
  9
$SPLINESEGS
 70
     8
  9
$ATTDIA
 70
     1
  9
$ATTREQ
 70
     1
  9
$HANDLING
 70
     1
  9
$HANDSEED
  5
2D6D3
  9
$SURFTAB1
 70
     6
  9
$SURFTAB2
 70
     6
  9
$SURFTYPE
 70
     6
  9
$SURFU
 70
     6
  9
$SURFV
 70
     6
  9
$UCSNAME
  2

  9
$UCSORG
 10
0.0
 20
0.0
 30
0.0
  9
$UCSXDIR
 10
1.0
 20
0.0
 30
0.0
  9
$UCSYDIR
 10
0.0
 20
1.0
 30
0.0
  9
$PUCSNAME
  2

  9
$PUCSORG
 10
0.0
 20
0.0
 30
0.0
  9
$PUCSXDIR
 10
1.0
 20
0.0
 30
0.0
  9
$PUCSYDIR
 10
0.0
 20
1.0
 30
0.0
  9
$USERI1
 70
     0
  9
$USERI2
 70
     0
  9
$USERI3
 70
     0
  9
$USERI4
 70
     0
  9
$USERI5
 70
     0
  9
$USERR1
 40
0.0
  9
$USERR2
 40
0.0
  9
$USERR3
 40
0.0
  9
$USERR4
 40
0.0
  9
$USERR5
 40
0.0
  9
$WORLDVIEW
 70
     1
  9
$SHADEDGE
 70
     3
  9
$SHADEDIF
 70
    70
  9
$TILEMODE
 70
     1
  9
$MAXACTVP
 70
    64
  9
$PLIMCHECK
 70
     0
  9
$PEXTMIN
 10
1.0000000000000000E+20
 20
1.0000000000000000E+20
 30
1.0000000000000000E+20
  9
$PEXTMAX
 10
-1.0000000000000000E+20
 20
-1.0000000000000000E+20
 30
-1.0000000000000000E+20
  9
$PLIMMIN
 10
0.0
 20
0.0
  9
$PLIMMAX
 10
12.0
 20
9.0
  9
$UNITMODE
 70
     0
  9
$VISRETAIN
 70
     1
  9
$PLINEGEN
 70
     0
  9
$PSLTSCALE
 70
     1
  0
ENDSEC
  0
SECTION
  2
TABLES
  0
TABLE
  2
VPORT
 70
     1
  0
VPORT
  2
*ACTIVE
 70
     0
 10
0.0
 20
0.0
 11
1.0
 21
1.0
 12
-187.0123018464541076
 22
-52.9308892682647212
 13
0.0
 23
0.0
 14
1.0
 24
1.0
 15
0.0
 25
0.0
 16
0.0
 26
0.0
 36
96.5995694866707311
 17
3303.693115234375
 27
195.2615115758877096
 37
0.0
 40
23.7142469704981806
 41
2.6401326699834158
 42
50.0
 43
0.0
 44
0.0
 50
0.0
 51
0.0
 71
     0
 72
   100
 73
     1
 74
     1
 75
     0
 76
     0
 77
     0
 78
     0
  0
ENDTAB
  0
TABLE
  2
LTYPE
 70
     2
  0
LTYPE
  2
CONTINUOUS
 70
     0
  3
Solid line
 72
    65
 73
     0
 40
0.0
  0
LTYPE
  2
PHANTOM2
 70
     0
  3
___ _ _ ___ _ _ ___ _ _ ___ _ _
 72
    65
 73
     6
 40
1.25
 49
0.625
 49
-0.125
 49
0.125
 49
-0.125
 49
0.125
 49
-0.125
  0
ENDTAB
  0
TABLE
  2
LAYER
 70
     2
  0
LAYER
  2
0
 70
     0
 62
   255
  6
CONTINUOUS
  0
LAYER
  2
DEFPOINTS
 70
     0
 62
     7
  6
CONTINUOUS
  0
ENDTAB
  0
TABLE
  2
STYLE
 70
     1
  0
STYLE
  2
STANDARD
 70
     0
 40
0.0
 41
0.8
 50
0.0
 71
     0
 42
0.2
  3
txt
  4

  0
ENDTAB
  0
TABLE
  2
VIEW
 70
     0
  0
ENDTAB
  0
TABLE
  2
UCS
 70
     0
  0
ENDTAB
  0
TABLE
  2
APPID
 70
     9
  0
APPID
  2
ACAD
 70
     0
  0
APPID
  2
ACAD_MLEADERVER
 70
     0
  0
APPID
  2
ACAD_EXEMPT_FROM_CAD_STANDARDS
 70
     0
  0
APPID
  2
ACAD_NAV_VCDISPLAY
 70
     0
  0
APPID
  2
ACAECLAYERSTANDARD
 70
     0
  0
APPID
  2
ACCMTRANSPARENCY
 70
     0
  0
APPID
  2
ACAD_DSTYLE_DIMJAG
 70
     0
  0
APPID
  2
ACAD_DSTYLE_DIMTALN
 70
     0
  0
APPID
  2
ACDBATTR
 70
     0
  0
ENDTAB
  0
TABLE
  2
DIMSTYLE
 70
     1
  0
DIMSTYLE
  2
STANDARD
 70
     0
  3

  4

  5

  6

  7

 40
1.0
 41
0.1875
 42
0.0625
 43
0.38
 44
0.125
 45
0.0
 46
0.0
 47
0.01
 48
0.01
140
0.15625
141
0.09
142
0.0
143
25.3999999999999986
144
1.0
145
0.0
146
1.0
147
0.09
 71
     1
 72
     0
 73
     1
 74
     1
 75
     0
 76
     0
 77
     0
 78
     4
170
     0
171
     2
172
     0
173
     0
174
     0
175
     0
176
     0
177
     0
178
     0
  0
ENDTAB
  0
ENDSEC
  0
SECTION
  2
BLOCKS
  0
BLOCK
  8
0
  2
$MODEL_SPACE
 70
     0
 10
0.0
 20
0.0
 30
0.0
  3
$MODEL_SPACE
  1

  0
ENDBLK
  5
21
  8
0
  0
BLOCK
 67
     1
  8
0
  2
$PAPER_SPACE
 70
     0
 10
0.0
 20
0.0
 30
0.0
  3
$PAPER_SPACE
  1

  0
ENDBLK
  5
1D
 67
     1
  8
0
  0
ENDSEC
  0
SECTION
  2
ENTITIES
  0
LINE
  5
2D5C6
  8
0
 10
3105.8118044229559018
 20
151.2834499726571948
 30
0.0
 11
3127.4335847779561846
 21
151.2834499726571948
 31
0.0
  0
LINE
  5
2D5C7
  8
0
 10
3116.4291023319101441
 20
133.3762499726572059
 30
0.0
 11
3116.8162854503029848
 21
133.3762499726572059
 31
0.0
  0
ARC
  5
2D5C8
  8
0
 10
3110.2377245464299449
 20
144.6103579049654968
 30
0.0
 40
1.548286850283709
 50
173.7034856620288963
 51
180.0247718934892021
  0
ARC
  5
2D5C9
  8
0
 10
3110.1845112334558507
 20
136.3736010471571944
 30
0.0
 40
1.5066881357999999
 50
233.4798057960946949
 51
245.3910952778929015
  0
ARC
  5
2D5CA
  8
0
 10
3114.9095907023011023
 20
156.6329505274320013
 30
0.0
 40
22.4267255470245814
 50
259.3082459089686154
 51
262.6268901144459278
  0
LINE
  5
2D5CB
  8
0
 10
3115.359531214774961
 20
143.1628933836973943
 30
0.0
 11
3109.0359435084142206
 21
145.6359661412141975
 31
0.0
  0
ARC
  5
2D5CC
  8
0
 10
3105.8141486164317939
 20
151.0815843794127886
 30
0.0
 40
0.2018792039289547
 50
90.6653256424666409
 51
170.3649925582350875
  0
ARC
  5
2D5CD
  8
0
 10
3176.0516644139461278
 20
145.1694819661267104
 30
0.0
 40
70.687062573103276
 50
175.1748243734184882
 51
183.0654552286918033
  0
ARC
  5
2D5CE
  8
0
 10
3133.9634157322748251
 20
142.5648620169519063
 30
0.0
 40
28.5219009569981097
 50
182.3620449932303131
 51
186.672232258950487
  0
ARC
  5
2D5CF
  8
0
 10
3112.0352013271321994
 20
140.2361386327090997
 30
0.0
 40
6.4758924724482263
 50
188.7507549134143119
 51
223.2241347578253112
  0
ARC
  5
2D5D0
  8
0
 10
3112.0516727717340473
 20
140.2566334572350115
 30
0.0
 40
6.5019318795074836
 50
223.2563310292028973
 51
254.9790748932298925
  0
ARC
  5
2D5D1
  8
0
 10
3116.5258981487781966
 20
165.250994141771713
 30
0.0
 40
31.8748911414087495
 50
258.8583677784525889
 51
269.8260072393374003
  0
ARC
  5
2D5D2
  8
0
 10
3110.2215949241622184
 20
144.6741844164133113
 30
0.0
 40
1.526500759734819
 50
92.137847964436034
 51
176.0189350839686142
  0
ARC
  5
2D5D3
  8
0
 10
3113.7952381813079228
 20
-277.6213393829527831
 30
0.0
 40
423.8365121777765125
 50
89.6177712884210393
 51
90.4908021926206629
  0
ARC
  5
2D5D4
  8
0
 10
-3942.4553535784348242
 20
154.9469413692528121
 30
0.0
 40
7051.152368822860808
 50
359.8497097601369887
 51
359.9160022160539825
  0
ARC
  5
2D5D5
  8
0
 10
3110.2561165224087745
 20
136.4020699293253074
 30
0.0
 40
1.5841261183038879
 50
178.2165841038830933
 51
200.5579852030502082
  0
ARC
  5
2D5D6
  8
0
 10
3110.1941405855500307
 20
136.3817360870237962
 30
0.0
 40
1.518959086782854
 50
200.6607447811082068
 51
233.37051495852279
  0
ARC
  5
2D5D7
  8
0
 10
3112.0159409583648085
 20
140.2387463216570893
 30
0.0
 40
5.7836822779949326
 50
244.8407672191187885
 51
257.345161451677086
  0
ARC
  5
2D5D8
  8
0
 10
3116.6159108714118702
 20
168.6993444504321928
 30
0.0
 40
34.6126192646221327
 50
262.3889684216094906
 51
270.011228350663373
  0
ARC
  5
2D5D9
  8
0
 10
5868.8636059018035667
 20
-2419.2393115050358574
 30
0.0
 40
3760.0438983145559178
 50
137.0726120333767994
 51
137.2100935518571987
  0
ARC
  5
2D5DA
  8
0
 10
3116.6204519056400386
 20
142.638780021998997
 30
0.0
 40
1.379012687847857
 50
227.7893082565337011
 51
270.0931536783272122
  0
ARC
  5
2D5DB
  8
0
 10
3116.6315385001971663
 20
142.6352988875862025
 30
0.0
 40
1.3839231267879879
 50
187.878654994510498
 51
227.3525053744922957
  0
ARC
  5
2D5DC
  8
0
 10
3116.5687571884918725
 20
142.6307871108232916
 30
0.0
 40
1.3211224550149541
 50
156.2486459557183878
 51
188.0580552678505057
  0
ARC
  5
2D5DD
  8
0
 10
3116.588081270173916
 20
142.6036272403852934
 30
0.0
 40
1.3498569767478721
 50
88.5306754129245945
 51
155.5238068274267107
  0
ARC
  5
2D5DE
  8
0
 10
3116.5856017115579562
 20
147.4502604137882997
 30
0.0
 40
1.4530235941476031
 50
255.0140552445749904
 51
271.462783993078574
  0
ARC
  5
2D5DF
  8
0
 10
3116.6053202475591206
 20
148.0985873034395865
 30
0.0
 40
2.1996029911036281
 50
260.9931505017809741
 51
270.4525590467038114
  0
ARC
  5
2D5E0
  8
0
 10
3116.3560358076651937
 20
146.5373171229763045
 30
0.0
 40
0.6185603236440622
 50
250.3822096140812903
 51
261.1589413438312022
  0
ARC
  5
2D5E1
  8
0
 10
3116.1891356784508389
 20
146.0745318927083929
 30
0.0
 40
0.126615838427956
 50
231.6577645344594885
 51
251.2124825502548902
  0
ARC
  5
2D5E2
  8
0
 10
3116.6156969448888958
 20
143.2765072143648126
 30
0.0
 40
2.8035113072767959
 50
89.8570009963160032
 51
95.4832021666414335
  0
ARC
  5
2D5E3
  8
0
 10
3116.4526460441379641
 20
144.8894905610551973
 30
0.0
 40
1.1823566898633679
 50
95.0869045718870751
 51
101.848664371130198
  0
ARC
  5
2D5E4
  8
0
 10
3116.2971505944287856
 20
145.6130815556529114
 30
0.0
 40
0.4422702522223149
 50
101.3810748523152938
 51
110.7225570803272063
  0
ARC
  5
2D5E5
  8
0
 10
3116.184976096950777
 20
145.9098546064581967
 30
0.0
 40
0.1250048578396714
 50
110.7655270724316949
 51
124.2127462668004938
  0
ARC
  5
2D5E6
  8
0
 10
3116.1379186100748484
 20
145.9786193606423979
 30
0.0
 40
0.0416813279145906
 50
123.8687175276705972
 51
143.7416088540695966
  0
ARC
  5
2D5E7
  8
0
 10
3116.1285672400490512
 20
145.9977120301095113
 30
0.0
 40
0.028790856713147
 50
198.6880678176688093
 51
231.3577153183377106
  0
ARC
  5
2D5E8
  8
0
 10
3116.1178824922330932
 20
145.9928041121034141
 30
0.0
 40
0.0171407389274612
 50
142.3645372395787945
 51
194.5878071976651995
  0
ARC
  5
2D5E9
  8
0
 10
3123.0076633585958916
 20
144.6103579198978082
 30
0.0
 40
1.548286850283709
 50
359.9752282405057144
 51
6.2965144719664199
  0
ARC
  5
2D5EA
  8
0
 10
3123.0608766908321741
 20
136.3736010622139929
 30
0.0
 40
1.5066881357999999
 50
294.6089048560867809
 51
306.5201943379024101
  0
ARC
  5
2D5EB
  8
0
 10
3118.335797174606796
 20
156.632950531438297
 30
0.0
 40
22.4267255470245814
 50
277.3731100195432191
 51
280.691754225039972
  0
LINE
  5
2D5EC
  8
0
 10
3117.8858566936360148
 20
143.1628933866514899
 30
0.0
 11
3124.2094443942128237
 21
145.6359661589571033
 31
0.0
  0
ARC
  5
2D5ED
  8
0
 10
3127.4312392672241003
 20
151.081584345854111
 30
0.0
 40
0.201879252785497
 50
9.6350221576279829
 51
89.3343006401734954
  0
ARC
  5
2D5EE
  8
0
 10
3057.1937235231039267
 20
145.1694818271365932
 30
0.0
 40
70.687062573103276
 50
356.9345449053042785
 51
4.8251757605782588
  0
ARC
  5
2D5EF
  8
0
 10
3099.2819487441179263
 20
142.5648642718979886
 30
0.0
 40
28.5219244984140694
 50
353.3277687644791172
 51
357.6379524762451183
  0
ARC
  5
2D5F0
  8
0
 10
3121.2101865881231788
 20
140.2361386434376982
 30
0.0
 40
6.4758924724482263
 50
316.7758653761692926
 51
351.2492452205843279
  0
ARC
  5
2D5F1
  8
0
 10
3121.1937151434731277
 20
140.2566334679256954
 30
0.0
 40
6.5019318795081826
 50
285.0209252407643135
 51
316.7436691047906265
  0
ARC
  5
2D5F2
  8
0
 10
3116.7194897079748444
 20
165.2509941419980066
 30
0.0
 40
31.8748911414087495
 50
270.1739926266604925
 51
281.1416323555467898
  0
ARC
  5
2D5F3
  8
0
 10
3123.0237929807149158
 20
144.6741844313833951
 30
0.0
 40
1.526500759734819
 50
3.9810650500270581
 51
87.8621521695804262
  0
ARC
  5
2D5F4
  8
0
 10
3119.4501507111781393
 20
-277.6213393763403019
 30
0.0
 40
423.8365121777765125
 50
89.5091979413596164
 51
90.3822288455833558
  0
ARC
  5
2D5F5
  8
0
 10
10175.7007414592808345
 20
154.9469578780989139
 30
0.0
 40
7051.152368822860808
 50
180.0839979179409056
 51
180.1502903738582972
  0
ARC
  5
2D5F6
  8
0
 10
3122.9892714018119477
 20
136.4020699442145883
 30
0.0
 40
1.5841261183038879
 50
339.4420149309456178
 51
1.7834160301115181
  0
ARC
  5
2D5F7
  8
0
 10
3123.0512473387188948
 20
136.3817361020579995
 30
0.0
 40
1.518959086782854
 50
306.6294851754709043
 51
339.3392553528925077
  0
ARC
  5
2D5F8
  8
0
 10
3121.229446956882839
 20
140.2387463324307078
 30
0.0
 40
5.7836822779949326
 50
282.654838682322179
 51
295.1592329148796239
  0
ARC
  5
2D5F9
  8
0
 10
3116.6294769772762265
 20
168.6993444504479953
 30
0.0
 40
34.6126192646221327
 50
269.9887717833381089
 51
277.6110317123739719
  0
ARC
  5
2D5FA
  8
0
 10
364.3817879992157032
 20
-2419.2393179416171733
 30
0.0
 40
3760.0438983145559178
 50
42.7899065821293192
 51
42.9273881006257909
  0
ARC
  5
2D5FB
  8
0
 10
3116.6249360039960266
 20
142.6387800220041981
 30
0.0
 40
1.379012687847857
 50
269.9068464556743834
 51
312.2106918774583733
  0
ARC
  5
2D5FC
  8
0
 10
3116.6138494094470843
 20
142.6352988875655114
 30
0.0
 40
1.3839231267879879
 50
312.6474947595085041
 51
352.1213451394839922
  0
ARC
  5
2D5FD
  8
0
 10
3116.6766307211628373
 20
142.6307871109493988
 30
0.0
 40
1.3211224550149541
 50
351.9419448661437855
 51
23.7513541782733384
  0
ARC
  5
2D5FE
  8
0
 10
3116.6573066395440037
 20
142.6036272404662952
 30
0.0
 40
1.3498569767478721
 50
24.4761933065720108
 51
91.4693247210687446
  0
ARC
  5
2D5FF
  8
0
 10
3116.6597861868258406
 20
147.4502604138749859
 30
0.0
 40
1.4530235941476031
 50
268.5372161409143814
 51
284.9859448893985814
  0
ARC
  5
2D600
  8
0
 10
3116.6400676493090032
 20
148.0985873034802012
 30
0.0
 40
2.1996029911036281
 50
269.5474410873018201
 51
279.0068496322306828
  0
ARC
  5
2D601
  8
0
 10
3116.8893520928540966
 20
146.5373171235999052
 30
0.0
 40
0.6185603236440622
 50
278.841058790172724
 51
289.6177905199082261
  0
ARC
  5
2D602
  8
0
 10
3117.0562522231498406
 20
146.0745318937223942
 30
0.0
 40
0.126615838427956
 50
288.7875175837215238
 51
308.3422355995450062
  0
ARC
  5
2D603
  8
0
 10
3116.6296909632560528
 20
143.276507214381212
 30
0.0
 40
2.8035113072767959
 50
84.5167979673737761
 51
90.1429991376858055
  0
ARC
  5
2D604
  8
0
 10
3116.7927418602339458
 20
144.8894905614527886
 30
0.0
 40
1.1823566898633679
 50
78.1513357628604268
 51
84.9130955621208301
  0
ARC
  5
2D605
  8
0
 10
3116.9482373082519189
 20
145.6130815564143006
 30
0.0
 40
0.4422702522223149
 50
69.2774430536669001
 51
78.618925281663806
  0
ARC
  5
2D606
  8
0
 10
3117.0604118050350735
 20
145.9098546074818046
 30
0.0
 40
0.1250048578396714
 50
55.787253867198487
 51
69.2344730615709096
  0
ARC
  5
2D607
  8
0
 10
3117.107469291750931
 20
145.9786193617761967
 30
0.0
 40
0.0416813279145906
 50
36.2583912799327734
 51
56.1312826063216619
  0
ARC
  5
2D608
  8
0
 10
3117.116820661732163
 20
145.9977120312651095
 30
0.0
 40
0.028790856713147
 50
308.6422848156615828
 51
341.3119323163197123
  0
ARC
  5
2D609
  8
0
 10
3117.1275054095590349
 20
145.9928041132839098
 30
0.0
 40
0.0171407389274612
 50
345.4121929363287791
 51
37.635462894428187
  0
CIRCLE
  5
2D60B
  8
0
 10
3116.6226939683560886
 20
148.7338886344572018
 30
0.0
 40
0.6864760500999978
  0
CIRCLE
  5
2D60C
  8
0
 10
3116.6226939683560886
 20
142.6220326498572035
 30
0.0
 40
0.8850000000000015
  0
POINT
  5
2D60D
  8
DEFPOINTS
 10
3116.6226939683560886
 20
148.7338886344572018
 30
0.0
  0
ENDSEC
  0
EOF
