  0
SECTION
  2
HEADER
  9
$ACADVER
  1
AC1009
  9
$INSBASE
 10
3037.4393505635698602
 20
118.2197951421827042
 30
0.0
  9
$EXTMIN
 10
3026.1806451752549947
 20
118.2151215396315962
 30
-0.0000000000000058
  9
$EXTMAX
 10
3048.7439427184199303
 20
152.6711378038351086
 30
0.0000000000000104
  9
$LIMMIN
 10
0.0
 20
0.0
  9
$LIMMAX
 10
11.6929133858000007
 20
8.2677165353999982
  9
$ORTHOMODE
 70
     0
  9
$REGENMODE
 70
     1
  9
$FILLMODE
 70
     1
  9
$QTEXTMODE
 70
     0
  9
$MIRRTEXT
 70
     0
  9
$DRAGMODE
 70
     2
  9
$LTSCALE
 40
0.6431102362
  9
$OSMODE
 70
   575
  9
$ATTMODE
 70
     1
  9
$TEXTSIZE
 40
0.2
  9
$TRACEWID
 40
0.05
  9
$TEXTSTYLE
  7
STANDARD
  9
$CLAYER
  8
0
  9
$CELTYPE
  6
BYLAYER
  9
$CECOLOR
 62
   256
  9
$DIMSCALE
 40
1.0
  9
$DIMASZ
 40
0.1875
  9
$DIMEXO
 40
0.0625
  9
$DIMDLI
 40
0.4443307087
  9
$DIMRND
 40
0.0
  9
$DIMDLE
 40
0.0
  9
$DIMEXE
 40
0.125
  9
$DIMTP
 40
0.01
  9
$DIMTM
 40
0.01
  9
$DIMTXT
 40
2.0
  9
$DIMCEN
 40
0.1052362205
  9
$DIMTSZ
 40
0.0
  9
$DIMTOL
 70
     1
  9
$DIMLIM
 70
     0
  9
$DIMTIH
 70
     1
  9
$DIMTOH
 70
     1
  9
$DIMSE1
 70
     0
  9
$DIMSE2
 70
     0
  9
$DIMTAD
 70
     0
  9
$DIMZIN
 70
     0
  9
$DIMBLK
  1

  9
$DIMASO
 70
     1
  9
$DIMSHO
 70
     1
  9
$DIMPOST
  1
\X
  9
$DIMAPOST
  1

  9
$DIMALT
 70
     1
  9
$DIMALTD
 70
     2
  9
$DIMALTF
 40
25.3999999999999986
  9
$DIMLFAC
 40
1.0
  9
$DIMTOFL
 70
     0
  9
$DIMTVP
 40
0.0
  9
$DIMTIX
 70
     0
  9
$DIMSOXD
 70
     0
  9
$DIMSAH
 70
     0
  9
$DIMBLK1
  1

  9
$DIMBLK2
  1

  9
$DIMSTYLE
  2
STANDARD
  9
$DIMCLRD
 70
     0
  9
$DIMCLRE
 70
     0
  9
$DIMCLRT
 70
     0
  9
$DIMTFAC
 40
1.0
  9
$DIMGAP
 40
0.09
  9
$LUNITS
 70
     2
  9
$LUPREC
 70
     4
  9
$SKETCHINC
 40
0.1
  9
$FILLETRAD
 40
0.0
  9
$AUNITS
 70
     0
  9
$AUPREC
 70
     0
  9
$MENU
  1
.
  9
$ELEVATION
 40
0.0
  9
$PELEVATION
 40
0.0
  9
$THICKNESS
 40
0.0
  9
$LIMCHECK
 70
     0
  9
$BLIPMODE
 70
     0
  9
$CHAMFERA
 40
0.0
  9
$CHAMFERB
 40
0.0
  9
$SKPOLY
 70
     0
  9
$TDCREATE
 40
2458060.468368056230247
  9
$TDUPDATE
 40
2459546.0294097228907049
  9
$TDINDWG
 40
0.6629353009
  9
$TDUSRTIMER
 40
0.6629353009
  9
$USRTIMER
 70
     1
  9
$ANGBASE
 50
0.0
  9
$ANGDIR
 70
     0
  9
$PDMODE
 70
     0
  9
$PDSIZE
 40
0.3125
  9
$PLINEWID
 40
0.0
  9
$COORDS
 70
     1
  9
$SPLFRAME
 70
     0
  9
$SPLINETYPE
 70
     6
  9
$SPLINESEGS
 70
     8
  9
$ATTDIA
 70
     1
  9
$ATTREQ
 70
     1
  9
$HANDLING
 70
     1
  9
$HANDSEED
  5
2D585
  9
$SURFTAB1
 70
     6
  9
$SURFTAB2
 70
     6
  9
$SURFTYPE
 70
     6
  9
$SURFU
 70
     6
  9
$SURFV
 70
     6
  9
$UCSNAME
  2

  9
$UCSORG
 10
0.0
 20
0.0
 30
0.0
  9
$UCSXDIR
 10
1.0
 20
0.0
 30
0.0
  9
$UCSYDIR
 10
0.0
 20
1.0
 30
0.0
  9
$PUCSNAME
  2

  9
$PUCSORG
 10
0.0
 20
0.0
 30
0.0
  9
$PUCSXDIR
 10
1.0
 20
0.0
 30
0.0
  9
$PUCSYDIR
 10
0.0
 20
1.0
 30
0.0
  9
$USERI1
 70
     0
  9
$USERI2
 70
     0
  9
$USERI3
 70
     0
  9
$USERI4
 70
     0
  9
$USERI5
 70
     0
  9
$USERR1
 40
0.0
  9
$USERR2
 40
0.0
  9
$USERR3
 40
0.0
  9
$USERR4
 40
0.0
  9
$USERR5
 40
0.0
  9
$WORLDVIEW
 70
     1
  9
$SHADEDGE
 70
     3
  9
$SHADEDIF
 70
    70
  9
$TILEMODE
 70
     1
  9
$MAXACTVP
 70
    64
  9
$PLIMCHECK
 70
     0
  9
$PEXTMIN
 10
1.0000000000000000E+20
 20
1.0000000000000000E+20
 30
1.0000000000000000E+20
  9
$PEXTMAX
 10
-1.0000000000000000E+20
 20
-1.0000000000000000E+20
 30
-1.0000000000000000E+20
  9
$PLIMMIN
 10
0.0
 20
0.0
  9
$PLIMMAX
 10
12.0
 20
9.0
  9
$UNITMODE
 70
     0
  9
$VISRETAIN
 70
     1
  9
$PLINEGEN
 70
     0
  9
$PSLTSCALE
 70
     1
  0
ENDSEC
  0
SECTION
  2
TABLES
  0
TABLE
  2
VPORT
 70
     1
  0
VPORT
  2
*ACTIVE
 70
     0
 10
0.0
 20
0.0
 11
1.0
 21
1.0
 12
-266.2308213930435841
 22
-59.818381921815778
 13
0.0
 23
0.0
 14
1.0
 24
1.0
 15
0.0
 25
0.0
 16
0.0
 26
0.0
 36
96.5995694866707311
 17
3303.693115234375
 27
195.2615115758877096
 37
0.0
 40
56.0252542695106399
 41
2.6401326699834158
 42
50.0
 43
0.0
 44
0.0
 50
0.0
 51
0.0
 71
     0
 72
   100
 73
     1
 74
     1
 75
     0
 76
     0
 77
     0
 78
     0
  0
ENDTAB
  0
TABLE
  2
LTYPE
 70
     2
  0
LTYPE
  2
CONTINUOUS
 70
     0
  3
Solid line
 72
    65
 73
     0
 40
0.0
  0
LTYPE
  2
PHANTOM2
 70
     0
  3
___ _ _ ___ _ _ ___ _ _ ___ _ _
 72
    65
 73
     6
 40
1.25
 49
0.625
 49
-0.125
 49
0.125
 49
-0.125
 49
0.125
 49
-0.125
  0
ENDTAB
  0
TABLE
  2
LAYER
 70
     2
  0
LAYER
  2
0
 70
     0
 62
   255
  6
CONTINUOUS
  0
LAYER
  2
DEFPOINTS
 70
     0
 62
     7
  6
CONTINUOUS
  0
ENDTAB
  0
TABLE
  2
STYLE
 70
     1
  0
STYLE
  2
STANDARD
 70
     0
 40
0.0
 41
0.8
 50
0.0
 71
     0
 42
0.2
  3
txt
  4

  0
ENDTAB
  0
TABLE
  2
VIEW
 70
     0
  0
ENDTAB
  0
TABLE
  2
UCS
 70
     0
  0
ENDTAB
  0
TABLE
  2
APPID
 70
     9
  0
APPID
  2
ACAD
 70
     0
  0
APPID
  2
ACAD_MLEADERVER
 70
     0
  0
APPID
  2
ACAD_EXEMPT_FROM_CAD_STANDARDS
 70
     0
  0
APPID
  2
ACAD_NAV_VCDISPLAY
 70
     0
  0
APPID
  2
ACAECLAYERSTANDARD
 70
     0
  0
APPID
  2
ACCMTRANSPARENCY
 70
     0
  0
APPID
  2
ACAD_DSTYLE_DIMJAG
 70
     0
  0
APPID
  2
ACAD_DSTYLE_DIMTALN
 70
     0
  0
APPID
  2
ACDBATTR
 70
     0
  0
ENDTAB
  0
TABLE
  2
DIMSTYLE
 70
     1
  0
DIMSTYLE
  2
STANDARD
 70
     0
  3

  4

  5

  6

  7

 40
1.0
 41
0.1875
 42
0.0625
 43
0.38
 44
0.125
 45
0.0
 46
0.0
 47
0.01
 48
0.01
140
0.15625
141
0.09
142
0.0
143
25.3999999999999986
144
1.0
145
0.0
146
1.0
147
0.09
 71
     1
 72
     0
 73
     1
 74
     1
 75
     0
 76
     0
 77
     0
 78
     4
170
     0
171
     2
172
     0
173
     0
174
     0
175
     0
176
     0
177
     0
178
     0
  0
ENDTAB
  0
ENDSEC
  0
SECTION
  2
BLOCKS
  0
BLOCK
  8
0
  2
$MODEL_SPACE
 70
     0
 10
0.0
 20
0.0
 30
0.0
  3
$MODEL_SPACE
  1

  0
ENDBLK
  5
21
  8
0
  0
BLOCK
 67
     1
  8
0
  2
$PAPER_SPACE
 70
     0
 10
0.0
 20
0.0
 30
0.0
  3
$PAPER_SPACE
  1

  0
ENDBLK
  5
1D
 67
     1
  8
0
  0
ENDSEC
  0
SECTION
  2
ENTITIES
  0
ATTDEF
  5
28FC7
  8
DEFPOINTS
 10
3037.4393775253679451
 20
118.2187661366472042
 30
0.0
 40
0.001
  1
K-72448X-8
  3

  2
MODELNUMBER
 70
     0
1001
ACDBATTR
1070
     0
1070
     1
  0
ATTDEF
  5
28FC8
  8
DEFPOINTS
 10
3037.4393775253679451
 20
118.2170994699805959
 30
0.0
 40
0.001
  1
REACH
  3

  2
TRADENAME
 70
     0
1001
ACDBATTR
1070
     0
1070
     1
  0
ATTDEF
  5
28FC9
  8
DEFPOINTS
 10
3037.4393775253679451
 20
118.2154328033139024
 30
0.0
 40
0.001
  1
BATHROOM SINK
  3

  2
PRODUCT
 70
     0
1001
ACDBATTR
1070
     0
1070
     1
  0
LINE
  5
2D3E1
  8
0
 10
3035.1330832576800276
 20
135.4254809384302121
 30
0.0
 11
3034.7662136159801776
 21
135.4254024577302005
 31
0.0
  0
LINE
  5
2D3E2
  8
0
 10
3038.5075086852248205
 20
135.6088944451302041
 30
0.0
 11
3036.3711924679801086
 21
135.6088944451302041
 31
0.0
  0
LINE
  5
2D3E3
  8
0
 10
3034.0313358441808305
 20
138.9655300355302074
 30
0.0
 11
3034.0849086343800991
 21
135.8483496593302107
 31
0.0
  0
LINE
  5
2D3E4
  8
0
 10
3033.9041609327227889
 20
146.3671048387301994
 30
0.0
 11
3034.0313358441808305
 21
138.9655300355302074
 31
0.0
  0
LINE
  5
2D3E5
  8
0
 10
3029.5326366370618416
 20
146.6878554595326989
 30
0.0
 11
3031.8773714120829936
 21
146.6981601127301076
 31
0.0
  0
LINE
  5
2D3E6
  8
0
 10
3032.6530305524302094
 20
146.3671048387301994
 30
0.0
 11
3033.94383238618002
 21
146.3671048387301994
 31
0.0
  0
LINE
  5
2D3E7
  8
0
 10
3029.2045409802808535
 20
146.6765994441302041
 30
0.0
 11
3029.418691035980828
 21
146.6652120201302125
 31
0.0
  0
LINE
  5
2D3E8
  8
0
 10
3035.7170930958800454
 20
135.5752178656302078
 30
0.0
 11
3035.4554184969802009
 21
135.4533114398302018
 31
0.0
  0
ARC
  5
2D3E9
  8
0
 10
3014.3511848956868562
 20
138.5268574578344953
 30
0.0
 40
19.6850393696819985
 50
1.2769173358373651
 51
18.7879457156896983
  0
CIRCLE
  5
2D3EA
  8
0
 10
3033.3054922962801356
 20
145.8552938150301941
 30
0.0
 40
0.1771653543
  0
ARC
  5
2D3EB
  8
0
 10
3039.6963654846799727
 20
147.1491108949300894
 30
0.0
 40
7.0866141732000001
 50
183.6749055331428906
 51
198.7879457155979992
  0
LINE
  5
2D3EC
  8
0
 10
3033.94383238618002
 20
146.3671048387301994
 30
0.0
 11
3033.9388205889840719
 21
146.6904946542518928
 31
0.0
  0
LINE
  5
2D3ED
  8
0
 10
3048.266142732174103
 20
152.6697951442781971
 30
0.0
 11
3026.6124338678459935
 21
152.6697951400871887
 31
0.0
  0
ARC
  5
2D3EE
  8
0
 10
3026.6125583954171816
 20
150.9688669409387103
 30
0.0
 40
1.7009282037069371
 50
90.004194712204395
 51
94.6896885425239816
  0
ARC
  5
2D3EF
  8
0
 10
3026.4228747700781241
 20
152.4223891909697954
 30
0.0
 40
0.2416163336101644
 50
92.5166375530998266
 51
180.739775293095903
  0
ARC
  5
2D3F0
  8
0
 10
3036.2753560416208529
 20
152.5776393734458907
 30
0.0
 40
10.0953197501282599
 50
180.8988610062488078
 51
187.9166744987078062
  0
ARC
  5
2D3F1
  8
0
 10
3036.3986380370238294
 20
152.6002135578193872
 30
0.0
 40
10.2205374179900605
 50
187.9468292447540136
 51
196.5570658578230052
  0
ARC
  5
2D3F2
  8
0
 10
3034.8199044446691914
 20
151.9958091435404128
 30
0.0
 40
8.53600824404141
 50
195.6881214634686046
 51
205.5095947183716021
  0
ARC
  5
2D3F3
  8
0
 10
3030.1275194236482093
 20
149.9616723948686001
 30
0.0
 40
3.4300355712998249
 50
208.6013233879515099
 51
226.2501360233320895
  0
ARC
  5
2D3F4
  8
0
 10
3030.0625419370489908
 20
149.8792696221017877
 30
0.0
 40
3.3255931441323301
 50
226.0770739192034
 51
242.225331080651813
  0
ARC
  5
2D3F5
  8
0
 10
3030.1110196644881398
 20
149.9723689581323924
 30
0.0
 40
3.4305566727313059
 50
242.2335383413181944
 51
252.2734563355070065
  0
ARC
  5
2D3F6
  8
0
 10
3029.2196348799488987
 20
147.1039310515396039
 30
0.0
 40
0.427598092252909
 50
249.0151626068416135
 51
267.9770806675492167
  0
ARC
  5
2D3F7
  8
0
 10
3034.5587310211708427
 20
135.8562100854952064
 30
0.0
 40
0.4738875821582255
 50
180.9504150684632862
 51
200.4895677529817988
  0
ARC
  5
2D3F8
  8
0
 10
3034.5584145139791872
 20
135.8561107903531138
 30
0.0
 40
0.4735563418734477
 50
200.4917184601943063
 51
230.9859721018399057
  0
ARC
  5
2D3F9
  8
0
 10
3034.5586406505299237
 20
135.8564598374429977
 30
0.0
 40
0.4739699060311501
 50
230.991293766945887
 51
246.7438838108255084
  0
ARC
  5
2D3FA
  8
0
 10
3034.4578973545940244
 20
135.5979051217998972
 30
0.0
 40
0.1968761358405697
 50
243.9692094382932055
 51
259.2865878346443083
  0
ARC
  5
2D3FB
  8
0
 10
3034.4388493531992026
 20
135.5237449488377024
 30
0.0
 40
0.1205684960075802
 50
261.6299751322860061
 51
286.7780034595239727
  0
ARC
  5
2D3FC
  8
0
 10
3034.4392751286482053
 20
135.5205759104188985
 30
0.0
 40
0.1174125514087477
 50
287.0254807709977172
 51
300.0399795375603844
  0
ARC
  5
2D3FD
  8
0
 10
3034.7879896340718915
 20
131.2114671646359909
 30
0.0
 40
4.213991557816489
 50
90.2960802049738191
 51
92.4021370810273339
  0
ARC
  5
2D3FE
  8
0
 10
3033.3521236428050543
 20
159.8981613038164937
 30
0.0
 40
24.5087765404502917
 50
272.7809513961024095
 51
272.9451173345955795
  0
ARC
  5
2D3FF
  8
0
 10
3034.5293062191121862
 20
136.0264621143024897
 30
0.0
 40
0.6083308547169429
 50
267.0550499123256145
 51
271.1234162298039791
  0
ARC
  5
2D400
  8
0
 10
3035.1385717179209678
 20
138.8172421829627865
 30
0.0
 40
3.3917656851718712
 50
269.9072855337893202
 51
272.5729507180005839
  0
ARC
  5
2D401
  8
0
 10
3035.2394088340529379
 20
136.723485612932393
 30
0.0
 40
1.2956107202218221
 50
272.2747157795424755
 51
276.3763608613778047
  0
ARC
  5
2D402
  8
0
 10
3035.3653067793729861
 20
135.668357525909812
 30
0.0
 40
0.2331629061157246
 50
274.4254206318993283
 51
292.7353628730808168
  0
ARC
  5
2D403
  8
0
 10
3036.359291594043043
 20
127.2104198298857938
 30
0.0
 40
8.3984830471761978
 50
89.9188103281004487
 51
92.4924214995298257
  0
ARC
  5
2D404
  8
0
 10
3036.1127860076549041
 20
132.5000827847586891
 30
0.0
 40
3.1031468513705911
 50
92.1925772565731734
 51
96.1673621029798653
  0
ARC
  5
2D405
  8
0
 10
3035.8332549314409334
 20
135.0532805675059933
 30
0.0
 40
0.5347075043496032
 50
95.7799495967064871
 51
102.5471935088863944
  0
ARC
  5
2D406
  8
0
 10
3037.3403313509647887
 20
138.463237874793208
 30
0.0
 40
2.7681330789978622
 50
259.7718644320150929
 51
272.0499713861290161
  0
ARC
  5
2D407
  8
0
 10
3037.3578622009558785
 20
132.7696959282019975
 30
0.0
 40
3.012718498761064
 50
88.4500680154816195
 51
99.7280095811717615
  0
ARC
  5
2D408
  8
0
 10
3037.4393505621719669
 20
35.8298027317333165
 30
0.0
 40
100.3497421260418037
 50
88.7319192526798162
 51
91.2680807453916429
  0
ARC
  5
2D409
  8
0
 10
3035.1963707190461719
 20
131.7743742089500927
 30
0.0
 40
4.380650578802511
 50
89.7096101136615118
 51
98.2872879657760024
  0
ARC
  5
2D40A
  8
0
 10
3034.5644200979190828
 20
136.5811835129848077
 30
0.0
 40
0.4719026942770694
 50
180.1336596852542868
 51
270.065357656824574
  0
ARC
  5
2D40B
  8
0
 10
3029.4290889147619055
 20
146.9109065910963068
 30
0.0
 40
0.2459144934431295
 50
267.5766689444117787
 51
294.9022896238047906
  0
ARC
  5
2D40C
  8
0
 10
3036.6345748162489144
 20
1148.8453023206379839
 30
0.0
 40
1002.1584333924979546
 50
269.7280183532535034
 51
270.0460109471948158
  0
LINE
  5
2D40D
  8
0
 10
3034.0925186876811495
 20
136.58008265863009
 30
0.0
 11
3034.0857793257159756
 21
146.6901101167296133
 31
0.0
  0
ARC
  5
2D40E
  8
0
 10
3026.4577579422229974
 20
149.887742654786706
 30
0.0
 40
2.7764025644623902
 50
89.6753000536488685
 51
90.9388553584380475
  0
LINE
  5
2D40F
  8
0
 10
3039.7456178700431337
 20
135.4254809383519103
 30
0.0
 11
3040.1124875117420743
 21
135.4254024576393931
 31
0.0
  0
LINE
  5
2D410
  8
0
 10
3040.8473652836619294
 20
138.9655300354145027
 30
0.0
 11
3040.7937924933571594
 21
135.8483496592162965
 31
0.0
  0
LINE
  5
2D411
  8
0
 10
3040.9745401953709916
 20
146.3671048386102029
 30
0.0
 11
3040.8473652836619294
 21
138.9655300354145027
 31
0.0
  0
LINE
  5
2D412
  8
0
 10
3045.3460644910428528
 20
146.687855459264398
 30
0.0
 11
3043.001329716023065
 21
146.6981601125413874
 31
0.0
  0
LINE
  5
2D413
  8
0
 10
3042.2256705756640258
 20
146.3671048385677977
 30
0.0
 11
3040.934868741912851
 21
146.3671048386115103
 31
0.0
  0
LINE
  5
2D414
  8
0
 10
3045.6741601478238408
 20
146.676599443850705
 30
0.0
 11
3045.4600100921229568
 21
146.6652120198579894
 31
0.0
  0
LINE
  5
2D415
  8
0
 10
3039.1616080318472086
 20
135.5752178655716875
 30
0.0
 11
3039.4232826307429605
 21
135.453311439762814
 31
0.0
  0
ARC
  5
2D416
  8
0
 10
3060.5275162321418065
 20
138.5268574570511078
 30
0.0
 40
19.6850393696819985
 50
161.2120542823660116
 51
178.7230826622183884
  0
CIRCLE
  5
2D417
  8
0
 10
3041.5732088317959096
 20
145.8552938148899045
 30
0.0
 40
0.1771653543
  0
ARC
  5
2D418
  8
0
 10
3035.182335643440183
 20
147.149110895006686
 30
0.0
 40
7.0866141732000001
 50
341.2120542824584959
 51
356.3250944649141729
  0
LINE
  5
2D419
  8
0
 10
3040.934868741912851
 20
146.3671048386115103
 30
0.0
 11
3040.9398805391210772
 21
146.6904946541330901
 31
0.0
  0
ARC
  5
2D41A
  8
0
 10
3048.2661427328330319
 20
150.9688669405709902
 30
0.0
 40
1.700928203707212
 50
85.3103114555414237
 51
90.000000022172884
  0
ARC
  5
2D41B
  8
0
 10
3048.4558263582212021
 20
152.4223891905959931
 30
0.0
 40
0.2416163336101644
 50
359.2602247049604216
 51
87.4833624449441913
  0
ARC
  5
2D41C
  8
0
 10
3038.6033450866839303
 20
152.5776393734064129
 30
0.0
 40
10.0953197501282599
 50
352.083325499345392
 51
359.1011389918073746
  0
ARC
  5
2D41D
  8
0
 10
3038.4800630912809538
 20
152.6002135577840875
 30
0.0
 40
10.2205374179900605
 50
343.4429341402346267
 51
352.0531707533028225
  0
ARC
  5
2D41E
  8
0
 10
3040.0587966836160376
 20
151.9958091434515097
 30
0.0
 40
8.53600824404141
 50
334.4904052796857172
 51
344.3118785345884021
  0
ARC
  5
2D41F
  8
0
 10
3044.7511817045678981
 20
149.961672394620507
 30
0.0
 40
3.4300355712998249
 50
313.7498639747219045
 51
331.3986766101003809
  0
ARC
  5
2D420
  8
0
 10
3044.8161591911648429
 20
149.8792696218515061
 30
0.0
 40
3.3255931441323301
 50
297.7746689174048242
 51
313.922926078847297
  0
ARC
  5
2D421
  8
0
 10
3044.7676814637279676
 20
149.9723689578837025
 30
0.0
 40
3.4305566727313059
 50
287.7265436625506823
 51
297.766461656738386
  0
ARC
  5
2D422
  8
0
 10
3045.6590662481698928
 20
147.1039310512607017
 30
0.0
 40
0.427598092252909
 50
272.0229193304954833
 51
290.9848373912062129
  0
ARC
  5
2D423
  8
0
 10
3040.319970106565961
 20
135.8562100853974925
 30
0.0
 40
0.4738875821582255
 50
339.5104322450665109
 51
359.0495849295925268
  0
ARC
  5
2D424
  8
0
 10
3040.3202866137580713
 20
135.8561107902553999
 30
0.0
 40
0.4735563418734477
 50
309.0140278962156231
 51
339.5082815378623877
  0
ARC
  5
2D425
  8
0
 10
3040.32006047720688
 20
135.8564598373453123
 30
0.0
 40
0.4739699060311501
 50
293.2561161872434923
 51
309.0087062311094996
  0
ARC
  5
2D426
  8
0
 10
3040.4208037752578093
 20
135.5979051164966052
 30
0.0
 40
0.1968761302343668
 50
280.7134118432492755
 51
296.0307906689627089
  0
ARC
  5
2D427
  8
0
 10
3040.4398517745280515
 20
135.5237449488377024
 30
0.0
 40
0.1205684960075802
 50
253.2219965385176863
 51
278.3700248657910947
  0
ARC
  5
2D428
  8
0
 10
3040.4394259956688984
 20
135.5205759035642927
 30
0.0
 40
0.1174125438563637
 50
239.9600202510625877
 51
252.9745198384325136
  0
ARC
  5
2D429
  8
0
 10
3040.0907114935080244
 20
131.2114671645460078
 30
0.0
 40
4.213991557816489
 50
87.5978629170428462
 51
89.7039197930720036
  0
ARC
  5
2D42A
  8
0
 10
3041.526577485748021
 20
159.8981613036777958
 30
0.0
 40
24.5087765404502917
 50
267.0548826634476995
 51
267.2190486019410969
  0
ARC
  5
2D42B
  8
0
 10
3040.349394908630984
 20
136.0264621142038095
 30
0.0
 40
0.6083308547169429
 50
268.8765837682415167
 51
272.9449500857436988
  0
ARC
  5
2D42C
  8
0
 10
3039.7401294099167899
 20
138.8172421828847973
 30
0.0
 40
3.3917656851718712
 50
267.4270492800433203
 51
270.0927144642827216
  0
ARC
  5
2D42D
  8
0
 10
3039.6392922937138792
 20
136.723485612857786
 30
0.0
 40
1.2956107202218221
 50
263.6236391366821863
 51
267.7252842185279178
  0
ARC
  5
2D42E
  8
0
 10
3039.513394348357906
 20
135.6683575258394967
 30
0.0
 40
0.2331629061157246
 50
247.2646371249707045
 51
265.574579366166688
  0
ARC
  5
2D42F
  8
0
 10
3038.5194095334009035
 20
127.2104198298493003
 30
0.0
 40
8.3984830471761391
 50
87.5075784985142349
 51
90.0811894954802881
  0
ARC
  5
2D430
  8
0
 10
3038.7659151199682128
 20
132.5000827847136975
 30
0.0
 40
3.1031468513705911
 50
83.8326378950807651
 51
87.8074227414973336
  0
ARC
  5
2D431
  8
0
 10
3039.0454461962690402
 20
135.0532805674515089
 30
0.0
 40
0.5347075043496032
 50
77.452806489190607
 51
84.2200504013555644
  0
ARC
  5
2D432
  8
0
 10
3037.5383697768597813
 20
138.4632378747897974
 30
0.0
 40
2.7681330789978622
 50
267.9500286119416046
 51
280.2281355660517761
  0
ARC
  5
2D433
  8
0
 10
3037.5208389266767881
 20
132.7696959281992974
 30
0.0
 40
3.012718498761064
 50
80.2719904168722991
 51
91.5499319825895981
  0
ARC
  5
2D434
  8
0
 10
3039.6823304085528434
 20
131.7743742088740078
 30
0.0
 40
4.380650578802511
 50
81.7127120323014537
 51
90.2903898843843109
  0
ARC
  5
2D435
  8
0
 10
3040.3142810298418226
 20
136.5811835128872929
 30
0.0
 40
0.4719026942770694
 50
269.934642341247411
 51
359.8663403128014124
  0
ARC
  5
2D436
  8
0
 10
3045.4496122133509743
 20
146.91090659082451
 30
0.0
 40
0.2459144934431295
 50
245.0977103742436043
 51
272.4233310536583872
  0
ARC
  5
2D437
  8
0
 10
3038.2441263458599678
 20
1148.845302320610017
 30
0.0
 40
1002.1584333924979546
 50
269.9539890508510211
 51
270.2719816447922199
  0
LINE
  5
2D438
  8
0
 10
3040.7861824400811201
 20
136.5800826585166021
 30
0.0
 11
3040.7929218023891735
 21
146.6901101166158128
 31
0.0
  0
ARC
  5
2D439
  8
0
 10
3048.4209431859908364
 20
149.8877426544140974
 30
0.0
 40
2.7764025644623902
 50
89.0611446396336248
 51
90.3246999443969685
  0
ENDSEC
  0
EOF
