  0
SECTION
  2
HEADER
  9
$ACADVER
  1
AC1009
  9
$INSBASE
 10
3783.1864978781832178
 20
-318.9338107208888005
 30
0.0
  9
$EXTMIN
 10
3769.5884856636330369
 20
-324.3821424167497867
 30
0.0
  9
$EXTMAX
 10
3796.784510092732944
 20
-318.9315927944613236
 30
0.0
  9
$LIMMIN
 10
0.0
 20
0.0
  9
$LIMMAX
 10
11.6929133858000007
 20
8.2677165353999982
  9
$ORTHOMODE
 70
     0
  9
$REGENMODE
 70
     1
  9
$FILLMODE
 70
     1
  9
$QTEXTMODE
 70
     0
  9
$MIRRTEXT
 70
     0
  9
$DRAGMODE
 70
     2
  9
$LTSCALE
 40
0.6431102362
  9
$OSMODE
 70
  4095
  9
$ATTMODE
 70
     1
  9
$TEXTSIZE
 40
0.2
  9
$TRACEWID
 40
0.05
  9
$TEXTSTYLE
  7
STANDARD
  9
$CLAYER
  8
0
  9
$CELTYPE
  6
BYLAYER
  9
$CECOLOR
 62
   256
  9
$DIMSCALE
 40
1.0
  9
$DIMASZ
 40
0.1875
  9
$DIMEXO
 40
0.0625
  9
$DIMDLI
 40
0.4443307087
  9
$DIMRND
 40
0.0
  9
$DIMDLE
 40
0.0
  9
$DIMEXE
 40
0.125
  9
$DIMTP
 40
0.01
  9
$DIMTM
 40
0.01
  9
$DIMTXT
 40
2.0
  9
$DIMCEN
 40
0.1052362205
  9
$DIMTSZ
 40
0.0
  9
$DIMTOL
 70
     1
  9
$DIMLIM
 70
     0
  9
$DIMTIH
 70
     1
  9
$DIMTOH
 70
     1
  9
$DIMSE1
 70
     0
  9
$DIMSE2
 70
     0
  9
$DIMTAD
 70
     0
  9
$DIMZIN
 70
     0
  9
$DIMBLK
  1

  9
$DIMASO
 70
     1
  9
$DIMSHO
 70
     1
  9
$DIMPOST
  1
\X
  9
$DIMAPOST
  1

  9
$DIMALT
 70
     1
  9
$DIMALTD
 70
     2
  9
$DIMALTF
 40
25.3999999999999986
  9
$DIMLFAC
 40
1.0
  9
$DIMTOFL
 70
     0
  9
$DIMTVP
 40
0.0
  9
$DIMTIX
 70
     0
  9
$DIMSOXD
 70
     0
  9
$DIMSAH
 70
     0
  9
$DIMBLK1
  1

  9
$DIMBLK2
  1

  9
$DIMSTYLE
  2
STANDARD
  9
$DIMCLRD
 70
     0
  9
$DIMCLRE
 70
     0
  9
$DIMCLRT
 70
     0
  9
$DIMTFAC
 40
1.0
  9
$DIMGAP
 40
0.09
  9
$LUNITS
 70
     2
  9
$LUPREC
 70
     4
  9
$SKETCHINC
 40
0.1
  9
$FILLETRAD
 40
0.0
  9
$AUNITS
 70
     0
  9
$AUPREC
 70
     0
  9
$MENU
  1
.
  9
$ELEVATION
 40
0.0
  9
$PELEVATION
 40
0.0
  9
$THICKNESS
 40
0.0
  9
$LIMCHECK
 70
     0
  9
$BLIPMODE
 70
     0
  9
$CHAMFERA
 40
0.0
  9
$CHAMFERB
 40
0.0
  9
$SKPOLY
 70
     0
  9
$TDCREATE
 40
2458060.468368056230247
  9
$TDUPDATE
 40
2459081.9926620367914438
  9
$TDINDWG
 40
0.423722338
  9
$TDUSRTIMER
 40
0.423722338
  9
$USRTIMER
 70
     1
  9
$ANGBASE
 50
0.0
  9
$ANGDIR
 70
     0
  9
$PDMODE
 70
     0
  9
$PDSIZE
 40
0.3125
  9
$PLINEWID
 40
0.0
  9
$COORDS
 70
     1
  9
$SPLFRAME
 70
     0
  9
$SPLINETYPE
 70
     6
  9
$SPLINESEGS
 70
     8
  9
$ATTDIA
 70
     1
  9
$ATTREQ
 70
     1
  9
$HANDLING
 70
     1
  9
$HANDSEED
  5
CD53
  9
$SURFTAB1
 70
     6
  9
$SURFTAB2
 70
     6
  9
$SURFTYPE
 70
     6
  9
$SURFU
 70
     6
  9
$SURFV
 70
     6
  9
$UCSNAME
  2

  9
$UCSORG
 10
0.0
 20
0.0
 30
0.0
  9
$UCSXDIR
 10
1.0
 20
0.0
 30
0.0
  9
$UCSYDIR
 10
0.0
 20
1.0
 30
0.0
  9
$PUCSNAME
  2

  9
$PUCSORG
 10
0.0
 20
0.0
 30
0.0
  9
$PUCSXDIR
 10
1.0
 20
0.0
 30
0.0
  9
$PUCSYDIR
 10
0.0
 20
1.0
 30
0.0
  9
$USERI1
 70
     0
  9
$USERI2
 70
     0
  9
$USERI3
 70
     0
  9
$USERI4
 70
     0
  9
$USERI5
 70
     0
  9
$USERR1
 40
0.0
  9
$USERR2
 40
0.0
  9
$USERR3
 40
0.0
  9
$USERR4
 40
0.0
  9
$USERR5
 40
0.0
  9
$WORLDVIEW
 70
     1
  9
$SHADEDGE
 70
     3
  9
$SHADEDIF
 70
    70
  9
$TILEMODE
 70
     1
  9
$MAXACTVP
 70
    64
  9
$PLIMCHECK
 70
     0
  9
$PEXTMIN
 10
1.0000000000000000E+20
 20
1.0000000000000000E+20
 30
1.0000000000000000E+20
  9
$PEXTMAX
 10
-1.0000000000000000E+20
 20
-1.0000000000000000E+20
 30
-1.0000000000000000E+20
  9
$PLIMMIN
 10
0.0
 20
0.0
  9
$PLIMMAX
 10
12.0
 20
9.0
  9
$UNITMODE
 70
     0
  9
$VISRETAIN
 70
     1
  9
$PLINEGEN
 70
     0
  9
$PSLTSCALE
 70
     1
  0
ENDSEC
  0
SECTION
  2
TABLES
  0
TABLE
  2
VPORT
 70
     1
  0
VPORT
  2
*ACTIVE
 70
     0
 10
0.0
 20
0.0
 11
1.0
 21
1.0
 12
0.0
 22
0.0
 13
0.0
 23
0.0
 14
1.0
 24
1.0
 15
0.0
 25
0.0
 16
0.0
 26
0.0
 36
100.3776438073905979
 17
3783.1864013671879547
 27
-321.6568669538713152
 37
0.0
 40
27.7368588049987004
 41
2.8398203592814371
 42
50.0
 43
0.0
 44
0.0
 50
0.0
 51
0.0
 71
     0
 72
 10000
 73
     1
 74
     1
 75
     0
 76
     0
 77
     0
 78
     0
  0
ENDTAB
  0
TABLE
  2
LTYPE
 70
     2
  0
LTYPE
  2
CONTINUOUS
 70
     0
  3
Solid line
 72
    65
 73
     0
 40
0.0
  0
LTYPE
  2
PHANTOM2
 70
     0
  3
___ _ _ ___ _ _ ___ _ _ ___ _ _
 72
    65
 73
     6
 40
1.25
 49
0.625
 49
-0.125
 49
0.125
 49
-0.125
 49
0.125
 49
-0.125
  0
ENDTAB
  0
TABLE
  2
LAYER
 70
     2
  0
LAYER
  2
0
 70
     0
 62
   255
  6
CONTINUOUS
  0
LAYER
  2
DEFPOINTS
 70
     0
 62
     7
  6
CONTINUOUS
  0
ENDTAB
  0
TABLE
  2
STYLE
 70
     1
  0
STYLE
  2
STANDARD
 70
     0
 40
0.0
 41
0.8
 50
0.0
 71
     0
 42
0.2
  3
txt
  4

  0
ENDTAB
  0
TABLE
  2
VIEW
 70
     0
  0
ENDTAB
  0
TABLE
  2
UCS
 70
     0
  0
ENDTAB
  0
TABLE
  2
APPID
 70
    11
  0
APPID
  2
ACAD
 70
     0
  0
APPID
  2
ACAD_MLEADERVER
 70
     0
  0
APPID
  2
ACAD_EXEMPT_FROM_CAD_STANDARDS
 70
     0
  0
APPID
  2
ACAD_NAV_VCDISPLAY
 70
     0
  0
APPID
  2
ACAECLAYERSTANDARD
 70
     0
  0
APPID
  2
ACCMTRANSPARENCY
 70
     0
  0
APPID
  2
ACAD_DSTYLE_DIMJAG
 70
     0
  0
APPID
  2
ACAD_DSTYLE_DIMTALN
 70
     0
  0
APPID
  2
ACDBATTR
 70
     0
  0
APPID
  2
ACADANNOTATIVE
 70
     0
  0
APPID
  2
ACAD_PSEXT
 70
     0
  0
ENDTAB
  0
TABLE
  2
DIMSTYLE
 70
     1
  0
DIMSTYLE
  2
STANDARD
 70
     0
  3

  4

  5

  6

  7

 40
1.0
 41
0.1875
 42
0.0625
 43
0.38
 44
0.125
 45
0.0
 46
0.0
 47
0.01
 48
0.01
140
0.15625
141
0.09
142
0.0
143
25.3999999999999986
144
1.0
145
0.0
146
1.0
147
0.09
 71
     1
 72
     0
 73
     1
 74
     1
 75
     0
 76
     0
 77
     0
 78
     4
170
     0
171
     2
172
     0
173
     0
174
     0
175
     0
176
     0
177
     0
178
     0
  0
ENDTAB
  0
ENDSEC
  0
SECTION
  2
BLOCKS
  0
BLOCK
  8
0
  2
$MODEL_SPACE
 70
     0
 10
0.0
 20
0.0
 30
0.0
  3
$MODEL_SPACE
  1

  0
ENDBLK
  5
21
  8
0
  0
BLOCK
 67
     1
  8
0
  2
$PAPER_SPACE
 70
     0
 10
0.0
 20
0.0
 30
0.0
  3
$PAPER_SPACE
  1

  0
ENDBLK
  5
1D
 67
     1
  8
0
  0
BLOCK
  8
0
  2
_FILLED
 70
     0
 10
0.0
 20
0.0
 30
0.0
  3
_FILLED
  1

  0
SOLID
  5
B73F
  8
0
  6
BYBLOCK
 62
     0
 10
0.0
 20
0.0
 30
0.0
 11
-1.0
 21
0.1666666667
 31
0.0
 12
-1.0
 22
-0.1666666667
 32
0.0
 13
-1.0
 23
-0.1666666667
 33
0.0
  0
ENDBLK
  5
B740
  8
0
  6
BYBLOCK
 62
     0
  0
ENDSEC
  0
SECTION
  2
ENTITIES
  0
ATTDEF
  5
9DCC
  8
DEFPOINTS
 10
3783.1896529614418796
 20
-318.9325927944612999
 30
0.0
 40
0.001
  1
K-72570T
  3

  2
MODELNUMBER
 70
     0
1001
ACDBATTR
1070
     0
1070
     1
  0
ATTDEF
  5
9DCD
  8
DEFPOINTS
 10
3783.1896529614418796
 20
-318.9342594611280219
 30
0.0
 40
0.001
  1
ARTIFACTS
  3

  2
TRADENAME
 70
     0
1001
ACDBATTR
1070
     0
1070
     1
  0
ATTDEF
  5
9DCE
  8
DEFPOINTS
 10
3783.1896529614418796
 20
-318.9359261277945734
 30
0.0
 40
0.001
  1
TOWEL BAR
  3

  2
PRODUCT
 70
     0
1001
ACDBATTR
1070
     0
1070
     1
  0
LINE
  5
C8C1
  8
0
 10
3772.6666222143330742
 20
-321.1586138704515179
 30
0.0
 11
3793.7063735420329067
 21
-321.1586138704515179
 31
0.0
  0
LINE
  5
C8C2
  8
0
 10
3772.6666222143330742
 20
-321.7097949728515118
 30
0.0
 11
3793.7063735420329067
 21
-321.7097949728515118
 31
0.0
  0
LINE
  5
C8C3
  8
0
 10
3772.515322893415032
 20
-323.6243156953515268
 30
0.0
 11
3793.8576728629500394
 21
-323.6243156953515268
 31
0.0
  0
LINE
  5
C8C4
  8
0
 10
3772.515322893415032
 20
-324.1754967977515207
 30
0.0
 11
3793.8576728629500394
 21
-324.1754967977515207
 31
0.0
  0
ARC
  5
C8C5
  8
0
 10
3794.1974702107349913
 20
-318.9398719634510826
 30
0.0
 40
0.2984354658014621
 50
180.042348645410101
 51
249.9131116209698007
  0
ARC
  5
C8C6
  8
0
 10
25202.770304658319219
 20
64800.840086807613261
 30
0.0
 40
68548.9141068976896349
 50
251.8013586417667113
 51
251.8014454373160902
  0
ARC
  5
C8C7
  8
0
 10
3794.1825608703329635
 20
-319.2903698906516183
 30
0.0
 40
0.0393700787000055
 50
359.9999999999935199
 51
73.6822396005036779
  0
LINE
  5
C8C8
  8
0
 10
3794.2219309490328669
 20
-319.2903698906516183
 30
0.0
 11
3794.2219309392930882
 21
-319.3411303790290958
 31
0.0
  0
ARC
  5
C8C9
  8
0
 10
3794.2613010072318502
 20
-319.3411303865836999
 30
0.0
 40
0.0393700679387477
 50
179.9999890057198968
 51
261.0001142458604022
  0
ARC
  5
C8CA
  8
0
 10
6122.6294830447159256
 20
14380.9917211675092403
 30
0.0
 40
14883.6237615243608161
 50
260.9997559347943934
 51
261.000244039732479
  0
ARC
  5
C8CB
  8
0
 10
3794.3095487342329761
 20
-319.8470324614514766
 30
0.0
 40
0.4527559054999982
 50
20.5192544732951383
 51
81.000000001669747
  0
ARC
  5
C8CC
  8
0
 10
3794.4017293850820352
 20
-319.8125322506734278
 30
0.0
 40
0.3543306195026647
 50
340.3002758242018899
 51
20.5192597354124793
  0
ARC
  5
C8CD
  8
0
 10
3794.6982559701132232
 20
-319.9187025287864117
 30
0.0
 40
0.0393700766002721
 50
293.9096407723965854
 51
340.3002758242018899
  0
ARC
  5
C8CE
  8
0
 10
3794.7385530508340707
 20
-320.0095967663119154
 30
0.0
 40
0.060056364198771
 50
113.9096407723965996
 51
276.6933961745539818
  0
ARC
  5
C8CF
  8
0
 10
3794.7455529964040579
 20
-320.1164878860807903
 30
0.0
 40
0.0472440943292902
 50
359.9999997929693905
 51
90.0000000857473452
  0
LINE
  5
C8D0
  8
0
 10
3794.792797090833119
 20
-320.1164878862514911
 30
0.0
 11
3794.7927970907330746
 21
-320.1497428351522103
 31
0.0
  0
ARC
  5
C8D1
  8
0
 10
3794.759332523833109
 20
-320.1497428350514838
 30
0.0
 40
0.0334645669000029
 50
299.9999999999084253
 51
359.9999998277040731
  0
ARC
  5
C8D2
  8
0
 10
3794.5393462846332113
 20
-319.7491036875841246
 30
0.0
 40
0.490519389936035
 50
296.4962212525352925
 51
298.85453206401138
  0
ARC
  5
C8D3
  8
0
 10
3794.7658510802020828
 20
-320.202555461372981
 30
0.0
 40
0.01636126934317
 50
117.9362345244516064
 51
179.7215051613380865
  0
LINE
  5
C8D4
  8
0
 10
3794.7494900041328947
 20
-320.2024759352515275
 30
0.0
 11
3794.7495282809741184
 21
-320.3296276664448214
 31
0.0
  0
ARC
  5
C8D5
  8
0
 10
3794.765782071097874
 20
-320.3288523035271282
 30
0.0
 40
0.0163105068482363
 50
182.7247327361612861
 51
240.526010261837996
  0
LINE
  5
C8D6
  8
0
 10
3794.7581828250331455
 20
-320.3432936381515219
 30
0.0
 11
3794.7974329899329859
 21
-320.3624018646514742
 31
0.0
  0
ARC
  5
C8D7
  8
0
 10
3794.8049551358440112
 20
-320.3469506417237085
 30
0.0
 40
0.017184963458605
 50
244.0417103329681083
 51
271.9472401791687162
  0
LINE
  5
C8D8
  8
0
 10
3794.8055390673330294
 20
-320.3641256815516272
 30
0.0
 11
3795.5675107018328163
 21
-320.3641256815516272
 31
0.0
  0
LINE
  5
C8D9
  8
0
 10
3794.8156421501321347
 20
-320.3641256815516272
 30
0.0
 11
3794.8156421501321347
 21
-320.4582366928514716
 31
0.0
  0
ARC
  5
C8DA
  8
0
 10
3794.8456422769149867
 20
-320.4582366928514716
 30
0.0
 40
0.0300001267824115
 50
180.0
 51
269.9957530973638882
  0
LINE
  5
C8DB
  8
0
 10
3794.8456400532331827
 20
-320.4882368195516165
 30
0.0
 11
3795.5273556982601804
 21
-320.4882873499744846
 31
0.0
  0
ARC
  5
C8DC
  8
0
 10
3795.5675072322392225
 20
-320.3444078537601172
 30
0.0
 40
0.0197178280966623
 50
270.0100818974872254
 51
294.1300426066993055
  0
LINE
  5
C8DD
  8
0
 10
3795.5755645162448673
 20
-320.3624027369515943
 30
0.0
 11
3795.6148094250320355
 21
-320.3432929304515255
 31
0.0
  0
ARC
  5
C8DE
  8
0
 10
3795.6080761350549437
 20
-320.3294650902250851
 30
0.0
 40
0.0153800636948926
 50
295.9631742626727942
 51
355.9645225043026926
  0
LINE
  5
C8DF
  8
0
 10
3795.6234180664328051
 20
-320.3305474491517089
 30
0.0
 11
3795.623463196683133
 21
-320.2016775777015027
 31
0.0
  0
ARC
  5
C8E0
  8
0
 10
3795.6073544711539398
 20
-320.2023986775233766
 30
0.0
 40
0.0161248573059112
 50
2.5631085618243481
 51
62.4613101064615321
  0
ARC
  5
C8E1
  8
0
 10
3795.8336417505438476
 20
-319.7491184224314793
 30
0.0
 40
0.4905027583019387
 50
241.1454272401776109
 51
243.5038198181333939
  0
ARC
  5
C8E2
  8
0
 10
3795.6140679083891882
 20
-320.1495091953382257
 30
0.0
 40
0.033870048603175
 50
180.395236388004605
 51
239.6047633995268029
  0
LINE
  5
C8E3
  8
0
 10
3795.5801986656329063
 20
-320.1497428350514838
 30
0.0
 11
3795.5801986655419569
 21
-320.1164869632250998
 31
0.0
  0
ARC
  5
C8E4
  8
0
 10
3795.6274427599651062
 20
-320.1164878860886915
 30
0.0
 40
0.0472440943371506
 50
89.9999999181869725
 51
180.0007999198568029
  0
ARC
  5
C8E5
  8
0
 10
3795.6342384162890085
 20
-320.0095408732801729
 30
0.0
 40
0.0600884299840511
 50
263.5062831966695853
 51
65.8906799814544257
  0
ARC
  5
C8E6
  8
0
 10
3795.6747398089219132
 20
-319.9187025076057012
 30
0.0
 40
0.0393701051513667
 50
199.6996924644253966
 51
246.0903415599009918
  0
ARC
  5
C8E7
  8
0
 10
3795.9779129595131053
 20
-319.8101526398882015
 30
0.0
 40
0.3613903421261123
 50
160.3003075355744897
 51
199.6996924644253966
  0
ARC
  5
C8E8
  8
0
 10
3796.0660146050431649
 20
-319.8527581641791926
 30
0.0
 40
0.458815705799656
 50
99.2048338844649749
 51
158.9997558680240957
  0
ARC
  5
C8E9
  8
0
 10
3796.1759397833648109
 20
-318.9399993673127938
 30
0.0
 40
0.298023932029164
 50
288.0469843576402127
 51
359.7294719840085122
  0
ARC
  5
C8EA
  8
0
 10
168.309163058253489
 20
10715.9912437913098984
 30
0.0
 40
11616.2837705902402377
 50
288.1984380378324886
 51
288.198899579030126
  0
ARC
  5
C8EB
  8
0
 10
3796.1904348860330174
 20
-319.2903698906516183
 30
0.0
 40
0.0393700786999931
 50
106.3177603993048024
 51
180.0000000000098055
  0
LINE
  5
C8EC
  8
0
 10
3796.151064807333114
 20
-319.2903698906516183
 30
0.0
 11
3796.1510648072330696
 21
-319.3411303789515046
 31
0.0
  0
ARC
  5
C8ED
  8
0
 10
3796.1116947284431262
 20
-319.341130378874027
 30
0.0
 40
0.0393700787905414
 50
278.9999137455374125
 51
359.9999998870803779
  0
ARC
  5
C8EE
  8
0
 10
4335.8100217113387771
 20
-3727.2675179746870526
 30
0.0
 40
3450.3572082031942045
 50
98.9989472570093056
 51
99.0010527695160647
  0
LINE
  5
C8EF
  8
0
 10
3795.5573536062329367
 20
-320.3641256815516272
 30
0.0
 11
3795.5573534923328225
 21
-320.4582371701595207
 31
0.0
  0
ARC
  5
C8F0
  8
0
 10
3795.5273032303448417
 20
-320.4582371337907034
 30
0.0
 40
0.0300502619884282
 50
270.1000387836497225
 51
359.9999306568128077
  0
LINE
  5
C8F1
  8
0
 10
3795.4870265844328969
 20
-320.4882368195516165
 30
0.0
 11
3795.4870265844328969
 21
-321.0390233943514886
 31
0.0
  0
LINE
  5
C8F2
  8
0
 10
3794.885969171933084
 20
-320.4882398088440141
 30
0.0
 11
3794.885969171933084
 21
-321.0390254883645866
 31
0.0
  0
LINE
  5
C8F3
  8
0
 10
3794.8625316154329994
 20
-321.0390255669526027
 30
0.0
 11
3795.5104741776322044
 21
-321.0390233943514886
 31
0.0
  0
ARC
  5
C8F4
  8
0
 10
3795.4940838920501847
 20
-321.0737882387546165
 30
0.0
 40
0.0384348262366665
 50
324.3163244354287258
 51
64.7579272902796106
  0
ARC
  5
C8F5
  8
0
 10
3795.5501037186431859
 20
-321.1133644217288747
 30
0.0
 40
0.0301571182121167
 50
145.3255506830612944
 51
212.5229980098164049
  0
ARC
  5
C8F6
  8
0
 10
3794.8790762167100183
 20
-321.0739328475639809
 30
0.0
 40
0.0386295491961879
 50
115.3590087472984038
 51
215.2135817665833031
  0
ARC
  5
C8F7
  8
0
 10
3794.8231255274331488
 20
-321.1135512927515947
 30
0.0
 40
0.029927837899993
 50
327.5051001815245968
 51
35.4164650823036027
  0
ARC
  5
C8F8
  8
0
 10
3795.3185396565268093
 20
-321.4309116209394119
 30
0.0
 40
0.5584197310934897
 50
147.3485743449894869
 51
212.6258207181651869
  0
ARC
  5
C8F9
  8
0
 10
3794.8225036199219176
 20
-321.7482538582372058
 30
0.0
 40
0.030442197884687
 50
325.2324810362807739
 51
32.307043724904311
  0
ARC
  5
C8FA
  8
0
 10
3794.8793352707589293
 20
-321.7878211345425825
 30
0.0
 40
0.0388067227979813
 50
145.0917752181071876
 51
244.296283857191014
  0
LINE
  5
C8FB
  8
0
 10
3794.8625041149330173
 20
-321.8227878891515275
 30
0.0
 11
3795.5104634564331718
 21
-321.82280234395148
 31
0.0
  0
ARC
  5
C8FC
  8
0
 10
3795.4936589227268087
 20
-321.7878212757560163
 30
0.0
 40
0.0388080853065412
 50
295.6591353043892809
 51
34.9070805054127078
  0
ARC
  5
C8FD
  8
0
 10
3795.5508675196551849
 20
-321.7481305651634216
 30
0.0
 40
0.0308210788801463
 50
148.4009441551089878
 51
214.5578568352831041
  0
ARC
  5
C8FE
  8
0
 10
3795.0546353758609257
 20
-321.4307329088525762
 30
0.0
 40
0.558240464238406
 50
327.3409384488197134
 51
32.6476750156091313
  0
LINE
  5
C8FF
  8
0
 10
3795.5254847025330491
 20
-321.7656134567516233
 30
0.0
 11
3794.8475110538461195
 21
-321.7656134567516233
 31
0.0
  0
LINE
  5
C900
  8
0
 10
3795.525302570193162
 20
-321.0962076500508147
 30
0.0
 11
3794.8475155569381059
 21
-321.0962076500508147
 31
0.0
  0
LINE
  5
C901
  8
0
 10
3794.885969171933084
 20
-321.8227997736515249
 30
0.0
 11
3794.885969171933084
 21
-323.4999535247516178
 31
0.0
  0
LINE
  5
C902
  8
0
 10
3795.4870265844328969
 20
-321.8227997736515249
 30
0.0
 11
3795.4870265844328969
 21
-323.499891880077314
 31
0.0
  0
LINE
  5
C903
  8
0
 10
3794.8310085609391535
 20
-321.1586138704515747
 30
0.0
 11
3794.4483089018331157
 21
-321.1586138704515747
 31
0.0
  0
ARC
  5
C904
  8
0
 10
3794.4483089018331157
 20
-321.1468028468514717
 30
0.0
 40
0.0118110235999982
 50
179.9999999999836859
 51
270.0
  0
LINE
  5
C905
  8
0
 10
3794.4364981575290585
 20
-321.1243699522138968
 30
0.0
 11
3794.4364978782327853
 21
-321.7440388843514825
 31
0.0
  0
ARC
  5
C906
  8
0
 10
3794.4065203261579882
 20
-321.744038870840086
 30
0.0
 40
0.0299775520750196
 50
269.9577154961763767
 51
359.9999741758159075
  0
LINE
  5
C907
  8
0
 10
3794.406498202612056
 20
-321.7740164147515998
 30
0.0
 11
3794.2984102652249021
 21
-321.7740334542514802
 31
0.0
  0
ARC
  5
C908
  8
0
 10
3794.2984426374728173
 20
-321.7858771909653797
 30
0.0
 40
0.0118437809157059
 50
90.1565311862873244
 51
176.2208790944625889
  0
ARC
  5
C909
  8
0
 10
3794.1790518838920434
 20
-321.7836191182929042
 30
0.0
 40
0.1075828717687691
 50
313.523536124621387
 51
359.2131269561758131
  0
ARC
  5
C90A
  8
0
 10
3794.2066429261371923
 20
-321.8062356396372934
 30
0.0
 40
0.0723190617127104
 50
209.3529938494247915
 51
310.010729248651387
  0
ARC
  5
C90B
  8
0
 10
3794.133645931879073
 20
-321.8480298070822982
 30
0.0
 40
0.0118110283307295
 50
32.4891297165040527
 51
90.0000120004337276
  0
LINE
  5
C90C
  8
0
 10
3794.1336459294061569
 20
-321.8362187787515722
 30
0.0
 11
3794.081313675056208
 21
-321.8362187897124045
 31
0.0
  0
ARC
  5
C90D
  8
0
 10
3794.0813136687647784
 20
-321.8061865393129892
 30
0.0
 40
0.0300322503993253
 50
218.5508649269308137
 51
270.000012000433685
  0
ARC
  5
C90E
  8
0
 10
3793.9402255076279289
 20
-321.9289721333362877
 30
0.0
 40
0.1570365069358211
 50
41.5066659126598623
 51
79.5761634845893582
  0
ARC
  5
C90F
  8
0
 10
3793.9010690979180254
 20
-322.1101305478771906
 30
0.0
 40
0.342337653969419
 50
78.616524759966552
 51
107.4104636571278064
  0
ARC
  5
C910
  8
0
 10
3793.802069053725063
 20
-321.794830902290073
 30
0.0
 40
0.011861564821957
 50
106.8210246960628069
 51
165.2507289436846065
  0
ARC
  5
C911
  8
0
 10
3793.7435992194627943
 20
-321.7848008851460122
 30
0.0
 40
0.0475190464045095
 50
274.6858646026622068
 51
351.5165514666726949
  0
ARC
  5
C912
  8
0
 10
3793.7508659521640766
 20
-321.7877482904714839
 30
0.0
 40
0.044541605164215
 50
177.2049424095802976
 51
265.6418145903925279
  0
LINE
  5
C913
  8
0
 10
3793.7063773360328014
 20
-321.7855762809516023
 30
0.0
 11
3793.7063735420329067
 21
-321.0827432449514731
 31
0.0
  0
ARC
  5
C914
  8
0
 10
3793.7561110692249713
 20
-321.0827429764607928
 30
0.0
 40
0.0497375271931836
 50
126.7543372011652991
 51
180.0003092913615887
  0
ARC
  5
C915
  8
0
 10
3793.7475985636619953
 20
-321.0735618894938739
 30
0.0
 40
0.0373113904872994
 50
71.3429321041902824
 51
124.7169738275208033
  0
ARC
  5
C916
  8
0
 10
3793.7400895052119267
 20
-321.0857218157709099
 30
0.0
 40
0.0513358531286847
 50
10.2984148990616795
 51
67.7417515150171994
  0
ARC
  5
C917
  8
0
 10
3793.8021448542031067
 20
-321.0735663063163088
 30
0.0
 40
0.011924353350224
 50
194.4619016318941931
 51
252.8894625776360954
  0
ARC
  5
C918
  8
0
 10
3793.9033768693961974
 20
-320.7427223810647092
 30
0.0
 40
0.3579093418217108
 50
252.9836297293568919
 51
276.1532656039880749
  0
ARC
  5
C919
  8
0
 10
3793.930543374869103
 20
-320.9250644546788749
 30
0.0
 40
0.1738661875984847
 50
273.6924858832454106
 51
317.0607899779863033
  0
ARC
  5
C91A
  8
0
 10
3794.0811808232401745
 20
-321.0620336244435862
 30
0.0
 40
0.0298108414618804
 50
89.7501797598409183
 51
141.5736162895188954
  0
LINE
  5
C91B
  8
0
 10
3794.0813108036331869
 20
-321.0322230663514915
 30
0.0
 11
3794.1336466962329723
 21
-321.0322230663514915
 31
0.0
  0
ARC
  5
C91C
  8
0
 10
3794.1335272221431296
 20
-321.0201875954298885
 30
0.0
 40
0.0120360639065681
 50
270.5687468585995248
 51
327.9922584140441018
  0
ARC
  5
C91D
  8
0
 10
3794.2129869726209108
 20
-321.0703462723693065
 30
0.0
 40
0.0819307939014257
 50
111.7918825570109931
 51
147.7006258751466135
  0
ARC
  5
C91E
  8
0
 10
3794.2074157837091661
 20
-321.0584871626118115
 30
0.0
 40
0.068855238725541
 50
65.563284632890074
 51
111.1506952744936996
  0
ARC
  5
C91F
  8
0
 10
3794.1969117837838894
 20
-321.0737385624905187
 30
0.0
 40
0.0871465389322267
 50
13.3204136698681808
 51
63.4235818731292085
  0
ARC
  5
C920
  8
0
 10
3794.1446386558332051
 20
-321.0915929757704816
 30
0.0
 40
0.1422268751728378
 50
3.3377390064858252
 51
15.4683088631969401
  0
ARC
  5
C921
  8
0
 10
3794.2984428900617786
 20
-321.0825310178041718
 30
0.0
 40
0.0118444163565199
 50
183.7820972900989034
 51
269.8420456237033136
  0
LINE
  5
C922
  8
0
 10
3794.2984102371328845
 20
-321.0943753891514802
 30
0.0
 11
3794.4064981861329215
 21
-321.0943924285516005
 31
0.0
  0
ARC
  5
C923
  8
0
 10
3794.4064934560751681
 20
-321.124397141951988
 30
0.0
 40
0.0300047137732128
 50
0.0519204231225454
 51
89.9909676730364936
  0
ARC
  5
C924
  8
0
 10
3794.4483089018331157
 20
-321.7216059964516148
 30
0.0
 40
0.0118110236000009
 50
90.0
 51
179.9999999999901945
  0
LINE
  5
C925
  8
0
 10
3794.4364978936669104
 20
-321.7097949728516255
 30
0.0
 11
3794.8347526658330935
 21
-321.7097949728516255
 31
0.0
  0
LINE
  5
C926
  8
0
 10
3794.2866242697168673
 20
-321.0833123064720098
 30
0.0
 11
3794.2866242697168673
 21
-321.7851211522008157
 31
0.0
  0
LINE
  5
C927
  8
0
 10
3794.1437335213408915
 20
-321.02656711665378
 30
0.0
 11
3794.1437335213408915
 21
-321.8419071054780147
 31
0.0
  0
LINE
  5
C928
  8
0
 10
3794.0578267910318573
 20
-321.0435059303516141
 30
0.0
 11
3794.0578267910318573
 21
-321.8249029128514849
 31
0.0
  0
LINE
  5
C929
  8
0
 10
3793.790598337215215
 20
-321.0765442476737235
 30
0.0
 11
3793.790598337215215
 21
-321.7918110707133224
 31
0.0
  0
LINE
  5
C92A
  8
0
 10
3796.1793733028371207
 20
-319.2525857077962996
 30
0.0
 11
3794.1936224535288602
 21
-319.2525857077962996
 31
0.0
  0
LINE
  5
C92B
  8
0
 10
3796.1178535071171609
 20
-319.3800157559352897
 30
0.0
 11
3794.2551422492479105
 21
-319.3800157559352897
 31
0.0
  0
LINE
  5
C92C
  8
0
 10
3795.6587832746640743
 20
-319.9546940926516072
 30
0.0
 11
3794.7142124817009972
 21
-319.9546940926516072
 31
0.0
  0
LINE
  5
C92D
  8
0
 10
3795.6274427599651062
 20
-320.0692437917516031
 30
0.0
 11
3794.7455529963331173
 21
-320.0692437917516031
 31
0.0
  0
LINE
  5
C92E
  8
0
 10
3795.6006769915761652
 20
-320.180766863851602
 30
0.0
 11
3794.7723187597412107
 21
-320.180766863851602
 31
0.0
  0
ARC
  5
C92F
  8
0
 10
3796.754482752615786
 20
-324.0331034781805215
 30
0.0
 40
0.0300273401246949
 50
278.2478295227801937
 51
359.9987236343235963
  0
ARC
  5
C930
  8
0
 10
3796.7834575387578298
 20
-324.2330419105776969
 30
0.0
 40
0.1719996753712659
 50
98.245464591440836
 51
172.8978015545239089
  0
ARC
  5
C931
  8
0
 10
3796.583173294772223
 20
-324.2073175460899961
 30
0.0
 40
0.0299381237189706
 50
270.012007338517094
 51
351.4356244651286829
  0
LINE
  5
C932
  8
0
 10
3796.5831795688332022
 20
-324.2372556691515229
 30
0.0
 11
3796.567651337632924
 21
-324.2372772707515765
 31
0.0
  0
ARC
  5
C933
  8
0
 10
3796.5676931519178652
 20
-324.2673353165192225
 30
0.0
 40
0.0300580748519333
 50
90.0797051316705364
 51
161.0123914892257062
  0
ARC
  5
C934
  8
0
 10
3796.362063673278044
 20
-324.2047481538929787
 30
0.0
 40
0.184907816357939
 50
297.7295329099180776
 51
343.4060316689930801
  0
ARC
  5
C935
  8
0
 10
3796.3880599547501333
 20
-324.243929282155591
 30
0.0
 40
0.1382131345941105
 50
237.4494410001449864
 51
295.7476899544470825
  0
ARC
  5
C936
  8
0
 10
3796.4198484368221216
 20
-324.2014104789403177
 30
0.0
 40
0.1911966961576206
 50
197.0831981678348939
 51
236.2752303213221978
  0
ARC
  5
C937
  8
0
 10
3796.2087545336858057
 20
-324.2671999276979022
 30
0.0
 40
0.0299227054683155
 50
18.7604411143834788
 51
90.0010955576113361
  0
LINE
  5
C938
  8
0
 10
3796.2087539615308742
 20
-324.2372772222350932
 30
0.0
 11
3796.1795244358331729
 21
-324.2372772707515765
 31
0.0
  0
ARC
  5
C939
  8
0
 10
3796.1795243862088682
 20
-324.2073809804795133
 30
0.0
 40
0.0298962902721204
 50
212.3128782708290032
 51
270.0000951020674052
  0
ARC
  5
C93A
  8
0
 10
3795.9712695692051057
 20
-324.3307989118902128
 30
0.0
 40
0.2121966473330912
 50
30.4182936458520885
 51
81.4217955212882032
  0
ARC
  5
C93B
  8
0
 10
3795.9828348291262046
 20
-324.3241546735205816
 30
0.0
 40
0.204169014000735
 50
84.3542000843826969
 51
148.682300143276791
  0
ARC
  5
C93C
  8
0
 10
3795.7453229505090349
 20
-324.1877586077346223
 30
0.0
 40
0.0699775046723224
 50
205.4758401461963047
 51
334.3671376126874861
  0
LINE
  5
C93D
  8
0
 10
3795.68214417593299
 20
-324.217858006451479
 30
0.0
 11
3795.6821495864328426
 21
-323.5819580718516022
 31
0.0
  0
ARC
  5
C93E
  8
0
 10
3795.7452815870828999
 20
-323.6119861902801063
 30
0.0
 40
0.0699094943654695
 50
25.4376396387107491
 51
154.5623603612922068
  0
ARC
  5
C93F
  8
0
 10
3795.9847217891510809
 20
-323.4729631995763839
 30
0.0
 40
0.2072787110861783
 50
211.7246252058099003
 51
269.500892030866396
  0
ARC
  5
C940
  8
0
 10
3795.9739173664561349
 20
-323.4720859142673817
 30
0.0
 40
0.2083425633353345
 50
272.4755149083759989
 51
329.9418293080656781
  0
ARC
  5
C941
  8
0
 10
3796.1796066741230788
 20
-323.5926226997572144
 30
0.0
 40
0.0300875897936876
 50
90.1566044276924856
 51
147.463138449283008
  0
LINE
  5
C942
  8
0
 10
3796.1795148315318329
 20
-323.5625568454933045
 30
0.0
 11
3796.2087004220329618
 21
-323.5625568454933045
 31
0.0
  0
ARC
  5
C943
  8
0
 10
3796.2087004220329618
 20
-323.5325575273583922
 30
0.0
 40
0.029999318134907
 50
270.0
 51
341.1304338151892921
  0
ARC
  5
C944
  8
0
 10
3796.4084942574850174
 20
-323.5908516449123908
 30
0.0
 40
0.1781613038768229
 50
112.796883736826004
 51
164.1725621286979901
  0
ARC
  5
C945
  8
0
 10
3796.388150380335901
 20
-323.5568915528692742
 30
0.0
 40
0.1390841169472046
 50
63.546803179196317
 51
110.4908469568897971
  0
ARC
  5
C946
  8
0
 10
3796.3613859822357881
 20
-323.5954654074104724
 30
0.0
 40
0.1856656684272295
 50
16.6464017829668194
 51
61.4544357102586716
  0
ARC
  5
C947
  8
0
 10
3796.5676053231591141
 20
-323.5325908531506798
 30
0.0
 40
0.0299451962543416
 50
198.876101444414104
 51
270.0880420399024047
  0
LINE
  5
C948
  8
0
 10
3796.567651337632924
 20
-323.5625360140514886
 30
0.0
 11
3796.5831795670328574
 21
-323.5625352223515279
 31
0.0
  0
ARC
  5
C949
  8
0
 10
3796.5831810927647894
 20
-323.5924605977123747
 30
0.0
 40
0.0299253753997768
 50
8.5023354187805165
 51
90.0029212003150576
  0
ARC
  5
C94A
  8
0
 10
3796.7848919605157789
 20
-323.5653645626782122
 30
0.0
 40
0.1736011497129796
 50
187.5040211709120115
 51
261.3525565642385118
  0
ARC
  5
C94B
  8
0
 10
3796.7545883679408689
 20
-323.7666175905991963
 30
0.0
 40
0.0299218501614018
 50
0.1658592365557379
 51
81.9272023370352684
  0
ARC
  5
C94C
  8
0
 10
3795.2191000136981529
 20
-324.286157986904982
 30
0.0
 40
0.8428003483451743
 50
56.6729143772074835
 51
69.992217209513143
  0
ARC
  5
C94D
  8
0
 10
3795.5034371707301943
 20
-323.5052414235171909
 30
0.0
 40
0.0117297818373985
 50
69.930888599277182
 51
116.1695671244255976
  0
ARC
  5
C94E
  8
0
 10
3795.1562040719131801
 20
-322.7671297480704879
 30
0.0
 40
0.8039800226954861
 50
274.8383862328216196
 51
295.1796717167345037
  0
ARC
  5
C94F
  8
0
 10
3795.1867228267478822
 20
-323.4312915708022729
 30
0.0
 40
0.9295854295961591
 50
237.7963273190962923
 51
302.2049041741678934
  0
ARC
  5
C950
  8
0
 10
3795.1962299202627946
 20
-322.8349645459989006
 30
0.0
 40
0.733806564304603
 50
244.9878783620015099
 51
272.1700715550023801
  0
ARC
  5
C951
  8
0
 10
3795.0817017338617916
 20
-323.0582710930688108
 30
0.0
 40
0.4831093056879609
 50
244.9369421438885013
 51
246.0993655024292934
  0
ARC
  5
C952
  8
0
 10
3794.8696943213708437
 20
-323.506779588630593
 30
0.0
 40
0.0131391233554409
 50
55.9603409261464932
 51
108.4952155881250064
  0
ARC
  5
C953
  8
0
 10
3795.1534339968688982
 20
-324.28358336090389
 30
0.0
 40
0.8401362638347926
 50
110.0409532138142055
 51
123.3703338772905056
  0
LINE
  5
C954
  8
0
 10
3794.691318384233
 20
-323.5819580318516273
 30
0.0
 11
3794.691318384233
 21
-324.2178686538252919
 31
0.0
  0
ARC
  5
C955
  8
0
 10
3794.6281361978171844
 20
-323.6120645029247953
 30
0.0
 40
0.0699884867736809
 50
25.4779173417589284
 51
154.5332875246830895
  0
LINE
  5
C956
  8
0
 10
3794.5649481249288328
 20
-323.5819703884520209
 30
0.0
 11
3794.5649481249288328
 21
-324.2178421046509129
 31
0.0
  0
ARC
  5
C957
  8
0
 10
3794.6281395806108776
 20
-324.1877436553210146
 30
0.0
 40
0.0699934051319077
 50
205.4687249977166061
 51
334.5072000576681717
  0
ARC
  5
C958
  8
0
 10
3794.3413686899848472
 20
-323.2534131188011202
 30
0.0
 40
0.3974136927311521
 50
281.4061243823076097
 51
304.2348358333189253
  0
ARC
  5
C959
  8
0
 10
3794.3573789707397736
 20
-323.3327714827141222
 30
0.0
 40
0.3164564261468448
 50
256.4212415967584207
 51
281.4061243823076097
  0
ARC
  5
C95A
  8
0
 10
3794.3239339861261215
 20
-323.4712410750146887
 30
0.0
 40
0.1740050485202619
 50
216.3326579353690988
 51
256.4212415967584207
  0
LINE
  5
C95B
  8
0
 10
3794.1837571354330976
 20
-323.5743342728516154
 30
0.0
 11
3794.1837571354330976
 21
-324.2254782201515013
 31
0.0
  0
ARC
  5
C95C
  8
0
 10
3794.0793066527721749
 20
-324.2159461399488123
 30
0.0
 40
0.1048845264133264
 50
328.032487202951188
 51
354.7856694547296001
  0
ARC
  5
C95D
  8
0
 10
3794.1193800090532022
 20
-324.240955169315896
 30
0.0
 40
0.0576476188782712
 50
275.8904407731362198
 51
328.032487202951188
  0
ARC
  5
C95E
  8
0
 10
3794.1235923016520246
 20
-324.2498618305234004
 30
0.0
 40
0.0484665356262885
 50
244.6226932303621027
 51
272.0147006082568168
  0
ARC
  5
C95F
  8
0
 10
3794.1371105534371964
 20
-324.2292218042999252
 30
0.0
 40
0.072986269840271
 50
197.6637807288431929
 51
241.9778315132913917
  0
LINE
  5
C960
  8
0
 10
3794.0675653319322009
 20
-324.2513680850515243
 30
0.0
 11
3794.0675653319322009
 21
-323.5484444079514788
 31
0.0
  0
ARC
  5
C961
  8
0
 10
3794.1382151553998483
 20
-323.571275458210323
 30
0.0
 40
0.0742472518813561
 50
120.508439456279504
 51
162.0913502381355897
  0
ARC
  5
C962
  8
0
 10
3794.1233342292489397
 20
-323.5491528197993034
 30
0.0
 40
0.0476593905145051
 50
74.4283996218398443
 51
118.5968000633559001
  0
ARC
  5
C963
  8
0
 10
3794.1198053865259681
 20
-323.5568779779604824
 30
0.0
 40
0.05606396617569
 50
36.2476150668578327
 51
73.0735894224276734
  0
ARC
  5
C964
  8
0
 10
3794.080323593250796
 20
-323.5838610790449934
 30
0.0
 40
0.1038713516070071
 50
5.2624132903358989
 51
35.3740625004342419
  0
LINE
  5
C965
  8
0
 10
3794.0675653319322009
 20
-323.5484444079514788
 30
0.0
 11
3793.8876683582329861
 21
-323.5484444079514788
 31
0.0
  0
ARC
  5
C966
  8
0
 10
3793.8876683582329861
 20
-323.578444407951622
 30
0.0
 40
0.0299999999999994
 50
90.0
 51
179.0070755313712141
  0
ARC
  5
C967
  8
0
 10
3793.8876683582329861
 20
-324.2213680850514947
 30
0.0
 40
0.0299999999999994
 50
180.9929244692376926
 51
270.0
  0
LINE
  5
C968
  8
0
 10
3793.8876683582329861
 20
-324.2513680850515243
 30
0.0
 11
3794.0675653319322009
 21
-324.2513680850515243
 31
0.0
  0
LINE
  5
C969
  8
0
 10
3794.691318384233
 20
-323.5819580318516273
 30
0.0
 11
3794.691318384233
 21
-324.2178686538252919
 31
0.0
  0
ARC
  5
C96A
  8
0
 10
3794.3381863800718747
 20
-324.5530614546527772
 30
0.0
 40
0.4047133573147278
 50
55.9233073940619576
 51
72.6978251318347617
  0
ARC
  5
C96B
  8
0
 10
3794.3525830105668319
 20
-324.5070686196218048
 30
0.0
 40
0.3565200088160449
 50
72.7084954601534292
 51
94.5167937988505997
  0
ARC
  5
C96C
  8
0
 10
3794.3404184925029767
 20
-324.353080821574622
 30
0.0
 40
0.2020524800369253
 50
94.5167937988505997
 51
140.8367605990555944
  0
LINE
  5
C96D
  8
0
 10
3796.2370874918119625
 20
-323.5422597620449778
 30
0.0
 11
3796.2370874918119625
 21
-324.2575764259253788
 31
0.0
  0
LINE
  5
C96E
  8
0
 10
3796.6127775834320346
 20
-323.5880361392179907
 30
0.0
 11
3796.6127775834320346
 21
-324.2117759476781771
 31
0.0
  0
LINE
  5
C96F
  8
0
 10
3796.1542577843820254
 20
-323.5764147742738146
 30
0.0
 11
3796.1542577843820254
 21
-324.2233618128764192
 31
0.0
  0
ARC
  5
C970
  8
0
 10
3795.4895004380591672
 20
-320.5978535583001872
 30
0.0
 40
0.4094548656932015
 50
72.4562771701055652
 51
107.5465616299587026
  0
ARC
  5
C971
  8
0
 10
3795.3635669226950995
 20
-320.1978502185370985
 30
0.0
 40
0.0099173542871899
 50
255.3892826116100991
 51
284.5456644099668893
  0
ARC
  5
C972
  8
0
 10
3795.186500466025791
 20
-320.9853769103499985
 30
0.0
 40
0.7972753754486526
 50
77.3525311211536604
 51
102.6479235220989068
  0
ARC
  5
C973
  8
0
 10
3795.0094341551321122
 20
-320.1976389144896871
 30
0.0
 40
0.0101217481532008
 50
255.7288308412701099
 51
284.2724045200761793
  0
ARC
  5
C974
  8
0
 10
3794.8835069323808966
 20
-320.5914172065611183
 30
0.0
 40
0.4033207163922864
 50
72.1792824376917821
 51
107.8219291107240991
  0
ARC
  5
C975
  8
0
 10
3794.7584948517619523
 20
-320.203319743525924
 30
0.0
 40
0.0044201055514759
 50
267.6423162745571176
 51
290.8312650091593241
  0
ARC
  5
C976
  8
0
 10
3794.7583510896511143
 20
-320.2073814748255245
 30
0.0
 40
0.0003566702387797
 50
191.5539087570271874
 51
263.8725711929096178
  0
ARC
  5
C977
  8
0
 10
3794.7652640001051623
 20
-320.2214492748694852
 30
0.0
 40
0.0157683208692722
 50
117.4236401755590009
 51
179.8927769152406029
  0
ARC
  5
C978
  8
0
 10
3795.6145832192178204
 20
-320.2030357779635779
 30
0.0
 40
0.0047098041439048
 50
249.3705928535520968
 51
271.0297737610922013
  0
ARC
  5
C979
  8
0
 10
3795.6146714779060858
 20
-320.2074233570141928
 30
0.0
 40
0.0003214847340937
 50
269.35585419728028
 51
356.1935180244120147
  0
ARC
  5
C97A
  8
0
 10
3795.6076686058381711
 20
-320.2214940106669019
 30
0.0
 40
0.0158435779585835
 50
4.7955604845168169
 51
62.4677974292519593
  0
ARC
  5
C97B
  8
0
 10
3795.489499450016865
 20
-319.9399476178454051
 30
0.0
 40
0.4033540832230896
 50
252.1789457962321137
 51
287.8192160926355996
  0
ARC
  5
C97C
  8
0
 10
3795.3635628256811287
 20
-320.3335770475641198
 30
0.0
 40
0.0099467272763331
 50
75.4904902454533158
 51
104.5420536517276986
  0
ARC
  5
C97D
  8
0
 10
3795.1864939356210016
 20
-319.5458994080460116
 30
0.0
 40
0.7973934365752756
 50
257.3547363482459218
 51
282.6460484218761735
  0
ARC
  5
C97E
  8
0
 10
3795.0094629078530488
 20
-320.3333741849370995
 30
0.0
 40
0.0097412508041135
 50
75.3097059766370336
 51
104.9745438538333957
  0
ARC
  5
C97F
  8
0
 10
3794.8835389250330081
 20
-319.9397873323515
 30
0.0
 40
0.4035105768000496
 50
252.1851014786950032
 51
287.8082999292857949
  0
ARC
  5
C980
  8
0
 10
3794.7582636743268267
 20
-320.3290051388833035
 30
0.0
 40
0.0053746110300715
 50
70.1605643647214521
 51
88.008828315977496
  0
ARC
  5
C981
  8
0
 10
3794.7583880974739259
 20
-320.3240255741126816
 30
0.0
 40
0.0003967264595669
 50
80.9621637661044673
 51
168.0020865702360027
  0
ARC
  5
C982
  8
0
 10
3794.7652977043230749
 20
-320.3099153198049862
 30
0.0
 40
0.0158124848253932
 50
183.9443673462916991
 51
242.5152199268468109
  0
ARC
  5
C983
  8
0
 10
3795.6148378680231872
 20
-320.3291009844106725
 30
0.0
 40
0.0054805826604539
 50
95.0917706944449463
 51
110.3346003825512014
  0
ARC
  5
C984
  8
0
 10
3795.6145046816632203
 20
-320.3241478554754735
 30
0.0
 40
0.0005285237384705
 50
21.6214502933264505
 51
106.8523197855416953
  0
ARC
  5
C985
  8
0
 10
3795.6076656991967866
 20
-320.3099020753303989
 30
0.0
 40
0.0158481896650241
 50
297.5507104407561201
 51
353.9188418016602782
  0
LINE
  5
C986
  8
0
 10
3795.3635612926709655
 20
-320.2077675712263272
 30
0.0
 11
3795.3635600008187794
 21
-320.323630320688892
 31
0.0
  0
LINE
  5
C987
  8
0
 10
3795.0094341551321122
 20
-320.2077606626428974
 30
0.0
 11
3795.0094629078530488
 21
-320.3236329341331157
 31
0.0
  0
LINE
  5
C988
  8
0
 10
3796.784510092732944
 20
-323.7665309732543051
 30
0.0
 11
3796.784510092732944
 21
-324.0331041472963989
 31
0.0
  0
LINE
  5
C98A
  8
0
 10
3795.8084135877329572
 20
-323.5819580718516022
 30
0.0
 11
3795.8084135877329572
 21
-324.2180310812851758
 31
0.0
  0
LINE
  5
C98B
  8
0
 10
3796.5392705680242216
 20
-324.2575555113814971
 30
0.0
 11
3796.5392705680242216
 21
-323.5422788059851769
 31
0.0
  0
LINE
  5
C98C
  8
0
 10
3796.4739603933940089
 20
-318.9338107208516249
 30
0.0
 11
3796.4739603933940089
 21
-318.9414065132527867
 31
0.0
  0
LINE
  5
C98D
  8
0
 10
3793.899034826451043
 20
-318.9400925440364745
 30
0.0
 11
3793.899034826451043
 21
-318.9338107209260897
 31
0.0
  0
ARC
  5
C98E
  8
0
 10
3772.1755255456309897
 20
-318.9398719634510826
 30
0.0
 40
0.2984354658014621
 50
290.086888379030313
 51
359.9576513545899275
  0
ARC
  5
C98F
  8
0
 10
-17636.3973089021383203
 20
64800.8400868075477774
 30
0.0
 40
68548.9141068976896349
 50
288.1985545626839098
 51
288.1986413582333171
  0
ARC
  5
C990
  8
0
 10
3772.1904348860330174
 20
-319.2903698906516183
 30
0.0
 40
0.0393700787000055
 50
106.3177603994962936
 51
180.0000000000065086
  0
LINE
  5
C991
  8
0
 10
3772.151064807333114
 20
-319.2903698906516183
 30
0.0
 11
3772.1510648170728928
 21
-319.3411303790292095
 31
0.0
  0
ARC
  5
C992
  8
0
 10
3772.1116947491341307
 20
-319.3411303865836999
 30
0.0
 40
0.0393700679387477
 50
278.9998857541395978
 51
0.0000109942800576
  0
ARC
  5
C993
  8
0
 10
1443.7435127116050353
 20
14380.9917211675001454
 30
0.0
 40
14883.6237615243608161
 50
278.999755960267521
 51
279.0002440652056066
  0
ARC
  5
C994
  8
0
 10
3772.0634470221330048
 20
-319.8470324614515903
 30
0.0
 40
0.4527559054999982
 50
98.999999998330253
 51
159.4807455267049079
  0
ARC
  5
C995
  8
0
 10
3771.9712663712839458
 20
-319.8125322506734278
 30
0.0
 40
0.3543306195026647
 50
159.4807402645874959
 51
199.6997241757981101
  0
ARC
  5
C996
  8
0
 10
3771.6747397862518483
 20
-319.9187025287864117
 30
0.0
 40
0.0393700766002721
 50
199.6997241757981101
 51
246.0903592276033862
  0
ARC
  5
C997
  8
0
 10
3771.6344427055319102
 20
-320.0095967663119723
 30
0.0
 40
0.060056364198771
 50
263.3066038254460182
 51
66.0903592276034431
  0
ARC
  5
C998
  8
0
 10
3771.627442759961923
 20
-320.1164878860807903
 30
0.0
 40
0.0472440943292902
 50
89.9999999142526548
 51
180.0000002070306095
  0
LINE
  5
C999
  8
0
 10
3771.5801986655328619
 20
-320.1164878862516048
 30
0.0
 11
3771.5801986656329063
 21
-320.1497428351522103
 31
0.0
  0
ARC
  5
C99A
  8
0
 10
3771.6136632325328719
 20
-320.1497428350515975
 30
0.0
 40
0.0334645669000029
 50
180.0000001722958984
 51
240.0000000000916032
  0
ARC
  5
C99B
  8
0
 10
3771.8336494717332243
 20
-319.7491036875841814
 30
0.0
 40
0.490519389936035
 50
241.1454679359885063
 51
243.5037787474647075
  0
ARC
  5
C99C
  8
0
 10
3771.6071446761648076
 20
-320.2025554613730947
 30
0.0
 40
0.01636126934317
 50
0.2784948386619193
 51
62.0637654755483368
  0
LINE
  5
C99D
  8
0
 10
3771.6235057522330862
 20
-320.2024759352515844
 30
0.0
 11
3771.6234674753932268
 21
-320.3296276664448214
 31
0.0
  0
ARC
  5
C99E
  8
0
 10
3771.6072136852681069
 20
-320.3288523035271282
 30
0.0
 40
0.0163105068482363
 50
299.473989738162004
 51
357.2752672638386002
  0
LINE
  5
C99F
  8
0
 10
3771.6148129313328354
 20
-320.3432936381515788
 30
0.0
 11
3771.575562766432995
 21
-320.3624018646515879
 31
0.0
  0
ARC
  5
C9A0
  8
0
 10
3771.5680406205219697
 20
-320.3469506417237085
 30
0.0
 40
0.017184963458605
 50
268.052759820831227
 51
295.9582896670332843
  0
LINE
  5
C9A1
  8
0
 10
3771.5674566890329515
 20
-320.3641256815516272
 30
0.0
 11
3770.8054850545331647
 21
-320.3641256815516272
 31
0.0
  0
LINE
  5
C9A2
  8
0
 10
3771.5573536062320272
 20
-320.3641256815516272
 30
0.0
 11
3771.5573536062320272
 21
-320.4582366928515853
 31
0.0
  0
ARC
  5
C9A3
  8
0
 10
3771.5273534794500847
 20
-320.4582366928515853
 30
0.0
 40
0.0300001267824115
 50
270.0042469026361118
 51
0.0
  0
LINE
  5
C9A4
  8
0
 10
3771.5273557031327982
 20
-320.4882368195516165
 30
0.0
 11
3770.8456400581058006
 21
-320.4882873499744846
 31
0.0
  0
ARC
  5
C9A5
  8
0
 10
3770.8054885241281227
 20
-320.344407853760174
 30
0.0
 40
0.0197178280966623
 50
245.8699573933006945
 51
269.9899181025127746
  0
LINE
  5
C9A6
  8
0
 10
3770.7974312401211137
 20
-320.3624027369515943
 30
0.0
 11
3770.7581863313330359
 21
-320.3432929304515824
 31
0.0
  0
ARC
  5
C9A7
  8
0
 10
3770.7649196213110372
 20
-320.3294650902250851
 30
0.0
 40
0.0153800636948926
 50
184.0354774956971937
 51
244.0368257373270922
  0
LINE
  5
C9A8
  8
0
 10
3770.7495776899331759
 20
-320.3305474491517089
 30
0.0
 11
3770.7495325596828479
 21
-320.2016775777015027
 31
0.0
  0
ARC
  5
C9A9
  8
0
 10
3770.7656412852120411
 20
-320.2023986775234903
 30
0.0
 40
0.0161248573059112
 50
117.5386898935384039
 51
177.4368914381755928
  0
ARC
  5
C9AA
  8
0
 10
3770.5393540058212238
 20
-319.7491184224314793
 30
0.0
 40
0.4905027583019387
 50
296.4961801818665776
 51
298.8545727598223039
  0
ARC
  5
C9AB
  8
0
 10
3770.7589278479767927
 20
-320.1495091953382257
 30
0.0
 40
0.033870048603175
 50
300.3952366004731971
 51
359.604763611995395
  0
LINE
  5
C9AC
  8
0
 10
3770.7927970907330746
 20
-320.1497428350515975
 30
0.0
 11
3770.7927970908240241
 21
-320.1164869632250998
 31
0.0
  0
ARC
  5
C9AD
  8
0
 10
3770.7455529963999652
 20
-320.1164878860886915
 30
0.0
 40
0.0472440943371506
 50
359.9992000801431118
 51
90.0000000818130417
  0
ARC
  5
C9AE
  8
0
 10
3770.7387573400769725
 20
-320.0095408732801729
 30
0.0
 40
0.0600884299840511
 50
114.1093200185456027
 51
276.493716803330301
  0
ARC
  5
C9AF
  8
0
 10
3770.6982559474440677
 20
-319.9187025076057012
 30
0.0
 40
0.0393701051513667
 50
293.9096584400988945
 51
340.3003075355745182
  0
ARC
  5
C9B0
  8
0
 10
3770.3950827968519661
 20
-319.8101526398882015
 30
0.0
 40
0.3613903421261123
 50
340.3003075355745182
 51
19.6996924644254712
  0
ARC
  5
C9B1
  8
0
 10
3770.306981151322816
 20
-319.8527581641793063
 30
0.0
 40
0.458815705799656
 50
21.0002441319758404
 51
80.7951661155350394
  0
ARC
  5
C9B2
  8
0
 10
3770.1970559730011701
 20
-318.9399993673127938
 30
0.0
 40
0.298023932029164
 50
180.2705280159914878
 51
251.9530156423597873
  0
ARC
  5
C9B3
  8
0
 10
7398.0638326980788406
 20
10715.9912437913208123
 30
0.0
 40
11616.2837705902402377
 50
251.8011004209697887
 51
251.8015619621675114
  0
ARC
  5
C9B4
  8
0
 10
3770.182560870332054
 20
-319.2903698906516183
 30
0.0
 40
0.0393700786999931
 50
359.9999999999902229
 51
73.6822396006951834
  0
LINE
  5
C9B5
  8
0
 10
3770.2219309490328669
 20
-319.2903698906516183
 30
0.0
 11
3770.2219309491338208
 21
-319.3411303789515046
 31
0.0
  0
ARC
  5
C9B6
  8
0
 10
3770.2613010279242189
 20
-319.341130378874027
 30
0.0
 40
0.0393700787905414
 50
180.0000001129195084
 51
261.0000862544627012
  0
ARC
  5
C9B7
  8
0
 10
3230.562974045035844
 20
-3727.2675179746879621
 30
0.0
 40
3450.3572082031942045
 50
80.9989472304839637
 51
81.0010527429907086
  0
LINE
  5
C9B8
  8
0
 10
3770.8156421501330442
 20
-320.3641256815516272
 30
0.0
 11
3770.8156422640331584
 21
-320.4582371701595775
 31
0.0
  0
ARC
  5
C9B9
  8
0
 10
3770.8456925260220487
 20
-320.4582371337907034
 30
0.0
 40
0.0300502619884282
 50
180.0000693431871923
 51
269.8999612163502775
  0
LINE
  5
C9BA
  8
0
 10
3770.885969171933084
 20
-320.4882368195516165
 30
0.0
 11
3770.885969171933084
 21
-321.0390233943516023
 31
0.0
  0
LINE
  5
C9BB
  8
0
 10
3771.4870265844328969
 20
-320.4882398088440141
 30
0.0
 11
3771.4870265844328969
 21
-321.0390254883647003
 31
0.0
  0
LINE
  5
C9BC
  8
0
 10
3771.5104641409329815
 20
-321.0390255669526027
 30
0.0
 11
3770.8625215787328671
 21
-321.0390233943516023
 31
0.0
  0
ARC
  5
C9BD
  8
0
 10
3770.8789118643148868
 20
-321.0737882387546733
 30
0.0
 40
0.0384348262366665
 50
115.2420727097204036
 51
215.6836755645713026
  0
ARC
  5
C9BE
  8
0
 10
3770.8228920377227951
 20
-321.1133644217288747
 30
0.0
 40
0.0301571182121167
 50
327.4770019901836235
 51
34.6744493169386772
  0
ARC
  5
C9BF
  8
0
 10
3771.4939195396550531
 20
-321.0739328475639809
 30
0.0
 40
0.0386295491961879
 50
324.7864182334167253
 51
64.640991252701582
  0
ARC
  5
C9C0
  8
0
 10
3771.5498702289328321
 20
-321.1135512927515947
 30
0.0
 40
0.029927837899993
 50
144.5835349176963973
 51
212.4948998184754885
  0
ARC
  5
C9C1
  8
0
 10
3771.0544560998400812
 20
-321.4309116209394119
 30
0.0
 40
0.5584197310934897
 50
327.3741792818348131
 51
32.6514256550105273
  0
ARC
  5
C9C2
  8
0
 10
3771.5504921364431539
 20
-321.7482538582373195
 30
0.0
 40
0.030442197884687
 50
147.6929562750956961
 51
214.7675189637218125
  0
ARC
  5
C9C3
  8
0
 10
3771.4936604856070517
 20
-321.7878211345426962
 30
0.0
 40
0.0388067227979813
 50
295.7037161428090144
 51
34.9082247818928408
  0
LINE
  5
C9C4
  8
0
 10
3771.5104916414329637
 20
-321.8227878891515843
 30
0.0
 11
3770.8625322999328091
 21
-321.8228023439515937
 31
0.0
  0
ARC
  5
C9C5
  8
0
 10
3770.879336833637808
 20
-321.7878212757560163
 30
0.0
 40
0.0388080853065412
 50
145.0929194945873064
 51
244.3408646956106907
  0
ARC
  5
C9C6
  8
0
 10
3770.822128236710796
 20
-321.7481305651634784
 30
0.0
 40
0.0308210788801463
 50
325.4421431647169243
 51
31.5990558448909518
  0
ARC
  5
C9C7
  8
0
 10
3771.3183603805050552
 20
-321.4307329088526899
 30
0.0
 40
0.558240464238406
 50
147.35232498439089
 51
212.6590615511802866
  0
LINE
  5
C9C8
  8
0
 10
3770.8475110538329318
 20
-321.7656134567516233
 30
0.0
 11
3771.525484702518952
 21
-321.7656134567516233
 31
0.0
  0
LINE
  5
C9C9
  8
0
 10
3770.847693186172819
 20
-321.0962076500509284
 30
0.0
 11
3771.525480199427875
 21
-321.0962076500509284
 31
0.0
  0
LINE
  5
C9CA
  8
0
 10
3771.4870265844328969
 20
-321.8227997736515817
 30
0.0
 11
3771.4870265844328969
 21
-323.4999535247516178
 31
0.0
  0
LINE
  5
C9CB
  8
0
 10
3770.885969171933084
 20
-321.8227997736515817
 30
0.0
 11
3770.885969171933084
 21
-323.4998918800774277
 31
0.0
  0
LINE
  5
C9CC
  8
0
 10
3771.5419871954268274
 20
-321.1586138704515747
 30
0.0
 11
3771.9246868545328653
 21
-321.1586138704515747
 31
0.0
  0
ARC
  5
C9CD
  8
0
 10
3771.9246868545328653
 20
-321.1468028468515854
 30
0.0
 40
0.0118110235999982
 50
270.0
 51
0.0000000000162844
  0
LINE
  5
C9CE
  8
0
 10
3771.9364975988378319
 20
-321.1243699522138968
 30
0.0
 11
3771.9364978781331956
 21
-321.7440388843515962
 31
0.0
  0
ARC
  5
C9CF
  8
0
 10
3771.9664754302079928
 20
-321.7440388708401997
 30
0.0
 40
0.0299775520750196
 50
180.0000258241840072
 51
270.0422845038236233
  0
LINE
  5
C9D0
  8
0
 10
3771.9664975537539249
 20
-321.7740164147515998
 30
0.0
 11
3772.0745854911410788
 21
-321.7740334542515939
 31
0.0
  0
ARC
  5
C9D1
  8
0
 10
3772.0745531188931636
 20
-321.7858771909653797
 30
0.0
 40
0.0118437809157059
 50
3.7791209055373298
 51
89.843468813712704
  0
ARC
  5
C9D2
  8
0
 10
3772.1939438724739375
 20
-321.7836191182929042
 30
0.0
 40
0.1075828717687691
 50
180.7868730438241869
 51
226.476463875378613
  0
ARC
  5
C9D3
  8
0
 10
3772.1663528302287887
 20
-321.8062356396372934
 30
0.0
 40
0.0723190617127104
 50
229.989270751348613
 51
330.6470061505751801
  0
ARC
  5
C9D4
  8
0
 10
3772.2393498244869079
 20
-321.8480298070822982
 30
0.0
 40
0.0118110283307295
 50
89.9999879995662582
 51
147.5108702834959047
  0
LINE
  5
C9D5
  8
0
 10
3772.2393498269611882
 20
-321.8362187787515722
 30
0.0
 11
3772.2916820813111372
 21
-321.8362187897124045
 31
0.0
  0
ARC
  5
C9D6
  8
0
 10
3772.2916820875998383
 20
-321.8061865393131029
 30
0.0
 40
0.0300322503993253
 50
269.999987999566315
 51
321.4491350730692147
  0
ARC
  5
C9D7
  8
0
 10
3772.4327702487371425
 20
-321.9289721333362877
 30
0.0
 40
0.1570365069358211
 50
100.4238365154105992
 51
138.493334087340088
  0
ARC
  5
C9D8
  8
0
 10
3772.4719266584479556
 20
-322.1101305478771906
 30
0.0
 40
0.342337653969419
 50
72.5895363428721225
 51
101.3834752400334054
  0
ARC
  5
C9D9
  8
0
 10
3772.5709267026400084
 20
-321.7948309022901867
 30
0.0
 40
0.011861564821957
 50
14.7492710563153402
 51
73.1789753039372073
  0
ARC
  5
C9DA
  8
0
 10
3772.6293965369040961
 20
-321.7848008851460122
 30
0.0
 40
0.0475190464045095
 50
188.4834485333271914
 51
265.3141353973377932
  0
ARC
  5
C9DB
  8
0
 10
3772.6221298042019043
 20
-321.7877482904714839
 30
0.0
 40
0.044541605164215
 50
274.3581854096074721
 51
2.7950575904196611
  0
LINE
  5
C9DC
  8
0
 10
3772.6666184203331795
 20
-321.7855762809516023
 30
0.0
 11
3772.6666222143330742
 21
-321.0827432449515868
 31
0.0
  0
ARC
  5
C9DD
  8
0
 10
3772.6168846871410096
 20
-321.0827429764607928
 30
0.0
 40
0.0497375271931836
 50
359.9996907086382976
 51
53.2456627988346867
  0
ARC
  5
C9DE
  8
0
 10
3772.6253971927030761
 20
-321.0735618894938739
 30
0.0
 40
0.0373113904872994
 50
55.2830261724791967
 51
108.6570678958097034
  0
ARC
  5
C9DF
  8
0
 10
3772.6329062511549637
 20
-321.0857218157709099
 30
0.0
 40
0.0513358531286847
 50
112.2582484849828006
 51
169.7015851009383027
  0
ARC
  5
C9E0
  8
0
 10
3772.5708509021619648
 20
-321.0735663063164225
 30
0.0
 40
0.011924353350224
 50
287.1105374223639046
 51
345.5380983681058069
  0
ARC
  5
C9E1
  8
0
 10
3772.4696188869697835
 20
-320.7427223810648229
 30
0.0
 40
0.3579093418217108
 50
263.8467343960118114
 51
287.0163702706431081
  0
ARC
  5
C9E2
  8
0
 10
3772.4424523814968779
 20
-320.9250644546789886
 30
0.0
 40
0.1738661875984847
 50
222.9392100220136115
 51
266.3075141167545894
  0
ARC
  5
C9E3
  8
0
 10
3772.2918149331258064
 20
-321.0620336244436999
 30
0.0
 40
0.0298108414618804
 50
38.4263837104811117
 51
90.2498202401590959
  0
LINE
  5
C9E4
  8
0
 10
3772.2916849527318846
 20
-321.0322230663514915
 30
0.0
 11
3772.2393490601330086
 21
-321.0322230663516052
 31
0.0
  0
ARC
  5
C9E5
  8
0
 10
3772.2394685342228513
 20
-321.0201875954300021
 30
0.0
 40
0.0120360639065681
 50
212.0077415859558982
 51
269.4312531414004752
  0
ARC
  5
C9E6
  8
0
 10
3772.1600087837450701
 20
-321.0703462723693065
 30
0.0
 40
0.0819307939014257
 50
32.2993741248561008
 51
68.2081174429889643
  0
ARC
  5
C9E7
  8
0
 10
3772.1655799726559053
 20
-321.0584871626119252
 30
0.0
 40
0.068855238725541
 50
68.8493047255062862
 51
114.4367153671098976
  0
ARC
  5
C9E8
  8
0
 10
3772.176083972581182
 20
-321.0737385624905187
 30
0.0
 40
0.0871465389322267
 50
116.5764181268708057
 51
166.6795863301317979
  0
ARC
  5
C9E9
  8
0
 10
3772.2283571005327758
 20
-321.0915929757704816
 30
0.0
 40
0.1422268751728378
 50
164.5316911368030048
 51
176.6622609935141099
  0
ARC
  5
C9EA
  8
0
 10
3772.0745528663042023
 20
-321.0825310178042855
 30
0.0
 40
0.0118444163565199
 50
270.1579543762966864
 51
356.2179027099010113
  0
LINE
  5
C9EB
  8
0
 10
3772.0745855192330964
 20
-321.0943753891515939
 30
0.0
 11
3771.9664975702330594
 21
-321.0943924285516005
 31
0.0
  0
ARC
  5
C9EC
  8
0
 10
3771.9665023002908129
 20
-321.124397141951988
 30
0.0
 40
0.0300047137732128
 50
90.0090323269635348
 51
179.9480795768774044
  0
ARC
  5
C9ED
  8
0
 10
3771.9246868545328653
 20
-321.7216059964516148
 30
0.0
 40
0.0118110236000009
 50
0.0000000000097707
 51
90.0
  0
LINE
  5
C9EE
  8
0
 10
3771.9364978626990705
 20
-321.7097949728516255
 30
0.0
 11
3771.5382430905328874
 21
-321.7097949728516255
 31
0.0
  0
LINE
  5
C9EF
  8
0
 10
3772.0863714866468399
 20
-321.0833123064720098
 30
0.0
 11
3772.0863714866468399
 21
-321.7851211522008725
 31
0.0
  0
LINE
  5
C9F0
  8
0
 10
3772.2292622350250895
 20
-321.02656711665378
 30
0.0
 11
3772.2292622350250895
 21
-321.8419071054780147
 31
0.0
  0
LINE
  5
C9F1
  8
0
 10
3772.3151689653332141
 20
-321.0435059303516141
 30
0.0
 11
3772.3151689653332141
 21
-321.8249029128515986
 31
0.0
  0
LINE
  5
C9F2
  8
0
 10
3772.5823974191521302
 20
-321.0765442476737235
 30
0.0
 11
3772.5823974191521302
 21
-321.7918110707133224
 31
0.0
  0
LINE
  5
C9F3
  8
0
 10
3770.1936224535288602
 20
-319.2525857077962996
 30
0.0
 11
3772.1793733028371207
 21
-319.2525857077962996
 31
0.0
  0
LINE
  5
C9F4
  8
0
 10
3770.2551422492479105
 20
-319.3800157559352897
 30
0.0
 11
3772.1178535071180704
 21
-319.3800157559352897
 31
0.0
  0
LINE
  5
C9F5
  8
0
 10
3770.7142124817009972
 20
-319.9546940926516072
 30
0.0
 11
3771.6587832746640743
 21
-319.9546940926516072
 31
0.0
  0
LINE
  5
C9F6
  8
0
 10
3770.7455529963999652
 20
-320.0692437917516031
 30
0.0
 11
3771.6274427600337731
 21
-320.0692437917516031
 31
0.0
  0
LINE
  5
C9F7
  8
0
 10
3770.7723187647898158
 20
-320.180766863851602
 30
0.0
 11
3771.6006769966238608
 21
-320.180766863851602
 31
0.0
  0
ARC
  5
C9F8
  8
0
 10
3769.6185130037501949
 20
-324.0331034781805783
 30
0.0
 40
0.0300273401246949
 50
180.0012763656764037
 51
261.7521704772196927
  0
ARC
  5
C9F9
  8
0
 10
3769.5895382176081512
 20
-324.2330419105776969
 30
0.0
 40
0.1719996753712659
 50
7.1021984454761
 51
81.754535408559164
  0
ARC
  5
C9FA
  8
0
 10
3769.7898224615928484
 20
-324.2073175460899961
 30
0.0
 40
0.0299381237189706
 50
188.5643755348712887
 51
269.987992661482906
  0
LINE
  5
C9FB
  8
0
 10
3769.7898161875327787
 20
-324.2372556691515797
 30
0.0
 11
3769.805344418733057
 21
-324.2372772707515765
 31
0.0
  0
ARC
  5
C9FC
  8
0
 10
3769.8053026044481157
 20
-324.2673353165192225
 30
0.0
 40
0.0300580748519333
 50
18.9876085107742583
 51
89.920294868329492
  0
ARC
  5
C9FD
  8
0
 10
3770.0109320830870274
 20
-324.2047481538930924
 30
0.0
 40
0.184907816357939
 50
196.5939683310068062
 51
242.270467090081894
  0
ARC
  5
C9FE
  8
0
 10
3769.9849358016149381
 20
-324.2439292821557046
 30
0.0
 40
0.1382131345941105
 50
244.2523100455528891
 51
302.5505589998550136
  0
ARC
  5
C9FF
  8
0
 10
3769.9531473195438593
 20
-324.2014104789403177
 30
0.0
 40
0.1911966961576206
 50
303.7247696786777738
 51
342.9168018321651061
  0
ARC
  5
CA00
  8
0
 10
3770.1642412226801753
 20
-324.2671999276979022
 30
0.0
 40
0.0299227054683155
 50
89.9989044423886781
 51
161.2395588856165034
  0
LINE
  5
CA01
  8
0
 10
3770.1642417948341972
 20
-324.2372772222350932
 30
0.0
 11
3770.193471320532808
 21
-324.2372772707515765
 31
0.0
  0
ARC
  5
CA02
  8
0
 10
3770.1934713701562032
 20
-324.2073809804795133
 30
0.0
 40
0.0298962902721204
 50
269.9999048979325948
 51
327.6871217291711105
  0
ARC
  5
CA03
  8
0
 10
3770.4017261871608753
 20
-324.3307989118902128
 30
0.0
 40
0.2121966473330912
 50
98.5782044787118252
 51
149.5817063541479115
  0
ARC
  5
CA04
  8
0
 10
3770.3901609272397764
 20
-324.3241546735205816
 30
0.0
 40
0.204169014000735
 50
31.3176998567231699
 51
95.6457999156173173
  0
ARC
  5
CA05
  8
0
 10
3770.6276728058569461
 20
-324.1877586077346223
 30
0.0
 40
0.0699775046723224
 50
205.6328623873125139
 51
334.5241598538037238
  0
LINE
  5
CA06
  8
0
 10
3770.6908515804329909
 20
-324.2178580064515927
 30
0.0
 11
3770.6908461699331383
 21
-323.5819580718516022
 31
0.0
  0
ARC
  5
CA07
  8
0
 10
3770.627714169283081
 20
-323.6119861902802199
 30
0.0
 40
0.0699094943654695
 50
25.437639638707811
 51
154.5623603612891941
  0
ARC
  5
CA08
  8
0
 10
3770.3882739672149
 20
-323.4729631995763839
 30
0.0
 40
0.2072787110861783
 50
270.4991079691334903
 51
328.275374794189986
  0
ARC
  5
CA09
  8
0
 10
3770.399078389909846
 20
-323.4720859142674954
 30
0.0
 40
0.2083425633353345
 50
210.0581706919342935
 51
267.5244850916240011
  0
ARC
  5
CA0A
  8
0
 10
3770.1933890822429021
 20
-323.5926226997573281
 30
0.0
 40
0.0300875897936876
 50
32.5368615507169565
 51
89.8433955723075144
  0
LINE
  5
CA0B
  8
0
 10
3770.1934809248327838
 20
-323.5625568454933045
 30
0.0
 11
3770.1642953343321096
 21
-323.5625568454933045
 31
0.0
  0
ARC
  5
CA0C
  8
0
 10
3770.1642953343321096
 20
-323.5325575273585059
 30
0.0
 40
0.029999318134907
 50
198.8695661848105942
 51
270.0
  0
ARC
  5
CA0D
  8
0
 10
3769.964501498880054
 20
-323.5908516449125045
 30
0.0
 40
0.1781613038768229
 50
15.8274378713019601
 51
67.2031162631740102
  0
ARC
  5
CA0E
  8
0
 10
3769.9848453760300799
 20
-323.5568915528692742
 30
0.0
 40
0.1390841169472046
 50
69.5091530431101745
 51
116.4531968208036972
  0
ARC
  5
CA0F
  8
0
 10
3770.0116097741311023
 20
-323.5954654074104724
 30
0.0
 40
0.1856656684272295
 50
118.5455642897412929
 51
163.353598217033209
  0
ARC
  5
CA10
  8
0
 10
3769.8053904332059574
 20
-323.5325908531506798
 30
0.0
 40
0.0299451962543416
 50
269.9119579600975953
 51
341.1238985555858108
  0
LINE
  5
CA11
  8
0
 10
3769.805344418733057
 20
-323.5625360140516023
 30
0.0
 11
3769.7898161893331235
 21
-323.5625352223515847
 31
0.0
  0
ARC
  5
CA12
  8
0
 10
3769.7898146636011916
 20
-323.5924605977124884
 30
0.0
 40
0.0299253753997768
 50
89.9970787996849566
 51
171.4976645812226934
  0
ARC
  5
CA13
  8
0
 10
3769.5881037958488378
 20
-323.5653645626783259
 30
0.0
 40
0.1736011497129796
 50
278.6474434357613745
 51
352.4959788290879033
  0
ARC
  5
CA14
  8
0
 10
3769.618407388425112
 20
-323.7666175905991963
 30
0.0
 40
0.0299218501614018
 50
98.0727976629647458
 51
179.8341407634441964
  0
ARC
  5
CA15
  8
0
 10
3771.1538957426669185
 20
-324.2861579869050956
 30
0.0
 40
0.8428003483451743
 50
110.0077827904868002
 51
123.3270856227924952
  0
ARC
  5
CA16
  8
0
 10
3770.8695585856357866
 20
-323.5052414235171909
 30
0.0
 40
0.0117297818373985
 50
63.8304328755743384
 51
110.0691114007228038
  0
ARC
  5
CA17
  8
0
 10
3771.2167916844541651
 20
-322.7671297480706016
 30
0.0
 40
0.8039800226954861
 50
244.8203282832654963
 51
265.1616137671783804
  0
ARC
  5
CA18
  8
0
 10
3771.1862729296171892
 20
-323.4312915708022729
 30
0.0
 40
0.9295854295961591
 50
237.7950958258319929
 51
302.2036726809037077
  0
ARC
  5
CA19
  8
0
 10
3771.1767658361031863
 20
-322.8349645459989006
 30
0.0
 40
0.733806564304603
 50
267.8299284449976199
 51
295.0121216379985185
  0
ARC
  5
CA1A
  8
0
 10
3771.2912940225028251
 20
-323.0582710930688108
 30
0.0
 40
0.4831093056879609
 50
293.9006344975707066
 51
295.0630578561115271
  0
ARC
  5
CA1B
  8
0
 10
3771.503301434993773
 20
-323.506779588630593
 30
0.0
 40
0.0131391233554409
 50
71.5047844118750362
 51
124.0396590738534996
  0
ARC
  5
CA1C
  8
0
 10
3771.2195617594970827
 20
-324.28358336090389
 30
0.0
 40
0.8401362638347926
 50
56.6296661227095015
 51
69.9590467861858087
  0
LINE
  5
CA1D
  8
0
 10
3771.681677372132981
 20
-323.5819580318516273
 30
0.0
 11
3771.681677372132981
 21
-324.2178686538252919
 31
0.0
  0
ARC
  5
CA1E
  8
0
 10
3771.7448595585501607
 20
-323.612064502924909
 30
0.0
 40
0.0699884867736809
 50
25.4667124753168714
 51
154.5220826582410893
  0
LINE
  5
CA1F
  8
0
 10
3771.8080476314371481
 20
-323.5819703884520209
 30
0.0
 11
3771.8080476314371481
 21
-324.2178421046510266
 31
0.0
  0
ARC
  5
CA20
  8
0
 10
3771.7448561757551033
 20
-324.1877436553210146
 30
0.0
 40
0.0699934051319077
 50
205.4927999423317999
 51
334.5312750022833939
  0
ARC
  5
CA21
  8
0
 10
3772.0316270663802243
 20
-323.2534131188011202
 30
0.0
 40
0.3974136927311521
 50
235.7651641666811031
 51
258.5938756176922766
  0
ARC
  5
CA22
  8
0
 10
3772.0156167856262073
 20
-323.3327714827141222
 30
0.0
 40
0.3164564261468448
 50
258.5938756176922766
 51
283.5787584032415793
  0
ARC
  5
CA23
  8
0
 10
3772.0490617702398595
 20
-323.4712410750148024
 30
0.0
 40
0.1740050485202619
 50
283.5787584032415793
 51
323.6673420646308728
  0
LINE
  5
CA24
  8
0
 10
3772.1892386209328834
 20
-323.5743342728516154
 30
0.0
 11
3772.1892386209328834
 21
-324.2254782201515013
 31
0.0
  0
ARC
  5
CA25
  8
0
 10
3772.2936891035928966
 20
-324.2159461399488123
 30
0.0
 40
0.1048845264133264
 50
185.2143305452702862
 51
211.9675127970486983
  0
ARC
  5
CA26
  8
0
 10
3772.2536157473118692
 20
-324.240955169315896
 30
0.0
 40
0.0576476188782712
 50
211.9675127970486983
 51
264.1095592268637802
  0
ARC
  5
CA27
  8
0
 10
3772.2494034547139563
 20
-324.2498618305234004
 30
0.0
 40
0.0484665356262885
 50
267.9852993917431263
 51
295.3773067696379258
  0
ARC
  5
CA28
  8
0
 10
3772.2358852029278751
 20
-324.2292218042999252
 30
0.0
 40
0.072986269840271
 50
298.0221684867084946
 51
342.3362192711567218
  0
LINE
  5
CA29
  8
0
 10
3772.3054304244328705
 20
-324.2513680850515811
 30
0.0
 11
3772.3054304244328705
 21
-323.5484444079515924
 31
0.0
  0
ARC
  5
CA2A
  8
0
 10
3772.2347806009652231
 20
-323.5712754582103798
 30
0.0
 40
0.0742472518813561
 50
17.9086497618643783
 51
59.4915605437204817
  0
ARC
  5
CA2B
  8
0
 10
3772.2496615271179508
 20
-323.5491528197993034
 30
0.0
 40
0.0476593905145051
 50
61.403199936644107
 51
105.5716003781600989
  0
ARC
  5
CA2C
  8
0
 10
3772.2531903698400129
 20
-323.5568779779604824
 30
0.0
 40
0.05606396617569
 50
106.9264105775722982
 51
143.7523849331421104
  0
ARC
  5
CA2D
  8
0
 10
3772.2926721631160945
 20
-323.5838610790449934
 30
0.0
 40
0.1038713516070071
 50
144.6259374995657083
 51
174.7375867096641002
  0
LINE
  5
CA2E
  8
0
 10
3772.3054304244328705
 20
-323.5484444079515924
 30
0.0
 11
3772.4853273981329949
 21
-323.5484444079515924
 31
0.0
  0
ARC
  5
CA2F
  8
0
 10
3772.4853273981329949
 20
-323.578444407951622
 30
0.0
 40
0.0299999999999994
 50
0.9929244685148173
 51
90.0
  0
ARC
  5
CA30
  8
0
 10
3772.4853273981329949
 20
-324.2213680850514947
 30
0.0
 40
0.0299999999999994
 50
270.0
 51
359.0070755307003765
  0
LINE
  5
CA31
  8
0
 10
3772.4853273981329949
 20
-324.2513680850515811
 30
0.0
 11
3772.3054304244328705
 21
-324.2513680850515811
 31
0.0
  0
LINE
  5
CA32
  8
0
 10
3771.681677372132981
 20
-323.5819580318516273
 30
0.0
 11
3771.681677372132981
 21
-324.2178686538252919
 31
0.0
  0
ARC
  5
CA33
  8
0
 10
3772.0348093762941062
 20
-324.5530614546527772
 30
0.0
 40
0.4047133573147278
 50
107.3021748681651957
 51
124.0766926059397974
  0
ARC
  5
CA34
  8
0
 10
3772.020412745799149
 20
-324.5070686196218048
 30
0.0
 40
0.3565200088160449
 50
85.4832062011494145
 51
107.2915045398465992
  0
ARC
  5
CA35
  8
0
 10
3772.0325772638630042
 20
-324.353080821574622
 30
0.0
 40
0.2020524800369253
 50
39.1632394009443416
 51
85.4832062011494145
  0
LINE
  5
CA36
  8
0
 10
3770.1359082645540184
 20
-323.5422597620450915
 30
0.0
 11
3770.1359082645540184
 21
-324.2575764259253788
 31
0.0
  0
LINE
  5
CA37
  8
0
 10
3769.7602181729330368
 20
-323.5880361392179907
 30
0.0
 11
3769.7602181729330368
 21
-324.2117759476781771
 31
0.0
  0
LINE
  5
CA38
  8
0
 10
3770.2187379719839555
 20
-323.5764147742739283
 30
0.0
 11
3770.2187379719839555
 21
-324.2233618128764761
 31
0.0
  0
ARC
  5
CA39
  8
0
 10
3770.8834953183068137
 20
-320.5978535583001872
 30
0.0
 40
0.4094548656932015
 50
72.453438370041269
 51
107.5437228298944063
  0
ARC
  5
CA3A
  8
0
 10
3771.0094288336699719
 20
-320.1978502185370985
 30
0.0
 40
0.0099173542871899
 50
255.4543355900331107
 51
284.6107173883899009
  0
ARC
  5
CA3B
  8
0
 10
3771.1864952903388257
 20
-320.9853769103501122
 30
0.0
 40
0.7972753754486526
 50
77.3520764779011074
 51
102.647468878846297
  0
ARC
  5
CA3C
  8
0
 10
3771.3635616012329592
 20
-320.1976389144896871
 30
0.0
 40
0.0101217481532008
 50
255.7275954799237923
 51
284.2711691587306859
  0
ARC
  5
CA3D
  8
0
 10
3771.4894888239859938
 20
-320.5914172065611183
 30
0.0
 40
0.4033207163922864
 50
72.1780708892759151
 51
107.8207175623082037
  0
ARC
  5
CA3E
  8
0
 10
3771.6145009046040286
 20
-320.203319743525924
 30
0.0
 40
0.0044201055514759
 50
249.1687349908405906
 51
272.3576837254428824
  0
ARC
  5
CA3F
  8
0
 10
3771.6146446667139571
 20
-320.2073814748255245
 30
0.0
 40
0.0003566702387797
 50
276.1274288070903822
 51
348.4460912429727273
  0
ARC
  5
CA40
  8
0
 10
3771.6077317562608187
 20
-320.2214492748694852
 30
0.0
 40
0.0157683208692722
 50
0.1072230847594104
 51
62.576359824440992
  0
ARC
  5
CA41
  8
0
 10
3770.7584125371481605
 20
-320.2030357779636915
 30
0.0
 40
0.0047098041439048
 50
268.9702262389077987
 51
290.6294071464478748
  0
ARC
  5
CA42
  8
0
 10
3770.7583242784598951
 20
-320.2074233570143065
 30
0.0
 40
0.0003214847340937
 50
183.8064819755880137
 51
270.64414580271972
  0
ARC
  5
CA43
  8
0
 10
3770.7653271505269004
 20
-320.2214940106670156
 30
0.0
 40
0.0158435779585835
 50
117.532202570747998
 51
175.2044395154831875
  0
ARC
  5
CA44
  8
0
 10
3770.8834963063500254
 20
-319.9399476178454051
 30
0.0
 40
0.4033540832230896
 50
252.1807839073645141
 51
287.821054203767801
  0
ARC
  5
CA45
  8
0
 10
3771.0094329306862164
 20
-320.3335770475641198
 30
0.0
 40
0.0099467272763331
 50
75.457946348272273
 51
104.5095097545466984
  0
ARC
  5
CA46
  8
0
 10
3771.1865018207449793
 20
-319.5458994080460116
 30
0.0
 40
0.7973934365752756
 50
257.3539515781238265
 51
282.6452636517540213
  0
ARC
  5
CA47
  8
0
 10
3771.3635328485129321
 20
-320.3333741849372132
 30
0.0
 40
0.0097412508041135
 50
75.0254561461666469
 51
104.6902940233629948
  0
ARC
  5
CA48
  8
0
 10
3771.4894568313329728
 20
-319.9397873323515
 30
0.0
 40
0.4035105768000496
 50
252.1917000707142051
 51
287.8148985213051105
  0
ARC
  5
CA49
  8
0
 10
3771.6147320820391542
 20
-320.3290051388833035
 30
0.0
 40
0.0053746110300715
 50
91.991171684022504
 51
109.8394356352785053
  0
ARC
  5
CA4A
  8
0
 10
3771.614607658892055
 20
-320.3240255741127953
 30
0.0
 40
0.0003967264595669
 50
11.99791342976404
 51
99.0378362338955327
  0
ARC
  5
CA4B
  8
0
 10
3771.6076980520429061
 20
-320.3099153198049862
 30
0.0
 40
0.0158124848253932
 50
297.4847800731532743
 51
356.0556326537084146
  0
ARC
  5
CA4C
  8
0
 10
3770.758157888344158
 20
-320.3291009844106725
 30
0.0
 40
0.0054805826604539
 50
69.6653996174487276
 51
84.9082293055550394
  0
ARC
  5
CA4D
  8
0
 10
3770.7584910747018512
 20
-320.3241478554755872
 30
0.0
 40
0.0005285237384705
 50
73.1476802144582621
 51
158.3785497066735104
  0
ARC
  5
CA4E
  8
0
 10
3770.7653300571691943
 20
-320.3099020753305126
 30
0.0
 40
0.0158481896650241
 50
186.0811581983396081
 51
242.4492895592439083
  0
LINE
  5
CA4F
  8
0
 10
3771.0094344636959249
 20
-320.2077675712263272
 30
0.0
 11
3771.0094357555472016
 21
-320.323630320688892
 31
0.0
  0
LINE
  5
CA50
  8
0
 10
3771.3635616012329592
 20
-320.2077606626428974
 30
0.0
 11
3771.3635328485129321
 21
-320.3236329341331157
 31
0.0
  0
LINE
  5
CA51
  8
0
 10
3769.5884856636330369
 20
-323.7665309732544188
 30
0.0
 11
3769.5884856636330369
 21
-324.0331041472963989
 31
0.0
  0
LINE
  5
CA52
  8
0
 10
3770.5645821686330237
 20
-323.5819580718516022
 30
0.0
 11
3770.5645821686330237
 21
-324.2180310812852895
 31
0.0
  0
LINE
  5
CA53
  8
0
 10
3769.8337251883422141
 20
-324.2575555113814971
 30
0.0
 11
3769.8337251883422141
 21
-323.5422788059851769
 31
0.0
  0
LINE
  5
CA54
  8
0
 10
3769.8990353629719721
 20
-318.9338107208516249
 30
0.0
 11
3769.8990353629719721
 21
-318.9414065132527867
 31
0.0
  0
LINE
  5
CA55
  8
0
 10
3772.4739609299140284
 20
-318.9400925440364745
 30
0.0
 11
3772.4739609299140284
 21
-318.9338107209262034
 31
0.0
  0
LINE
  5
CA56
  8
0
 10
3772.4739609299140284
 20
-318.9338107208889141
 30
0.0
 11
3769.8990353629719721
 21
-318.9338107208889141
 31
0.0
  0
LINE
  5
CA57
  8
0
 10
3793.899034826451043
 20
-318.9338107208889141
 30
0.0
 11
3796.4739603933940089
 21
-318.9338107208889141
 31
0.0
  0
LINE
  5
CA58
  8
0
 10
3772.515322893415032
 20
-324.221887953065675
 30
0.0
 11
3772.515322893415032
 21
-323.5779245399378965
 31
0.0
  0
LINE
  5
CA59
  8
0
 10
3793.8576728629500394
 20
-323.577924539937726
 30
0.0
 11
3793.8576728629500394
 21
-324.2218879530656181
 31
0.0
  0
ENDSEC
  0
EOF
