  0
SECTION
  2
HEADER
  9
$ACADVER
  1
AC1009
  9
$INSBASE
 10
3783.6601614716000768
 20
-331.1390564877453926
 30
0.0
  9
$EXTMIN
 10
3780.819068883798991
 20
-334.3245420541366002
 30
0.0
  9
$EXTMAX
 10
3786.5012559597989821
 20
-327.9536064774035253
 30
0.0
  9
$LIMMIN
 10
0.0
 20
0.0
  9
$LIMMAX
 10
11.6929133858000007
 20
8.2677165353999982
  9
$ORTHOMODE
 70
     0
  9
$REGENMODE
 70
     1
  9
$FILLMODE
 70
     1
  9
$QTEXTMODE
 70
     0
  9
$MIRRTEXT
 70
     0
  9
$DRAGMODE
 70
     2
  9
$LTSCALE
 40
0.6431102362
  9
$OSMODE
 70
  4095
  9
$ATTMODE
 70
     1
  9
$TEXTSIZE
 40
0.2
  9
$TRACEWID
 40
0.05
  9
$TEXTSTYLE
  7
STANDARD
  9
$CLAYER
  8
0
  9
$CELTYPE
  6
BYLAYER
  9
$CECOLOR
 62
   256
  9
$DIMSCALE
 40
1.0
  9
$DIMASZ
 40
0.1875
  9
$DIMEXO
 40
0.0625
  9
$DIMDLI
 40
0.4443307087
  9
$DIMRND
 40
0.0
  9
$DIMDLE
 40
0.0
  9
$DIMEXE
 40
0.125
  9
$DIMTP
 40
0.01
  9
$DIMTM
 40
0.01
  9
$DIMTXT
 40
2.0
  9
$DIMCEN
 40
0.1052362205
  9
$DIMTSZ
 40
0.0
  9
$DIMTOL
 70
     1
  9
$DIMLIM
 70
     0
  9
$DIMTIH
 70
     1
  9
$DIMTOH
 70
     1
  9
$DIMSE1
 70
     0
  9
$DIMSE2
 70
     0
  9
$DIMTAD
 70
     0
  9
$DIMZIN
 70
     0
  9
$DIMBLK
  1

  9
$DIMASO
 70
     1
  9
$DIMSHO
 70
     1
  9
$DIMPOST
  1
\X
  9
$DIMAPOST
  1

  9
$DIMALT
 70
     1
  9
$DIMALTD
 70
     2
  9
$DIMALTF
 40
25.3999999999999986
  9
$DIMLFAC
 40
1.0
  9
$DIMTOFL
 70
     0
  9
$DIMTVP
 40
0.0
  9
$DIMTIX
 70
     0
  9
$DIMSOXD
 70
     0
  9
$DIMSAH
 70
     0
  9
$DIMBLK1
  1

  9
$DIMBLK2
  1

  9
$DIMSTYLE
  2
STANDARD
  9
$DIMCLRD
 70
     0
  9
$DIMCLRE
 70
     0
  9
$DIMCLRT
 70
     0
  9
$DIMTFAC
 40
1.0
  9
$DIMGAP
 40
0.09
  9
$LUNITS
 70
     2
  9
$LUPREC
 70
     4
  9
$SKETCHINC
 40
0.1
  9
$FILLETRAD
 40
0.0
  9
$AUNITS
 70
     0
  9
$AUPREC
 70
     0
  9
$MENU
  1
.
  9
$ELEVATION
 40
0.0
  9
$PELEVATION
 40
0.0
  9
$THICKNESS
 40
0.0
  9
$LIMCHECK
 70
     0
  9
$BLIPMODE
 70
     0
  9
$CHAMFERA
 40
0.0
  9
$CHAMFERB
 40
0.0
  9
$SKPOLY
 70
     0
  9
$TDCREATE
 40
2458060.468368056230247
  9
$TDUPDATE
 40
2459083.0172106479294598
  9
$TDINDWG
 40
0.4597524306
  9
$TDUSRTIMER
 40
0.4597524306
  9
$USRTIMER
 70
     1
  9
$ANGBASE
 50
0.0
  9
$ANGDIR
 70
     0
  9
$PDMODE
 70
     0
  9
$PDSIZE
 40
0.3125
  9
$PLINEWID
 40
0.0
  9
$COORDS
 70
     1
  9
$SPLFRAME
 70
     0
  9
$SPLINETYPE
 70
     6
  9
$SPLINESEGS
 70
     8
  9
$ATTDIA
 70
     1
  9
$ATTREQ
 70
     1
  9
$HANDLING
 70
     1
  9
$HANDSEED
  5
CC00
  9
$SURFTAB1
 70
     6
  9
$SURFTAB2
 70
     6
  9
$SURFTYPE
 70
     6
  9
$SURFU
 70
     6
  9
$SURFV
 70
     6
  9
$UCSNAME
  2

  9
$UCSORG
 10
0.0
 20
0.0
 30
0.0
  9
$UCSXDIR
 10
1.0
 20
0.0
 30
0.0
  9
$UCSYDIR
 10
0.0
 20
1.0
 30
0.0
  9
$PUCSNAME
  2

  9
$PUCSORG
 10
0.0
 20
0.0
 30
0.0
  9
$PUCSXDIR
 10
1.0
 20
0.0
 30
0.0
  9
$PUCSYDIR
 10
0.0
 20
1.0
 30
0.0
  9
$USERI1
 70
     0
  9
$USERI2
 70
     0
  9
$USERI3
 70
     0
  9
$USERI4
 70
     0
  9
$USERI5
 70
     0
  9
$USERR1
 40
0.0
  9
$USERR2
 40
0.0
  9
$USERR3
 40
0.0
  9
$USERR4
 40
0.0
  9
$USERR5
 40
0.0
  9
$WORLDVIEW
 70
     1
  9
$SHADEDGE
 70
     3
  9
$SHADEDIF
 70
    70
  9
$TILEMODE
 70
     1
  9
$MAXACTVP
 70
    64
  9
$PLIMCHECK
 70
     0
  9
$PEXTMIN
 10
1.0000000000000000E+20
 20
1.0000000000000000E+20
 30
1.0000000000000000E+20
  9
$PEXTMAX
 10
-1.0000000000000000E+20
 20
-1.0000000000000000E+20
 30
-1.0000000000000000E+20
  9
$PLIMMIN
 10
0.0
 20
0.0
  9
$PLIMMAX
 10
12.0
 20
9.0
  9
$UNITMODE
 70
     0
  9
$VISRETAIN
 70
     1
  9
$PLINEGEN
 70
     0
  9
$PSLTSCALE
 70
     1
  0
ENDSEC
  0
SECTION
  2
TABLES
  0
TABLE
  2
VPORT
 70
     1
  0
VPORT
  2
*ACTIVE
 70
     0
 10
0.0
 20
0.0
 11
1.0
 21
1.0
 12
0.0
 22
0.0
 13
0.0
 23
0.0
 14
1.0
 24
1.0
 15
0.0
 25
0.0
 16
0.0
 26
0.0
 36
31.3858137697237503
 17
3783.66015625
 27
-331.1393890380858807
 37
0.0
 40
8.5362581698918074
 41
2.8917682926829258
 42
50.0
 43
0.0
 44
0.0
 50
0.0
 51
0.0
 71
     0
 72
 10000
 73
     1
 74
     1
 75
     0
 76
     0
 77
     0
 78
     0
  0
ENDTAB
  0
TABLE
  2
LTYPE
 70
     2
  0
LTYPE
  2
CONTINUOUS
 70
     0
  3
Solid line
 72
    65
 73
     0
 40
0.0
  0
LTYPE
  2
PHANTOM2
 70
     0
  3
___ _ _ ___ _ _ ___ _ _ ___ _ _
 72
    65
 73
     6
 40
1.25
 49
0.625
 49
-0.125
 49
0.125
 49
-0.125
 49
0.125
 49
-0.125
  0
ENDTAB
  0
TABLE
  2
LAYER
 70
     2
  0
LAYER
  2
0
 70
     0
 62
   255
  6
CONTINUOUS
  0
LAYER
  2
DEFPOINTS
 70
     0
 62
     7
  6
CONTINUOUS
  0
ENDTAB
  0
TABLE
  2
STYLE
 70
     1
  0
STYLE
  2
STANDARD
 70
     0
 40
0.0
 41
0.8
 50
0.0
 71
     0
 42
0.2
  3
txt
  4

  0
ENDTAB
  0
TABLE
  2
VIEW
 70
     0
  0
ENDTAB
  0
TABLE
  2
UCS
 70
     0
  0
ENDTAB
  0
TABLE
  2
APPID
 70
    11
  0
APPID
  2
ACAD
 70
     0
  0
APPID
  2
ACAD_MLEADERVER
 70
     0
  0
APPID
  2
ACAD_EXEMPT_FROM_CAD_STANDARDS
 70
     0
  0
APPID
  2
ACAD_NAV_VCDISPLAY
 70
     0
  0
APPID
  2
ACAECLAYERSTANDARD
 70
     0
  0
APPID
  2
ACCMTRANSPARENCY
 70
     0
  0
APPID
  2
ACAD_DSTYLE_DIMJAG
 70
     0
  0
APPID
  2
ACAD_DSTYLE_DIMTALN
 70
     0
  0
APPID
  2
ACDBATTR
 70
     0
  0
APPID
  2
ACADANNOTATIVE
 70
     0
  0
APPID
  2
ACAD_PSEXT
 70
     0
  0
ENDTAB
  0
TABLE
  2
DIMSTYLE
 70
     1
  0
DIMSTYLE
  2
STANDARD
 70
     0
  3

  4

  5

  6

  7

 40
1.0
 41
0.1875
 42
0.0625
 43
0.38
 44
0.125
 45
0.0
 46
0.0
 47
0.01
 48
0.01
140
0.15625
141
0.09
142
0.0
143
25.3999999999999986
144
1.0
145
0.0
146
1.0
147
0.09
 71
     1
 72
     0
 73
     1
 74
     1
 75
     0
 76
     0
 77
     0
 78
     4
170
     0
171
     2
172
     0
173
     0
174
     0
175
     0
176
     0
177
     0
178
     0
  0
ENDTAB
  0
ENDSEC
  0
SECTION
  2
BLOCKS
  0
BLOCK
  8
0
  2
$MODEL_SPACE
 70
     0
 10
0.0
 20
0.0
 30
0.0
  3
$MODEL_SPACE
  1

  0
ENDBLK
  5
21
  8
0
  0
BLOCK
 67
     1
  8
0
  2
$PAPER_SPACE
 70
     0
 10
0.0
 20
0.0
 30
0.0
  3
$PAPER_SPACE
  1

  0
ENDBLK
  5
1D
 67
     1
  8
0
  0
BLOCK
  8
0
  2
_FILLED
 70
     0
 10
0.0
 20
0.0
 30
0.0
  3
_FILLED
  1

  0
SOLID
  5
ACE1
  8
0
  6
BYBLOCK
 62
     0
 10
0.0
 20
0.0
 30
0.0
 11
-1.0
 21
0.1666666667
 31
0.0
 12
-1.0
 22
-0.1666666667
 32
0.0
 13
-1.0
 23
-0.1666666667
 33
0.0
  0
ENDBLK
  5
ACE2
  8
0
  6
BYBLOCK
 62
     0
  0
ENDSEC
  0
SECTION
  2
ENTITIES
  0
ATTDEF
  5
9DCC
  8
DEFPOINTS
 10
3783.6595921728207941
 20
-331.1412674164810142
 30
0.0
 40
0.001
  1
K-72576T
  3

  2
MODELNUMBER
 70
     0
1001
ACDBATTR
1070
     0
1070
     1
  0
ATTDEF
  5
9DCD
  8
DEFPOINTS
 10
3783.6595921728207941
 20
-331.1429340831476793
 30
0.0
 40
0.001
  1
ARTIFACTS
  3

  2
TRADENAME
 70
     0
1001
ACDBATTR
1070
     0
1070
     1
  0
ATTDEF
  5
9DCE
  8
DEFPOINTS
 10
3783.6595921728207941
 20
-331.1446007498142876
 30
0.0
 40
0.001
  1
TOILET TISSUE HOLDER
  3

  2
PRODUCT
 70
     0
1001
ACDBATTR
1070
     0
1070
     1
  0
LINE
  5
C7A1
  8
0
 10
3781.006661471598818
 20
-333.5746462840003801
 30
0.0
 11
3782.201123066504806
 21
-333.5746462363791238
 31
0.0
  0
LINE
  5
C7A2
  8
0
 10
3782.4632696213338932
 20
-333.5746462259276086
 30
0.0
 11
3784.8570540347268434
 21
-333.5746461304912032
 31
0.0
  0
LINE
  5
C7A3
  8
0
 10
3785.1192006621099608
 20
-333.5746461200399153
 30
0.0
 11
3786.3095542712280803
 21
-333.5746460725823113
 31
0.0
  0
LINE
  5
C7A4
  8
0
 10
3786.3136614715990618
 20
-333.1994573074366031
 30
0.0
 11
3786.0959557605419832
 21
-333.1994573074366031
 31
0.0
  0
LINE
  5
C7A5
  8
0
 10
3785.8835076391369512
 20
-333.1994573074366031
 30
0.0
 11
3785.1441295864901804
 21
-333.1994573074366031
 31
0.0
  0
LINE
  5
C7A6
  8
0
 10
3784.8456157851569515
 20
-333.1994573074366031
 30
0.0
 11
3782.4747082945000329
 21
-333.1994573074366031
 31
0.0
  0
LINE
  5
C7A7
  8
0
 10
3782.1761939611451453
 20
-333.1994573074366031
 30
0.0
 11
3781.4368192867000289
 21
-333.1994573074366031
 31
0.0
  0
LINE
  5
C7A8
  8
0
 10
3781.2243677871001637
 20
-333.1994573074366031
 30
0.0
 11
3781.006661471598818
 21
-333.1994573074366031
 31
0.0
  0
ARC
  5
C7A9
  8
0
 10
3786.3122482718881656
 20
-333.318485684194286
 30
0.0
 40
0.2561745541982172
 50
269.3974510329285863
 51
270.3160766299275224
  0
LINE
  5
C7AA
  8
0
 10
3781.0107686730998466
 20
-333.5746462838366142
 30
0.0
 11
3781.006661471598818
 21
-333.5746462838366142
 31
0.0
  0
ARC
  5
C7AB
  8
0
 10
3783.6601614716000768
 20
-333.3870416282366023
 30
0.0
 40
0.9375004259000012
 50
139.2880776754217038
 51
168.4577866609095054
  0
ARC
  5
C7AC
  8
0
 10
3783.6601614716000768
 20
-333.3870416282366023
 30
0.0
 40
0.9375004259000012
 50
191.5434774589847962
 51
348.4565271096012111
  0
ARC
  5
C7AD
  8
0
 10
3783.6601614716000768
 20
-333.3870416282366023
 30
0.0
 40
0.9375004259000012
 50
11.5422133390905106
 51
40.7113709990913293
  0
ARC
  5
C7AE
  8
0
 10
3783.6601609240351536
 20
-333.3870416282366023
 30
0.0
 40
0.7388218843274095
 50
194.70983407742861
 51
345.2901704911594152
  0
ARC
  5
C7AF
  8
0
 10
3782.5173264516201925
 20
-333.2805397696752721
 30
0.0
 40
0.2990330224406175
 50
240.5250650130205088
 51
259.5853251564490733
  0
ARC
  5
C7B0
  8
0
 10
3782.0614943069231231
 20
-334.1490274292078198
 30
0.0
 40
0.6820183533765756
 50
63.0880983372569801
 51
69.3617510865787921
  0
ARC
  5
C7B1
  8
0
 10
3782.2594072317788232
 20
-333.6235540082461171
 30
0.0
 40
0.1205098120679378
 50
69.3617510865787921
 51
95.7138020954878783
  0
ARC
  5
C7B2
  8
0
 10
3782.259030899616846
 20
-333.5825437527136046
 30
0.0
 40
0.0797521135405332
 50
98.3790332458381442
 51
140.1668713687894012
  0
ARC
  5
C7B3
  8
0
 10
3782.2319229698400704
 20
-333.5628701039029806
 30
0.0
 40
0.0463884546796452
 50
137.3787843574311864
 51
174.2205680128529934
  0
ARC
  5
C7B4
  8
0
 10
3782.2031978673371668
 20
-333.5573203411170198
 30
0.0
 40
0.0174496832385659
 50
182.8857121084027995
 51
263.1712665163976226
  0
LINE
  5
C7B5
  8
0
 10
3782.4909048252998218
 20
-329.6785084885366928
 30
0.0
 11
3782.4909063444001731
 21
-333.1994573074366031
 31
0.0
  0
ARC
  5
C7B6
  8
0
 10
3782.5049065280359173
 20
-333.4019040778113094
 30
0.0
 40
0.2046866584413859
 50
98.4840429386859313
 51
120.2481765266361009
  0
ARC
  5
C7B7
  8
0
 10
3781.8230107167159986
 20
-332.2298822441858874
 30
0.0
 40
1.151269608436408
 50
293.7606102554012182
 51
300.1812326145649763
  0
ARC
  5
C7B8
  8
0
 10
3782.2550984839540433
 20
-333.2077194186933866
 30
0.0
 40
0.0822350595738776
 50
210.5377796475297885
 51
292.7320132967442987
  0
ARC
  5
C7B9
  8
0
 10
3782.2433869151968793
 20
-333.2085455159544267
 30
0.0
 40
0.0719192947687304
 50
196.0497061276145985
 51
214.7153897181430011
  0
ARC
  5
C7BA
  8
0
 10
3782.1984527606209667
 20
-333.2202021843463058
 30
0.0
 40
0.0255430257937242
 50
151.8134426504529984
 51
198.7888706723726102
  0
LINE
  5
C7BB
  8
0
 10
3782.1759457144989938
 20
-329.6785084885366928
 30
0.0
 11
3782.1761964102438469
 21
-333.2341935374017794
 31
0.0
  0
ARC
  5
C7BC
  8
0
 10
3782.4909063444001731
 20
-329.6391384097365744
 30
0.0
 40
0.0393700787000002
 50
270.0
 51
88.7248755512816842
  0
ARC
  5
C7BD
  8
0
 10
3782.1759457144989938
 20
-329.6391384097365744
 30
0.0
 40
0.0393700787000002
 50
88.7248755513337812
 51
270.3961804289069164
  0
LINE
  5
C7BE
  8
0
 10
3782.1759457144989938
 20
-329.6785084885366928
 30
0.0
 11
3782.4909063444001731
 21
-329.6785084885366928
 31
0.0
  0
LINE
  5
C7BF
  8
0
 10
3782.1768218279989924
 20
-329.5997780804444801
 30
0.0
 11
3782.4917824579001717
 21
-329.5997780804444801
 31
0.0
  0
LINE
  5
C7C0
  8
0
 10
3782.4900011153990818
 20
-329.5997780804444801
 30
0.0
 11
3782.4899878510991584
 21
-329.5921069137365862
 31
0.0
  0
ARC
  5
C7C1
  8
0
 10
3781.528519450650947
 20
-329.5846615653377967
 30
0.0
 40
0.9614972273871357
 50
359.5563260180363727
 51
46.3747845945985588
  0
ARC
  5
C7C2
  8
0
 10
3781.774625393975839
 20
-329.3760630703677066
 30
0.0
 40
0.6416151405335491
 50
49.4327924824345928
 51
89.0852493163027646
  0
LINE
  5
C7C3
  8
0
 10
3782.1768218279989924
 20
-329.5997780804444801
 30
0.0
 11
3782.1768329699989408
 21
-329.5921069137365862
 31
0.0
  0
ARC
  5
C7C4
  8
0
 10
3781.502096780510783
 20
-329.5911268919343229
 30
0.0
 40
0.6747369012048396
 50
359.9167806996359218
 51
41.7723606603892677
  0
ARC
  5
C7C5
  8
0
 10
3781.7730270467927767
 20
-329.3811903118109967
 30
0.0
 40
0.3336819501598089
 50
45.8824823246910611
 51
88.1402342341298066
  0
LINE
  5
C7C6
  8
0
 10
3783.2659692226670813
 20
-328.7345297001365907
 30
0.0
 11
3781.006663479899089
 21
-328.7345297001365907
 31
0.0
  0
ARC
  5
C7C7
  8
0
 10
3781.0066567899139045
 20
-328.8911172342366172
 30
0.0
 40
0.15658753424291
 50
89.9975521173291639
 51
270.0024478826708219
  0
LINE
  5
C7C8
  8
0
 10
3781.006663479899089
 20
-329.0477047683365868
 30
0.0
 11
3781.2243677871001637
 21
-329.0477047683365868
 31
0.0
  0
LINE
  5
C7C9
  8
0
 10
3781.1444567471990013
 20
-329.0477047683365868
 30
0.0
 11
3781.1444567471990013
 21
-333.1994573074366031
 31
0.0
  0
LINE
  5
C7CA
  8
0
 10
3780.8736753277721618
 20
-328.9737840790365908
 30
0.0
 11
3780.8688661959990895
 21
-328.9737840790365908
 31
0.0
  0
LINE
  5
C7CB
  8
0
 10
3780.8688661959990895
 20
-328.9737840790365908
 30
0.0
 11
3780.8688661959990895
 21
-333.2597583147436922
 31
0.0
  0
LINE
  5
C7CC
  8
0
 10
3781.2739929354997912
 20
-328.9737840790365908
 30
0.0
 11
3781.2243677871001637
 21
-328.9737840790365908
 31
0.0
  0
LINE
  5
C7CD
  8
0
 10
3781.2243677871001637
 20
-328.9737840790365908
 30
0.0
 11
3781.2243677871001637
 21
-333.2601440411365843
 31
0.0
  0
ARC
  5
C7CE
  8
0
 10
3781.2446889233351612
 20
-333.2450780675927717
 30
0.0
 40
0.0252968799802796
 50
143.4885414160104915
 51
216.5530250928894134
  0
ARC
  5
C7CF
  8
0
 10
3781.2390813533061191
 20
-333.2428742091412914
 30
0.0
 40
0.0226877968889815
 50
229.5696383601909929
 51
285.9680754391894766
  0
ARC
  5
C7D0
  8
0
 10
3781.1207877894939884
 20
-332.8720067559813742
 30
0.0
 40
0.4119544030351117
 50
287.5959739074306185
 51
299.0088878645848922
  0
ARC
  5
C7D1
  8
0
 10
3781.4484229022891668
 20
-333.4628599728616223
 30
0.0
 40
0.2636581272172712
 50
92.5224066260331313
 51
119.0088878645849064
  0
LINE
  5
C7D2
  8
0
 10
3781.4999583381991215
 20
-333.1994573074366031
 30
0.0
 11
3781.4999583381991215
 21
-329.0476841280366216
 31
0.0
  0
LINE
  5
C7D3
  8
0
 10
3781.4999583381991215
 20
-329.0476841280366216
 30
0.0
 11
3781.7838561393991768
 21
-329.0476841280366216
 31
0.0
  0
LINE
  5
C7D4
  8
0
 10
3781.4999583381991215
 20
-329.0476841280366216
 30
0.0
 11
3781.4368219400998896
 21
-329.0476840990365872
 31
0.0
  0
ARC
  5
C7D5
  8
0
 10
3781.4487956922730518
 20
-328.8370732436766275
 30
0.0
 40
0.2109509495987773
 50
239.2811053004404869
 51
266.7460948451745821
  0
ARC
  5
C7D6
  8
0
 10
3781.6293720767121158
 20
-328.5127196884878913
 30
0.0
 40
0.5821294583176793
 50
232.3756886738574963
 51
240.3096736547815908
  0
ARC
  5
C7D7
  8
0
 10
3781.1815954430771853
 20
-329.0930670399849873
 30
0.0
 40
0.1508831381518404
 50
52.2383633688131113
 51
63.556869684414643
  0
ARC
  5
C7D8
  8
0
 10
3781.2396795906620355
 20
-328.9732063716313064
 30
0.0
 40
0.0177500492875479
 50
59.1370971874794122
 51
126.7694438921627977
  0
ARC
  5
C7D9
  8
0
 10
3781.2523362171950794
 20
-328.9817651483298846
 30
0.0
 40
0.0325707316509603
 50
135.6272750939596108
 51
175.8765365774771965
  0
ARC
  5
C7DA
  8
0
 10
3781.2771106046261593
 20
-328.9861034372527797
 30
0.0
 40
0.0576491688352175
 50
173.3456841994733111
 51
203.7863492964926877
  0
LINE
  5
C7DB
  8
0
 10
3782.4712067471991759
 20
-329.3954062372757789
 30
0.0
 11
3782.4712067471991759
 21
-329.0123597072366124
 31
0.0
  0
ARC
  5
C7DC
  8
0
 10
3782.4604024057530296
 20
-329.0326987863235786
 30
0.0
 40
0.0157432035858284
 50
313.3757803253431007
 51
2.7094873543459368
  0
ARC
  5
C7DD
  8
0
 10
3782.4250283780302198
 20
-329.0343728536249728
 30
0.0
 40
0.0511568215689489
 50
2.7094873543459368
 51
25.4870545969466207
  0
ARC
  5
C7DE
  8
0
 10
3782.3461278143140589
 20
-329.0719846119105796
 30
0.0
 40
0.1385635908493896
 50
25.4870545969466207
 51
45.1295444056334816
  0
ARC
  5
C7DF
  8
0
 10
3782.3967529781361918
 20
-329.0211300043296205
 30
0.0
 40
0.0668063729256678
 50
45.1295444056334816
 51
76.3536053476054519
  0
ARC
  5
C7E0
  8
0
 10
3782.4054074619089079
 20
-329.0211256886673823
 30
0.0
 40
0.0653040182239779
 50
83.7520853052042185
 51
120.872779222338707
  0
ARC
  5
C7E1
  8
0
 10
3782.4786622518981858
 20
-329.1729660365896848
 30
0.0
 40
0.2337038088087832
 50
117.1831717307027958
 51
121.5380470230334993
  0
LINE
  5
C7E2
  8
0
 10
3782.3564200528990114
 20
-328.9737819131365768
 30
0.0
 11
3782.2997606214557891
 21
-329.0104978476322799
 31
0.0
  0
LINE
  5
C7E3
  8
0
 10
3781.7822294837192203
 20
-329.0476841280366216
 30
0.0
 11
3781.7838561393991768
 21
-329.0476841280366216
 31
0.0
  0
LINE
  5
C7E4
  8
0
 10
3782.4712067471991759
 20
-329.0476841280366216
 30
0.0
 11
3783.040878570861878
 21
-329.0476841280366216
 31
0.0
  0
ARC
  5
C7E5
  8
0
 10
3784.8029971014479997
 20
-333.2805396931689188
 30
0.0
 40
0.2990330224406175
 50
280.4146786791824866
 51
299.4749388226165934
  0
ARC
  5
C7E6
  8
0
 10
3785.2588293042867917
 20
-334.1490273221859866
 30
0.0
 40
0.6820183533765755
 50
110.6382527490559937
 51
116.911905498381401
  0
ARC
  5
C7E7
  8
0
 10
3785.0609163442518366
 20
-333.6235539144734048
 30
0.0
 40
0.1205098120679377
 50
84.2862017401466659
 51
110.6382527490559937
  0
ARC
  5
C7E8
  8
0
 10
3785.0612926736689587
 20
-333.5825436589157107
 30
0.0
 40
0.0797521135405331
 50
39.8331324668351101
 51
81.62097058979613
  0
ARC
  5
C7E9
  8
0
 10
3785.0884006021301502
 20
-333.5628700082903038
 30
0.0
 40
0.0463884546796452
 50
5.7794358227807843
 51
42.6212194782075997
  0
ARC
  5
C7EA
  8
0
 10
3785.1171257042610705
 20
-333.5573202435813869
 30
0.0
 40
0.0174496832385659
 50
276.8287373192346195
 51
357.1142917272284762
  0
LINE
  5
C7EB
  8
0
 10
3784.8294184866340402
 20
-329.6785084102613723
 30
0.0
 11
3784.8294172032419738
 21
-333.19945722916151
 31
0.0
  0
ARC
  5
C7EC
  8
0
 10
3784.8154170331581554
 20
-333.4019040004735075
 30
0.0
 40
0.2046866584413859
 50
59.7518273090062806
 51
81.5159608969627243
  0
ARC
  5
C7ED
  8
0
 10
3785.4973127660168757
 20
-332.2298821211988979
 30
0.0
 40
1.151269608436408
 50
239.818771221087303
 51
246.2393935802518001
  0
ARC
  5
C7EE
  8
0
 10
3785.0652250642401668
 20
-333.2077193246323077
 30
0.0
 40
0.0822350595738776
 50
247.267990538882998
 51
329.4622241880925912
  0
ARC
  5
C7EF
  8
0
 10
3785.0769366330528101
 20
-333.2085454211093065
 30
0.0
 40
0.0719192947687304
 50
325.2846141174979948
 51
343.9502977080092023
  0
ARC
  5
C7F0
  8
0
 10
3785.1218707884081596
 20
-333.220202086492975
 30
0.0
 40
0.0255430257937242
 50
341.2111331632556812
 51
28.1865611851800715
  0
LINE
  5
C7F1
  8
0
 10
3785.1443775974339587
 20
-329.6785083891767272
 30
0.0
 11
3785.1441271397229684
 21
-333.2341934380585826
 31
0.0
  0
ARC
  5
C7F2
  8
0
 10
3784.8294169648979732
 20
-329.6391383314614814
 30
0.0
 40
0.0393700787000002
 50
91.2751282843281047
 51
270.0000038356239997
  0
ARC
  5
C7F3
  8
0
 10
3785.1443775947991526
 20
-329.6391383103767225
 30
0.0
 40
0.0393700787000002
 50
269.6038234067045209
 51
91.2751282843020562
  0
LINE
  5
C7F4
  8
0
 10
3785.1443775974339587
 20
-329.6785083891767272
 30
0.0
 11
3784.8294169675341436
 21
-329.678508410261486
 31
0.0
  0
LINE
  5
C7F5
  8
0
 10
3785.1435014786629836
 20
-329.5997779811432906
 30
0.0
 11
3784.828540848764078
 21
-329.5997780022281063
 31
0.0
  0
LINE
  5
C7F6
  8
0
 10
3784.8303221912638037
 20
-329.599778002108792
 30
0.0
 11
3784.8303354550498625
 21
-329.5921068354001022
 31
0.0
  0
ARC
  5
C7F7
  8
0
 10
3785.7918038549992161
 20
-329.5846614226363158
 30
0.0
 40
0.9614972273871355
 50
133.625219241026997
 51
180.4436778175949883
  0
ARC
  5
C7F8
  8
0
 10
3785.5456978977099425
 20
-329.3760629441417223
 30
0.0
 40
0.641615140533549
 50
90.9147545193150108
 51
130.5672113531996956
  0
LINE
  5
C7F9
  8
0
 10
3785.1435014786629836
 20
-329.5997779811432906
 30
0.0
 11
3785.1434903361500801
 21
-329.5921068144360788
 31
0.0
  0
ARC
  5
C7FA
  8
0
 10
3785.8182265255718448
 20
-329.5911267474638748
 30
0.0
 40
0.6747369012048395
 50
138.2276431752443955
 51
180.0832231359952971
  0
ARC
  5
C7FB
  8
0
 10
3785.5472962452367938
 20
-329.3811901854779194
 30
0.0
 40
0.3336819501598089
 50
91.8597696015083045
 51
134.1175215109466023
  0
LINE
  5
C7FC
  8
0
 10
3784.0543540260719055
 20
-328.7345296737476019
 30
0.0
 11
3786.3136597688398979
 21
-328.7345295224998267
 31
0.0
  0
ARC
  5
C7FD
  8
0
 10
3786.313666272293176
 20
-328.8911170565992848
 30
0.0
 40
0.1565875342346159
 50
269.9976280411726179
 51
90.0023796301014158
  0
LINE
  5
C7FE
  8
0
 10
3786.3136597898060245
 20
-329.0477045906998228
 30
0.0
 11
3786.0959554826049498
 21
-329.047704605273907
 31
0.0
  0
LINE
  5
C7FF
  8
0
 10
3786.1758665225052027
 20
-329.047704599924316
 30
0.0
 11
3786.1758668004408719
 21
-333.1994571390242186
 31
0.0
  0
LINE
  5
C800
  8
0
 10
3786.4466479369839362
 20
-328.9737838924970106
 30
0.0
 11
3786.4514570687570085
 21
-328.9737838921749926
 31
0.0
  0
LINE
  5
C801
  8
0
 10
3786.4514570687570085
 20
-328.9737838921749926
 30
0.0
 11
3786.4514573556780306
 21
-333.2597599773515071
 31
0.0
  0
LINE
  5
C802
  8
0
 10
3786.0463303292558521
 20
-328.9737839192960109
 30
0.0
 11
3786.0959554776559344
 21
-328.973783915973911
 31
0.0
  0
LINE
  5
C803
  8
0
 10
3786.0959554776559344
 20
-328.973783915973911
 30
0.0
 11
3786.0959557646037865
 21
-333.2601438780737908
 31
0.0
  0
ARC
  5
C804
  8
0
 10
3786.0756346273601594
 20
-333.2450779058904118
 30
0.0
 40
0.0252968799802796
 50
323.4469787427462961
 51
36.5114624196233706
  0
ARC
  5
C805
  8
0
 10
3786.0812421972409538
 20
-333.2428740470635944
 30
0.0
 40
0.0226877968889815
 50
254.0319283964390991
 51
310.430365475456199
  0
ARC
  5
C806
  8
0
 10
3786.1995357362261529
 20
-332.8720065859844794
 30
0.0
 40
0.4119544030351116
 50
240.9911159710545974
 51
252.4040299281886917
  0
ARC
  5
C807
  8
0
 10
3785.8719006629858086
 20
-333.462859824797988
 30
0.0
 40
0.2636581272172711
 50
60.9911159710546329
 51
87.4775972096073247
  0
LINE
  5
C808
  8
0
 10
3785.8203652094421159
 20
-333.1994571628230801
 30
0.0
 11
3785.820364931504173
 21
-329.0476839834230987
 31
0.0
  0
LINE
  5
C809
  8
0
 10
3785.820364931504173
 20
-329.0476839834230987
 30
0.0
 11
3785.5364671303041177
 21
-329.0476840024285252
 31
0.0
  0
LINE
  5
C80A
  8
0
 10
3785.820364931504173
 20
-329.0476839834230987
 30
0.0
 11
3785.8835013296038596
 21
-329.0476839501964719
 31
0.0
  0
ARC
  5
C80B
  8
0
 10
3785.8715275633298916
 20
-328.8370730956380044
 30
0.0
 40
0.2109509495987772
 50
273.2539089904582283
 51
300.7188985351912152
  0
ARC
  5
C80C
  8
0
 10
3785.6909511571780058
 20
-328.5127195525378738
 30
0.0
 40
0.5821294583176791
 50
299.690330180861622
 51
307.6243151617611034
  0
ARC
  5
C80D
  8
0
 10
3786.1387278296638215
 20
-329.0930668740588771
 30
0.0
 40
0.1508831381518403
 50
116.4431341512292022
 51
127.761640466798795
  0
ARC
  5
C80E
  8
0
 10
3786.0806436740549543
 20
-328.9732062095936271
 30
0.0
 40
0.0177500492875479
 50
53.2305599434788306
 51
120.8629066481601058
  0
ARC
  5
C80F
  8
0
 10
3786.0679870480958016
 20
-328.9817649871395133
 30
0.0
 40
0.0325707316509603
 50
4.1234672581510221
 51
44.372728741671601
  0
ARC
  5
C810
  8
0
 10
3786.0432126609548504
 20
-328.986103277720872
 30
0.0
 40
0.0576491688352175
 50
336.2136545391426239
 51
6.654319636153895
  0
LINE
  5
C811
  8
0
 10
3784.8491165457821808
 20
-329.3954061576819186
 30
0.0
 11
3784.8491165201389776
 21
-329.0123596276428088
 31
0.0
  0
ARC
  5
C812
  8
0
 10
3784.8599208629470922
 20
-329.0326987060064994
 30
0.0
 40
0.0157432035858284
 50
177.2905164812864882
 51
226.6242235102795064
  0
ARC
  5
C813
  8
0
 10
3784.8952948907822247
 20
-329.0343727709397967
 30
0.0
 40
0.0511568215689489
 50
154.512949238691391
 51
177.2905164812831913
  0
ARC
  5
C814
  8
0
 10
3784.9741954570158669
 20
-329.0719845239435131
 30
0.0
 40
0.1385635908493895
 50
134.8704594299987889
 51
154.512949238691391
  0
ARC
  5
C815
  8
0
 10
3784.92357028978995
 20
-329.0211299197513881
 30
0.0
 40
0.0668063729256678
 50
103.6463984880132045
 51
134.8704594299987889
  0
ARC
  5
C816
  8
0
 10
3784.9149158060158697
 20
-329.0211256046687254
 30
0.0
 40
0.0653040182239779
 50
59.1272246133007968
 51
96.2479185304301836
  0
ARC
  5
C817
  8
0
 10
3784.8416610261920141
 20
-329.1729659574949096
 30
0.0
 40
0.2337038088087831
 50
58.4619568125972933
 51
62.8168321049340719
  0
LINE
  5
C818
  8
0
 10
3784.9639032118561772
 20
-328.9737818258583957
 30
0.0
 11
3785.0205626457582184
 21
-329.010497756561108
 31
0.0
  0
LINE
  5
C819
  8
0
 10
3785.5380937859840742
 20
-329.0476840023196132
 30
0.0
 11
3785.5364671303041177
 21
-329.0476840024285252
 31
0.0
  0
LINE
  5
C81A
  8
0
 10
3784.8491165225032091
 20
-329.047684048442818
 30
0.0
 11
3784.2794446988409618
 21
-329.0476840865791246
 31
0.0
  0
ARC
  5
C81B
  8
0
 10
3783.6050433613991117
 20
-333.5541147877365802
 30
0.0
 40
0.078740157499999
 50
195.1356406691955101
 51
263.1554242761076807
  0
LINE
  5
C81C
  8
0
 10
3783.5956593887390227
 20
-333.6322937712311045
 30
0.0
 11
3783.595693420956195
 21
-333.6320503315407109
 31
0.0
  0
ARC
  5
C81D
  8
0
 10
3783.6073078681001789
 20
-333.5486464390368724
 30
0.0
 40
0.0842086970997544
 50
262.0722330162028015
 51
270.0312549732993261
  0
LINE
  5
C81E
  8
0
 10
3783.6073538041259781
 20
-333.6328551236074986
 30
0.0
 11
3783.6444131800208197
 21
-333.6328549700377266
 31
0.0
  0
LINE
  5
C81F
  8
0
 10
3783.6444131800208197
 20
-333.6328549700377266
 30
0.0
 11
3783.644483972198941
 21
-333.6320487810365876
 31
0.0
  0
ARC
  5
C820
  8
0
 10
3783.660156440620085
 20
-333.1308554095912768
 30
0.0
 40
0.5014383529877541
 50
268.2089272701076084
 51
271.7922202909801968
  0
LINE
  5
C821
  8
0
 10
3783.6758389485330554
 20
-333.6320484669980146
 30
0.0
 11
3783.6759095070988224
 21
-333.6328549696365826
 31
0.0
  0
LINE
  5
C822
  8
0
 10
3783.6759095070988224
 20
-333.6328549696365826
 30
0.0
 11
3783.7129993654998543
 21
-333.632855146536599
 31
0.0
  0
ARC
  5
C823
  8
0
 10
3783.7129997681167879
 20
-333.5484401525678777
 30
0.0
 40
0.0844149939696744
 50
269.9997267278947106
 51
277.9273741322199953
  0
LINE
  5
C824
  8
0
 10
3783.7246420954002133
 20
-333.6320484501366082
 30
0.0
 11
3783.7246714529569545
 21
-333.6322928227547209
 31
0.0
  0
ARC
  5
C825
  8
0
 10
3783.7152795817992228
 20
-333.5541147877365802
 30
0.0
 40
0.0787401574999972
 50
276.8503644060047009
 51
344.8643592719985804
  0
ARC
  5
C826
  8
0
 10
3783.3558672979152107
 20
-333.6312587137260834
 30
0.0
 40
0.030716181259369
 50
180.0413352445507087
 51
222.735503954916112
  0
ARC
  5
C827
  8
0
 10
3783.6646205647430179
 20
-333.3459949611687989
 30
0.0
 40
0.4510779163161584
 50
222.735503954916112
 51
269.4335889598090716
  0
ARC
  5
C828
  8
0
 10
3783.664426258731055
 20
-333.3656495069520815
 30
0.0
 40
0.4314224100958609
 50
269.4335889598090716
 51
318.4755189611714172
  0
ARC
  5
C829
  8
0
 10
3783.9643441632251779
 20
-333.6312229939949248
 30
0.0
 40
0.0308228264019987
 50
318.4755189611714172
 51
359.445481994061879
  0
ARC
  5
C82A
  8
0
 10
3784.0541286216662229
 20
-333.633651869661378
 30
0.0
 40
0.0590015560558507
 50
94.0841249444287371
 51
177.9305745013714954
  0
LINE
  5
C82B
  8
0
 10
3783.9942678078991776
 20
-333.5747005212365934
 30
0.0
 11
3783.9953111795430232
 21
-333.6289943897634771
 31
0.0
  0
ARC
  5
C82C
  8
0
 10
3783.2655901057601113
 20
-333.63426111463599
 30
0.0
 40
0.0596355331031258
 50
2.864506874656314
 51
87.3136648471170815
  0
LINE
  5
C82D
  8
0
 10
3783.3260553737991359
 20
-333.5746462838366142
 30
0.0
 11
3783.3251397242997882
 21
-333.6309345193366198
 31
0.0
  0
LINE
  5
C82E
  8
0
 10
3784.3707913927992195
 20
-333.1902014019365765
 30
0.0
 11
3784.3707913927992195
 21
-329.2160517956365879
 31
0.0
  0
LINE
  5
C82F
  8
0
 10
3782.9495374343991898
 20
-333.1902014019365765
 30
0.0
 11
3782.9495374343991898
 21
-329.2160517956365879
 31
0.0
  0
LINE
  5
C830
  8
0
 10
3782.9495374343991898
 20
-333.1902014019365765
 30
0.0
 11
3784.3707855087991447
 21
-333.1902014019365765
 31
0.0
  0
ARC
  5
C831
  8
0
 10
3784.3588449389521884
 20
-333.2021022628686069
 30
0.0
 40
0.011962846875275
 50
12.7957632021872207
 51
84.1648144543518839
  0
ARC
  5
C832
  8
0
 10
3782.9614566368090891
 20
-333.2020798580521728
 30
0.0
 40
0.0119370603118201
 50
95.6797749993292683
 51
167.2863908321365045
  0
ARC
  5
C833
  8
0
 10
3783.6603007170988349
 20
-328.8910139550366125
 30
0.0
 40
0.9374074776331491
 50
200.288124436109797
 51
220.6922678525874062
  0
ARC
  5
C834
  8
0
 10
3783.6603007170988349
 20
-328.8910139550366125
 30
0.0
 40
0.9374074776331491
 50
319.2821831620454986
 51
339.711875563890203
  0
ARC
  5
C835
  8
0
 10
3783.6603007170988349
 20
-328.8910139550366125
 30
0.0
 40
0.9374074776331491
 50
348.4793862642716817
 51
350.3789327317824132
  0
ARC
  5
C836
  8
0
 10
3783.6603007170988349
 20
-328.8910139550366125
 30
0.0
 40
0.9374074776331491
 50
9.609549424995194
 51
170.3904544112170072
  0
ARC
  5
C837
  8
0
 10
3783.6603007170988349
 20
-328.8910139550366125
 30
0.0
 40
0.9374074776331491
 50
189.6210711044263917
 51
191.5205811029063057
  0
ARC
  5
C838
  8
0
 10
3783.6603007170988349
 20
-328.8910139550366125
 30
0.0
 40
0.7388422266112924
 50
127.6817596672027975
 51
167.7723429157854014
  0
ARC
  5
C839
  8
0
 10
3783.6603007170988349
 20
-328.8910139550366125
 30
0.0
 40
0.7388422266112924
 50
192.2424097566423029
 51
194.67850832329529
  0
ARC
  5
C83A
  8
0
 10
3783.6603007170988349
 20
-328.8910139550366125
 30
0.0
 40
0.7388422266112924
 50
345.3214590438867049
 51
347.7575940797299268
  0
ARC
  5
C83B
  8
0
 10
3783.6603007170988349
 20
-328.8910139550366125
 30
0.0
 40
0.7388422266112924
 50
12.2276609205861693
 51
52.3397754239091668
  0
LINE
  5
C83C
  8
0
 10
3783.344313317698834
 20
-328.0320508121366174
 30
0.0
 11
3783.9759938739580321
 21
-328.0321658138586258
 31
0.0
  0
ARC
  5
C83D
  8
0
 10
3783.9759756063558598
 20
-328.1325059589948978
 30
0.0
 40
0.1003401467992099
 50
57.598799718216533
 51
89.9895689155475083
  0
ARC
  5
C83E
  8
0
 10
3783.9107166009198409
 20
-328.2540763851624774
 30
0.0
 40
0.2381646324908341
 50
18.5110982316267503
 51
60.0157207024883874
  0
ARC
  5
C83F
  8
0
 10
3783.9952729573187753
 20
-328.2172075386608867
 30
0.0
 40
0.1465025703253468
 50
322.5589331613384161
 51
15.3355082711077504
  0
ARC
  5
C840
  8
0
 10
3783.8322143928348851
 20
-328.0569282633694002
 30
0.0
 40
0.3744665462696258
 50
279.5979514898522211
 51
318.2511516195892227
  0
LINE
  5
C841
  8
0
 10
3783.8946505084991259
 20
-328.4261530265366105
 30
0.0
 11
3783.4256796947997827
 21
-328.426122250436606
 31
0.0
  0
ARC
  5
C842
  8
0
 10
3783.4880272454170154
 20
-328.0568032723539886
 30
0.0
 40
0.3745446897765761
 50
221.7707393488591947
 51
260.417810097723077
  0
ARC
  5
C843
  8
0
 10
3783.3187280194520099
 20
-328.2181620539748792
 30
0.0
 40
0.1409922461422373
 50
158.8610930253663014
 51
218.6950136124305004
  0
ARC
  5
C844
  8
0
 10
3783.4020121320540966
 20
-328.2503637105737084
 30
0.0
 40
0.2302849675678346
 50
118.463834516669607
 51
158.8610930253663014
  0
ARC
  5
C845
  8
0
 10
3783.344278097231836
 20
-328.1252691145110134
 30
0.0
 40
0.093218309028046
 50
89.9783520619906341
 51
123.9212069921725003
  0
ARC
  5
C846
  8
0
 10
3783.3764203958471626
 20
-328.000059440637699
 30
0.0
 40
0.0319999833854286
 50
270.7430611309375763
 51
293.789673215677908
  0
ARC
  5
C847
  8
0
 10
3783.6678090684958988
 20
-328.7311071033893199
 30
0.0
 40
0.7550018623250274
 50
90.580368250013322
 51
111.6445537241020958
  0
ARC
  5
C848
  8
0
 10
3783.6670677215402065
 20
-328.6579215026998781
 30
0.0
 40
0.6818125069270317
 50
67.0537394101408069
 51
90.580368250013322
  0
ARC
  5
C849
  8
0
 10
3783.9435119442641735
 20
-328.0042144437953766
 30
0.0
 40
0.0279454627219918
 50
247.6478093787864907
 51
269.9499612136617088
  0
LINE
  5
C84A
  8
0
 10
3782.7196793219991378
 20
-329.0782328936365957
 30
0.0
 11
3784.60064360532715
 21
-329.0782334292882751
 31
0.0
  0
ARC
  5
C84B
  8
0
 10
3784.600643596782902
 20
-329.1082357639317024
 30
0.0
 40
0.0300023346433965
 50
47.6149873510339887
 51
89.9999836835904148
  0
ARC
  5
C84C
  8
0
 10
3784.566153351180219
 20
-329.1471399238341746
 30
0.0
 40
0.081991803106955
 50
312.0666741921004927
 51
48.1391381430637466
  0
ARC
  5
C84D
  8
0
 10
3784.6004492513397963
 20
-329.1855567424850051
 30
0.0
 40
0.0304956724802761
 50
270.3651571895914003
 51
312.5908249841247084
  0
LINE
  5
C84E
  8
0
 10
3784.6006436049001422
 20
-329.2160517956365879
 30
0.0
 11
3782.7226610456991693
 21
-329.2160517956365879
 31
0.0
  0
ARC
  5
C84F
  8
0
 10
3782.7201214803130824
 20
-329.1853248239434038
 30
0.0
 40
0.0308349047624821
 50
227.9159477243393042
 51
274.7953504511743859
  0
ARC
  5
C850
  8
0
 10
3782.7541684813709253
 20
-329.1471442610347253
 30
0.0
 40
0.0819906954370769
 50
132.0663408551081943
 51
228.1402482445434998
  0
ARC
  5
C851
  8
0
 10
3782.7196961457020734
 20
-329.1082767526248176
 30
0.0
 40
0.0300438636985913
 50
90.032083996026202
 51
132.9238935549117002
  0
ARC
  5
C852
  8
0
 10
3783.0103794323399597
 20
-329.048222115750491
 30
0.0
 40
0.0300108614785128
 50
270.0132811974369247
 51
351.5689142195760155
  0
ARC
  5
C853
  8
0
 10
3783.189826179136162
 20
-329.074730315795307
 30
0.0
 40
0.1513832430716667
 50
169.7082595395148985
 51
171.6024895407834947
  0
ARC
  5
C854
  8
0
 10
3783.1742528986228535
 20
-329.0747053790215091
 30
0.0
 40
0.1360840156317547
 50
102.9704193479043965
 51
168.5470599922767008
  0
ARC
  5
C855
  8
0
 10
3783.1343080513288442
 20
-328.9136049016898937
 30
0.0
 40
0.0299995771076013
 50
288.2626369434822777
 51
13.8018305696717096
  0
ARC
  5
C856
  8
0
 10
3783.1998229054102012
 20
-328.8964019782304149
 30
0.0
 40
0.0377430114951825
 50
119.2815447404153986
 51
195.4365370618544944
  0
ARC
  5
C857
  8
0
 10
3783.1951659592377837
 20
-328.8896584846576161
 30
0.0
 40
0.0295932906256714
 50
99.4429050426969354
 51
117.8028520541193984
  0
LINE
  5
C858
  8
0
 10
3783.1903107450261814
 20
-328.8604661955214965
 30
0.0
 11
3784.1300687491989265
 21
-328.8604756919365855
 31
0.0
  0
ARC
  5
C859
  8
0
 10
3784.1252869342588383
 20
-328.8891464809494209
 30
0.0
 40
0.02906681779521
 50
60.8858194549452776
 51
80.531163998839304
  0
ARC
  5
C85A
  8
0
 10
3784.1199797150188715
 20
-328.8966170573526142
 30
0.0
 40
0.0381888799895662
 50
345.0823047459765007
 51
59.3825590303234705
  0
ARC
  5
C85B
  8
0
 10
3784.1852779114337864
 20
-328.9140131602870838
 30
0.0
 40
0.0293868468087246
 50
165.0823047459765007
 51
252.8533324988229936
  0
ARC
  5
C85C
  8
0
 10
3784.1466881057422142
 20
-329.0740132376558904
 30
0.0
 40
0.1352711704580644
 50
9.0985888246747262
 51
77.2187250744877787
  0
ARC
  5
C85D
  8
0
 10
3784.3099440140258594
 20
-329.0482222852050995
 30
0.0
 40
0.03001106222422
 50
188.4307023103895915
 51
269.9857582669283147
  0
LINE
  5
C85E
  8
0
 10
3783.1634416641109055
 20
-328.9064489787620005
 30
0.0
 11
3784.1568815006990008
 21
-328.9064480679365943
 31
0.0
  0
ARC
  5
C85F
  8
0
 10
3783.1414250564171198
 20
-328.5054204579038242
 30
0.0
 40
0.3583954329397164
 50
277.8396719058840176
 51
300.8418656776797775
  0
ARC
  5
C860
  8
0
 10
3783.2478054372381848
 20
-328.6835790973544249
 30
0.0
 40
0.150892936004334
 50
300.8418656776814828
 51
3.9703956630423738
  0
ARC
  5
C861
  8
0
 10
3783.0782638097048221
 20
-328.6859076950951248
 30
0.0
 40
0.3203273192727018
 50
2.2859066609301282
 51
20.8454068277753102
  0
ARC
  5
C862
  8
0
 10
3783.4273769776650624
 20
-328.5546320999383738
 30
0.0
 40
0.0526711636325013
 50
171.0438282332129063
 51
199.1609178256647965
  0
ARC
  5
C863
  8
0
 10
3783.4392707615338622
 20
-328.5663274890694083
 30
0.0
 40
0.0669472782085486
 50
100.393281626302695
 51
162.7118865921108011
  0
ARC
  5
C864
  8
0
 10
3783.4187302100649504
 20
-328.4716516705877893
 30
0.0
 40
0.0300435788518615
 50
286.3611577371389103
 51
359.9317455558012853
  0
LINE
  5
C865
  8
0
 10
3783.4487737675990502
 20
-328.4716874604366126
 30
0.0
 11
3783.448793243676846
 21
-328.4553429072366271
 31
0.0
  0
ARC
  5
C866
  8
0
 10
3783.4188518588621264
 20
-328.4553072292512184
 30
0.0
 40
0.029941406071811
 50
359.931726704395885
 51
76.8325418543731615
  0
LINE
  5
C867
  8
0
 10
3783.4271932173001005
 20
-328.5004786395365954
 30
0.0
 11
3783.8931297257990991
 21
-328.5004786395365954
 31
0.0
  0
ARC
  5
C868
  8
0
 10
3783.8723745731249437
 20
-328.5822984009384982
 30
0.0
 40
0.0844111942721122
 50
42.2628846555543731
 51
75.7660652592432342
  0
ARC
  5
C869
  8
0
 10
3783.9000780279147875
 20
-328.5552759480311238
 30
0.0
 40
0.0457557087872519
 50
338.6688287794208918
 51
40.5509475232304624
  0
ARC
  5
C86A
  8
0
 10
3783.9015625413489943
 20
-328.455345921079811
 30
0.0
 40
0.0300000215498047
 50
103.3206772242832017
 51
179.9999674498178024
  0
LINE
  5
C86B
  8
0
 10
3783.8715625197992267
 20
-328.4553459040366192
 30
0.0
 11
3783.8715491755988296
 21
-328.4716874604366126
 31
0.0
  0
ARC
  5
C86C
  8
0
 10
3783.9015123424669582
 20
-328.4717119277812003
 30
0.0
 40
0.0299631768580545
 50
179.9532133811337928
 51
253.7538830711035018
  0
ARC
  5
C86D
  8
0
 10
3784.1751254835921827
 20
-328.6722100801870852
 30
0.0
 40
0.2531404739314213
 50
156.660182371970393
 51
188.8919309151050072
  0
ARC
  5
C86E
  8
0
 10
3784.0997231077008109
 20
-328.6684410575771835
 30
0.0
 40
0.1798854792035467
 50
193.7962467393427062
 51
258.3113145893807996
  0
ARC
  5
C86F
  8
0
 10
3784.2048665495058231
 20
-328.3974763967667059
 30
0.0
 40
0.4690021943002646
 50
252.428834278755204
 51
260.8231205086913178
  0
ARC
  5
C870
  8
0
 10
3783.6601620515630202
 20
-328.9221063053922762
 30
0.0
 40
0.440999161879473
 50
42.0900240740794871
 51
50.755274064127228
  0
ARC
  5
C871
  8
0
 10
3783.9651614600420544
 20
-328.6466146374305026
 30
0.0
 40
0.030000015544178
 50
359.9704642189223023
 51
42.0900240740794871
  0
LINE
  5
C872
  8
0
 10
3783.9951614716001131
 20
-328.6466301023365872
 30
0.0
 11
3783.9951614716001131
 21
-328.8148160892047827
 31
0.0
  0
ARC
  5
C873
  8
0
 10
3784.0544040795621186
 20
-328.6751265983522785
 30
0.0
 40
0.0594030964830707
 50
184.2126259757019966
 51
269.9517221454358946
  0
ARC
  5
C874
  8
0
 10
3783.6601614684132073
 20
-328.9221069101312196
 30
0.0
 40
0.440999995191803
 50
129.3210581423743974
 51
137.9107762976464073
  0
ARC
  5
C875
  8
0
 10
3783.3551614756320305
 20
-328.6466146277858229
 30
0.0
 40
0.0300000040325053
 50
137.8980697739094126
 51
179.9999985690602102
  0
LINE
  5
C876
  8
0
 10
3783.3251614715991309
 20
-328.6466316309366107
 30
0.0
 11
3783.3251614715991309
 21
-328.8131349620924766
 31
0.0
  0
ARC
  5
C877
  8
0
 10
3783.2660333434369022
 20
-328.6752577787140126
 30
0.0
 40
0.0592719561057529
 50
269.9380170585502015
 51
356.0077061938141014
  0
ARC
  5
C879
  8
0
 10
3786.3136564432661544
 20
-333.3870568239030945
 30
0.0
 40
0.1875995165338307
 50
270.0015357304010877
 51
89.9984642695989407
  0
ARC
  5
C87A
  8
0
 10
3781.0066633720898608
 20
-333.3870517957184916
 30
0.0
 40
0.1875944882914998
 50
90.0005804547720771
 51
269.9994195452280223
  0
ENDSEC
  0
EOF
