  0
SECTION
  2
HEADER
  9
$ACADVER
  1
AC1009
  9
$INSBASE
 10
4477.647537889763953
 20
460.5392204189647032
 30
0.0
  9
$EXTMIN
 10
4475.6748804869921514
 20
460.0665630161927879
 30
0.0
  9
$EXTMAX
 10
4479.6201952925348451
 20
461.0118778217366184
 30
0.0
  9
$LIMMIN
 10
0.0
 20
0.0
  9
$LIMMAX
 10
11.6929133858000007
 20
8.2677165353999982
  9
$ORTHOMODE
 70
     0
  9
$REGENMODE
 70
     1
  9
$FILLMODE
 70
     1
  9
$QTEXTMODE
 70
     0
  9
$MIRRTEXT
 70
     0
  9
$DRAGMODE
 70
     2
  9
$LTSCALE
 40
0.6431102362
  9
$OSMODE
 70
    19
  9
$ATTMODE
 70
     1
  9
$TEXTSIZE
 40
0.2
  9
$TRACEWID
 40
0.05
  9
$TEXTSTYLE
  7
STANDARD
  9
$CLAYER
  8
0
  9
$CELTYPE
  6
BYLAYER
  9
$CECOLOR
 62
   256
  9
$DIMSCALE
 40
1.0
  9
$DIMASZ
 40
0.1875
  9
$DIMEXO
 40
0.0625
  9
$DIMDLI
 40
0.4443307087
  9
$DIMRND
 40
0.0
  9
$DIMDLE
 40
0.0
  9
$DIMEXE
 40
0.125
  9
$DIMTP
 40
0.01
  9
$DIMTM
 40
0.01
  9
$DIMTXT
 40
2.0
  9
$DIMCEN
 40
0.1052362205
  9
$DIMTSZ
 40
0.0
  9
$DIMTOL
 70
     1
  9
$DIMLIM
 70
     0
  9
$DIMTIH
 70
     1
  9
$DIMTOH
 70
     1
  9
$DIMSE1
 70
     0
  9
$DIMSE2
 70
     0
  9
$DIMTAD
 70
     0
  9
$DIMZIN
 70
     0
  9
$DIMBLK
  1

  9
$DIMASO
 70
     1
  9
$DIMSHO
 70
     1
  9
$DIMPOST
  1
\X
  9
$DIMAPOST
  1

  9
$DIMALT
 70
     1
  9
$DIMALTD
 70
     2
  9
$DIMALTF
 40
25.3999999999999986
  9
$DIMLFAC
 40
1.0
  9
$DIMTOFL
 70
     0
  9
$DIMTVP
 40
0.0
  9
$DIMTIX
 70
     0
  9
$DIMSOXD
 70
     0
  9
$DIMSAH
 70
     0
  9
$DIMBLK1
  1

  9
$DIMBLK2
  1

  9
$DIMSTYLE
  2
STANDARD
  9
$DIMCLRD
 70
     0
  9
$DIMCLRE
 70
     0
  9
$DIMCLRT
 70
     0
  9
$DIMTFAC
 40
1.0
  9
$DIMGAP
 40
0.09
  9
$LUNITS
 70
     2
  9
$LUPREC
 70
     4
  9
$SKETCHINC
 40
0.1
  9
$FILLETRAD
 40
0.0
  9
$AUNITS
 70
     0
  9
$AUPREC
 70
     0
  9
$MENU
  1
.
  9
$ELEVATION
 40
0.0
  9
$PELEVATION
 40
0.0
  9
$THICKNESS
 40
0.0
  9
$LIMCHECK
 70
     0
  9
$BLIPMODE
 70
     0
  9
$CHAMFERA
 40
0.0
  9
$CHAMFERB
 40
0.0
  9
$SKPOLY
 70
     0
  9
$TDCREATE
 40
2458060.468368056230247
  9
$TDUPDATE
 40
2459263.647476851940155
  9
$TDINDWG
 40
1.4946902778
  9
$TDUSRTIMER
 40
1.4946902778
  9
$USRTIMER
 70
     1
  9
$ANGBASE
 50
0.0
  9
$ANGDIR
 70
     0
  9
$PDMODE
 70
     0
  9
$PDSIZE
 40
0.3125
  9
$PLINEWID
 40
0.0
  9
$COORDS
 70
     1
  9
$SPLFRAME
 70
     0
  9
$SPLINETYPE
 70
     6
  9
$SPLINESEGS
 70
     8
  9
$ATTDIA
 70
     1
  9
$ATTREQ
 70
     1
  9
$HANDLING
 70
     1
  9
$HANDSEED
  5
18BC4
  9
$SURFTAB1
 70
     6
  9
$SURFTAB2
 70
     6
  9
$SURFTYPE
 70
     6
  9
$SURFU
 70
     6
  9
$SURFV
 70
     6
  9
$UCSNAME
  2

  9
$UCSORG
 10
0.0
 20
0.0
 30
0.0
  9
$UCSXDIR
 10
1.0
 20
0.0
 30
0.0
  9
$UCSYDIR
 10
0.0
 20
1.0
 30
0.0
  9
$PUCSNAME
  2

  9
$PUCSORG
 10
0.0
 20
0.0
 30
0.0
  9
$PUCSXDIR
 10
1.0
 20
0.0
 30
0.0
  9
$PUCSYDIR
 10
0.0
 20
1.0
 30
0.0
  9
$USERI1
 70
     0
  9
$USERI2
 70
     0
  9
$USERI3
 70
     0
  9
$USERI4
 70
     0
  9
$USERI5
 70
     0
  9
$USERR1
 40
0.0
  9
$USERR2
 40
0.0
  9
$USERR3
 40
0.0
  9
$USERR4
 40
0.0
  9
$USERR5
 40
0.0
  9
$WORLDVIEW
 70
     1
  9
$SHADEDGE
 70
     3
  9
$SHADEDIF
 70
    70
  9
$TILEMODE
 70
     1
  9
$MAXACTVP
 70
    64
  9
$PLIMCHECK
 70
     0
  9
$PEXTMIN
 10
1.0000000000000000E+20
 20
1.0000000000000000E+20
 30
1.0000000000000000E+20
  9
$PEXTMAX
 10
-1.0000000000000000E+20
 20
-1.0000000000000000E+20
 30
-1.0000000000000000E+20
  9
$PLIMMIN
 10
0.0
 20
0.0
  9
$PLIMMAX
 10
12.0
 20
9.0
  9
$UNITMODE
 70
     0
  9
$VISRETAIN
 70
     1
  9
$PLINEGEN
 70
     0
  9
$PSLTSCALE
 70
     1
  0
ENDSEC
  0
SECTION
  2
TABLES
  0
TABLE
  2
VPORT
 70
     1
  0
VPORT
  2
*ACTIVE
 70
     0
 10
0.0
 20
0.0
 11
1.0
 21
1.0
 12
566.282181444451453
 22
327.9596153164256975
 13
0.0
 23
0.0
 14
1.0
 24
1.0
 15
0.0
 25
0.0
 16
0.0
 26
0.0
 36
60.4960186965801583
 17
3911.3653564453120453
 27
132.5796051025390057
 37
0.0
 40
2.3436373148982619
 41
1.6896551724137929
 42
50.0
 43
0.0
 44
0.0
 50
0.0
 51
0.0
 71
     0
 72
   100
 73
     1
 74
     1
 75
     0
 76
     0
 77
     0
 78
     0
  0
ENDTAB
  0
TABLE
  2
LTYPE
 70
     2
  0
LTYPE
  2
CONTINUOUS
 70
     0
  3
Solid line
 72
    65
 73
     0
 40
0.0
  0
LTYPE
  2
PHANTOM2
 70
     0
  3
___ _ _ ___ _ _ ___ _ _ ___ _ _
 72
    65
 73
     6
 40
1.25
 49
0.625
 49
-0.125
 49
0.125
 49
-0.125
 49
0.125
 49
-0.125
  0
ENDTAB
  0
TABLE
  2
LAYER
 70
     2
  0
LAYER
  2
0
 70
     0
 62
   255
  6
CONTINUOUS
  0
LAYER
  2
DEFPOINTS
 70
     0
 62
     7
  6
CONTINUOUS
  0
ENDTAB
  0
TABLE
  2
STYLE
 70
     1
  0
STYLE
  2
STANDARD
 70
     0
 40
0.0
 41
0.8
 50
0.0
 71
     0
 42
0.2
  3
txt
  4

  0
ENDTAB
  0
TABLE
  2
VIEW
 70
     0
  0
ENDTAB
  0
TABLE
  2
UCS
 70
     0
  0
ENDTAB
  0
TABLE
  2
APPID
 70
    11
  0
APPID
  2
ACAD
 70
     0
  0
APPID
  2
ACAD_MLEADERVER
 70
     0
  0
APPID
  2
ACAD_EXEMPT_FROM_CAD_STANDARDS
 70
     0
  0
APPID
  2
ACAD_NAV_VCDISPLAY
 70
     0
  0
APPID
  2
ACAECLAYERSTANDARD
 70
     0
  0
APPID
  2
ACCMTRANSPARENCY
 70
     0
  0
APPID
  2
ACAD_DSTYLE_DIMJAG
 70
     0
  0
APPID
  2
ACAD_DSTYLE_DIMTALN
 70
     0
  0
APPID
  2
ACDBATTR
 70
     0
  0
APPID
  2
ACADANNOTATIVE
 70
     0
  0
APPID
  2
DCO15
 70
     0
  0
ENDTAB
  0
TABLE
  2
DIMSTYLE
 70
     1
  0
DIMSTYLE
  2
STANDARD
 70
     0
  3

  4

  5

  6

  7

 40
1.0
 41
0.1875
 42
0.0625
 43
0.38
 44
0.125
 45
0.0
 46
0.0
 47
0.01
 48
0.01
140
0.15625
141
0.09
142
0.0
143
25.3999999999999986
144
1.0
145
0.0
146
1.0
147
0.09
 71
     1
 72
     0
 73
     1
 74
     1
 75
     0
 76
     0
 77
     0
 78
     4
170
     0
171
     2
172
     0
173
     0
174
     0
175
     0
176
     0
177
     0
178
     0
  0
ENDTAB
  0
ENDSEC
  0
SECTION
  2
BLOCKS
  0
BLOCK
  8
0
  2
$MODEL_SPACE
 70
     0
 10
0.0
 20
0.0
 30
0.0
  3
$MODEL_SPACE
  1

  0
ENDBLK
  5
21
  8
0
  0
BLOCK
 67
     1
  8
0
  2
$PAPER_SPACE
 70
     0
 10
0.0
 20
0.0
 30
0.0
  3
$PAPER_SPACE
  1

  0
ENDBLK
  5
1D
 67
     1
  8
0
  0
ENDSEC
  0
SECTION
  2
ENTITIES
  0
ATTDEF
  5
159BF
  8
DEFPOINTS
 10
4477.6475370567923164
 20
460.5425540912777933
 30
0.0
 40
0.001
  1
K-72579
  3

  2
MODELNUMBER
 70
     0
1001
ACDBATTR
1070
     0
1070
     1
  0
ATTDEF
  5
159C0
  8
DEFPOINTS
 10
4477.6474112471360058
 20
460.5408872508987201
 30
0.0
 40
0.001
  1
ARTIFACTS
  3

  2
TRADENAME
 70
     0
1001
ACDBATTR
1070
     0
1070
     1
  0
ATTDEF
  5
159C1
  8
DEFPOINTS
 10
4477.6475370567923164
 20
460.5392207579445767
 30
0.0
 40
0.001
  1
DRAWER PULL
  3

  2
PRODUCT
 70
     0
1001
ACDBATTR
1070
     0
1070
     1
  0
ARC
  5
18B10
  8
0
 10
4479.1472630990128891
 20
460.5392204189146241
 30
0.0
 40
0.2295813899500034
 50
270.0
 51
90.0
  0
ARC
  5
18B11
  8
0
 10
4477.7238579454797218
 20
338.8855216227487972
 30
0.0
 40
121.8915914702828047
 50
89.3309057619429439
 51
89.6988155759571271
  0
ARC
  5
18B12
  8
0
 10
4479.147537889763953
 20
460.5392204189647032
 30
0.0
 40
0.4726574027719162
 50
209.6275002982876003
 51
150.3694117201490883
  0
ARC
  5
18B13
  8
0
 10
4479.147537889763953
 20
460.5392204189647032
 30
0.0
 40
0.3561368542072678
 50
220.7371092160665
 51
139.2586051288872966
  0
LINE
  5
18B14
  8
0
 10
4479.0434868349502722
 20
460.8204219347646813
 30
0.0
 11
4479.1350194419601394
 21
460.8204219347646813
 31
0.0
  0
LINE
  5
18B15
  8
0
 10
4479.1600563375677666
 20
460.8204219347646813
 30
0.0
 11
4479.2515889445767243
 21
460.8204219347646813
 31
0.0
  0
LINE
  5
18B16
  8
0
 10
4479.2515889445767243
 20
460.2580189031646114
 30
0.0
 11
4479.1600563375677666
 21
460.2580189031646114
 31
0.0
  0
LINE
  5
18B17
  8
0
 10
4479.1350194419601394
 20
460.2580189031646114
 30
0.0
 11
4479.0434868349502722
 21
460.2580189031646114
 31
0.0
  0
LINE
  5
18B18
  8
0
 10
4479.2728021563625589
 20
460.8116351429646897
 30
0.0
 11
4479.419952613762689
 21
460.6644846854646858
 31
0.0
  0
LINE
  5
18B19
  8
0
 10
4479.4287394055627374
 20
460.6432714738706977
 30
0.0
 11
4479.4287394055627374
 21
460.5517388667684031
 31
0.0
  0
LINE
  5
18B1A
  8
0
 10
4479.4287394055627374
 20
460.5267019711608896
 30
0.0
 11
4479.4287394055627374
 21
460.4351693640587087
 31
0.0
  0
ARC
  5
18B1B
  8
0
 10
4479.3987393743645953
 20
460.6432714738708114
 30
0.0
 40
0.0300000311983366
 50
359.9999999998826752
 51
44.9999624509287628
  0
ARC
  5
18B1C
  8
0
 10
4479.2515889445767243
 20
460.7904219031019011
 30
0.0
 40
0.0300000316628018
 50
45.0000379164889921
 51
90.0000000001042082
  0
ARC
  5
18B1D
  8
0
 10
4479.0434868349502722
 20
460.7904219031019011
 30
0.0
 40
0.0300000316628175
 50
89.9999999998957776
 51
134.9999620835041014
  0
LINE
  5
18B1E
  8
0
 10
4479.0222736231626186
 20
460.8116351429646897
 30
0.0
 11
4478.9812658171613293
 21
460.7706273436799052
 31
0.0
  0
LINE
  5
18B1F
  8
0
 10
4479.2728021563625589
 20
460.2668056949647166
 30
0.0
 11
4479.419952613762689
 21
460.4139561524646069
 31
0.0
  0
ARC
  5
18B20
  8
0
 10
4479.3987393743645953
 20
460.4351693640587087
 30
0.0
 40
0.0300000311983382
 50
315.0000375490735109
 51
0.0000000001237617
  0
ARC
  5
18B21
  8
0
 10
4479.2515889445767243
 20
460.2880189348275053
 30
0.0
 40
0.030000031662798
 50
269.999999999895806
 51
314.9999620835133101
  0
ARC
  5
18B22
  8
0
 10
4479.0434868349502722
 20
460.2880189348275053
 30
0.0
 40
0.0300000316628144
 50
225.0000379164935964
 51
270.000000000104194
  0
LINE
  5
18B23
  8
0
 10
4479.0222736231626186
 20
460.2668056949647166
 30
0.0
 11
4478.9812508437626093
 21
460.3078284676449243
 31
0.0
  0
ARC
  5
18B24
  8
0
 10
4477.6841578798203045
 20
586.8514584632340529
 30
0.0
 40
126.5502775288053954
 50
270.3080713456499211
 51
270.6624372806119254
  0
ARC
  5
18B25
  8
0
 10
4479.147537889763953
 20
460.5392204189647032
 30
0.0
 40
0.2814800242000013
 50
235.2692566493329025
 51
124.7255572626059035
  0
ARC
  5
18B26
  8
0
 10
4476.1478126805141073
 20
460.5392204189146241
 30
0.0
 40
0.2295813899500034
 50
90.0
 51
270.0
  0
ARC
  5
18B27
  8
0
 10
4477.5712178340472747
 20
338.8855216227487972
 30
0.0
 40
121.8915914702828047
 50
90.3011844240428871
 51
90.6690942380570419
  0
ARC
  5
18B28
  8
0
 10
4476.147537889763953
 20
460.5392204189647032
 30
0.0
 40
0.4726574027719162
 50
29.6305882798509188
 51
330.3724997017125133
  0
ARC
  5
18B29
  8
0
 10
4476.147537889763953
 20
460.5392204189647032
 30
0.0
 40
0.3561368542072678
 50
40.7413948711127389
 51
319.2628907839335284
  0
LINE
  5
18B2A
  8
0
 10
4476.2515889445767243
 20
460.8204219347646813
 30
0.0
 11
4476.1600563375677666
 21
460.8204219347646813
 31
0.0
  0
LINE
  5
18B2B
  8
0
 10
4476.1350194419601394
 20
460.8204219347646813
 30
0.0
 11
4476.0434868349502722
 21
460.8204219347646813
 31
0.0
  0
LINE
  5
18B2C
  8
0
 10
4476.0434868349502722
 20
460.2580189031646114
 30
0.0
 11
4476.1350194419601394
 21
460.2580189031646114
 31
0.0
  0
LINE
  5
18B2D
  8
0
 10
4476.1600563375677666
 20
460.2580189031646114
 30
0.0
 11
4476.2515889445767243
 21
460.2580189031646114
 31
0.0
  0
LINE
  5
18B2E
  8
0
 10
4476.0222736231626186
 20
460.8116351429646897
 30
0.0
 11
4475.875123165763398
 21
460.6644846854646858
 31
0.0
  0
LINE
  5
18B2F
  8
0
 10
4475.8663363739642591
 20
460.6432714738706977
 30
0.0
 11
4475.8663363739642591
 21
460.5517388667684031
 31
0.0
  0
LINE
  5
18B30
  8
0
 10
4475.8663363739642591
 20
460.5267019711608896
 30
0.0
 11
4475.8663363739642591
 21
460.4351693640587087
 31
0.0
  0
ARC
  5
18B31
  8
0
 10
4475.8963364051624012
 20
460.6432714738708114
 30
0.0
 40
0.0300000311983401
 50
135.0000375490735109
 51
180.0000000001172111
  0
ARC
  5
18B32
  8
0
 10
4476.0434868349502722
 20
460.7904219031019011
 30
0.0
 40
0.0300000316627998
 50
89.9999999998957776
 51
134.9999620835133101
  0
ARC
  5
18B33
  8
0
 10
4476.2515889445767243
 20
460.7904219031019011
 30
0.0
 40
0.0300000316628144
 50
45.0000379164935822
 51
90.0000000001042082
  0
LINE
  5
18B34
  8
0
 10
4476.2728021563643779
 20
460.8116351429646897
 30
0.0
 11
4476.3138099623647577
 21
460.7706273436799052
 31
0.0
  0
LINE
  5
18B35
  8
0
 10
4476.0222736231626186
 20
460.2668056949647166
 30
0.0
 11
4475.875123165763398
 21
460.4139561524646069
 31
0.0
  0
ARC
  5
18B36
  8
0
 10
4475.8963364051624012
 20
460.4351693640587087
 30
0.0
 40
0.0300000311983375
 50
179.999999999876195
 51
224.9999624509287912
  0
ARC
  5
18B37
  8
0
 10
4476.0434868349502722
 20
460.2880189348275053
 30
0.0
 40
0.0300000316627987
 50
225.0000379164843878
 51
270.000000000104194
  0
ARC
  5
18B38
  8
0
 10
4476.2515889445767243
 20
460.2880189348275053
 30
0.0
 40
0.0300000316628175
 50
269.999999999895806
 51
314.9999620835041014
  0
LINE
  5
18B39
  8
0
 10
4476.2728021563643779
 20
460.2668056949647166
 30
0.0
 11
4476.3138249357643872
 21
460.3078284676449243
 31
0.0
  0
ARC
  5
18B3A
  8
0
 10
4477.610917899706692
 20
586.8514584632340529
 30
0.0
 40
126.5502775288053954
 50
269.3375627193880746
 51
269.6919286543500789
  0
ARC
  5
18B3B
  8
0
 10
4476.147537889763953
 20
460.5392204189647032
 30
0.0
 40
0.2814800242000013
 50
55.2744427373940184
 51
304.7307433506671259
  0
ARC
  5
18B3C
  8
0
 10
4477.647537889763953
 20
-205.9147936272186996
 30
0.0
 40
666.6906082583499256
 50
89.9383754560412854
 51
90.0616245439587146
  0
ARC
  5
18B3D
  8
0
 10
4477.647537889763953
 20
573.1644042313096179
 30
0.0
 40
112.8636718583617977
 50
269.6359787606135114
 51
270.3640212393866022
  0
ENDSEC
  0
EOF
