  0
SECTION
  2
HEADER
  9
$ACADVER
  1
AC1009
  9
$INSBASE
 10
4477.9742204601770936
 20
460.381437017863675
 30
0.0
  9
$EXTMIN
 10
4476.6650490259808066
 20
459.9087796150918166
 30
0.0
  9
$EXTMAX
 10
4477.9848873306418682
 20
460.854094420639683
 30
0.0
  9
$LIMMIN
 10
0.0
 20
0.0
  9
$LIMMAX
 10
11.6929133858000007
 20
8.2677165353999982
  9
$ORTHOMODE
 70
     0
  9
$REGENMODE
 70
     1
  9
$FILLMODE
 70
     1
  9
$QTEXTMODE
 70
     0
  9
$MIRRTEXT
 70
     0
  9
$DRAGMODE
 70
     2
  9
$LTSCALE
 40
0.6431102362
  9
$OSMODE
 70
    19
  9
$ATTMODE
 70
     1
  9
$TEXTSIZE
 40
0.2
  9
$TRACEWID
 40
0.05
  9
$TEXTSTYLE
  7
STANDARD
  9
$CLAYER
  8
0
  9
$CELTYPE
  6
BYLAYER
  9
$CECOLOR
 62
   256
  9
$DIMSCALE
 40
1.0
  9
$DIMASZ
 40
0.1875
  9
$DIMEXO
 40
0.0625
  9
$DIMDLI
 40
0.4443307087
  9
$DIMRND
 40
0.0
  9
$DIMDLE
 40
0.0
  9
$DIMEXE
 40
0.125
  9
$DIMTP
 40
0.01
  9
$DIMTM
 40
0.01
  9
$DIMTXT
 40
2.0
  9
$DIMCEN
 40
0.1052362205
  9
$DIMTSZ
 40
0.0
  9
$DIMTOL
 70
     1
  9
$DIMLIM
 70
     0
  9
$DIMTIH
 70
     1
  9
$DIMTOH
 70
     1
  9
$DIMSE1
 70
     0
  9
$DIMSE2
 70
     0
  9
$DIMTAD
 70
     0
  9
$DIMZIN
 70
     0
  9
$DIMBLK
  1

  9
$DIMASO
 70
     1
  9
$DIMSHO
 70
     1
  9
$DIMPOST
  1
\X
  9
$DIMAPOST
  1

  9
$DIMALT
 70
     1
  9
$DIMALTD
 70
     2
  9
$DIMALTF
 40
25.3999999999999986
  9
$DIMLFAC
 40
1.0
  9
$DIMTOFL
 70
     0
  9
$DIMTVP
 40
0.0
  9
$DIMTIX
 70
     0
  9
$DIMSOXD
 70
     0
  9
$DIMSAH
 70
     0
  9
$DIMBLK1
  1

  9
$DIMBLK2
  1

  9
$DIMSTYLE
  2
STANDARD
  9
$DIMCLRD
 70
     0
  9
$DIMCLRE
 70
     0
  9
$DIMCLRT
 70
     0
  9
$DIMTFAC
 40
1.0
  9
$DIMGAP
 40
0.09
  9
$LUNITS
 70
     2
  9
$LUPREC
 70
     4
  9
$SKETCHINC
 40
0.1
  9
$FILLETRAD
 40
0.0
  9
$AUNITS
 70
     0
  9
$AUPREC
 70
     0
  9
$MENU
  1
.
  9
$ELEVATION
 40
0.0
  9
$PELEVATION
 40
0.0
  9
$THICKNESS
 40
0.0
  9
$LIMCHECK
 70
     0
  9
$BLIPMODE
 70
     0
  9
$CHAMFERA
 40
0.0
  9
$CHAMFERB
 40
0.0
  9
$SKPOLY
 70
     0
  9
$TDCREATE
 40
2458060.468368056230247
  9
$TDUPDATE
 40
2459263.6472106478177011
  9
$TDINDWG
 40
1.4960097221999999
  9
$TDUSRTIMER
 40
1.4960097221999999
  9
$USRTIMER
 70
     1
  9
$ANGBASE
 50
0.0
  9
$ANGDIR
 70
     0
  9
$PDMODE
 70
     0
  9
$PDSIZE
 40
0.3125
  9
$PLINEWID
 40
0.0
  9
$COORDS
 70
     1
  9
$SPLFRAME
 70
     0
  9
$SPLINETYPE
 70
     6
  9
$SPLINESEGS
 70
     8
  9
$ATTDIA
 70
     1
  9
$ATTREQ
 70
     1
  9
$HANDLING
 70
     1
  9
$HANDSEED
  5
18EC3
  9
$SURFTAB1
 70
     6
  9
$SURFTAB2
 70
     6
  9
$SURFTYPE
 70
     6
  9
$SURFU
 70
     6
  9
$SURFV
 70
     6
  9
$UCSNAME
  2

  9
$UCSORG
 10
0.0
 20
0.0
 30
0.0
  9
$UCSXDIR
 10
1.0
 20
0.0
 30
0.0
  9
$UCSYDIR
 10
0.0
 20
1.0
 30
0.0
  9
$PUCSNAME
  2

  9
$PUCSORG
 10
0.0
 20
0.0
 30
0.0
  9
$PUCSXDIR
 10
1.0
 20
0.0
 30
0.0
  9
$PUCSYDIR
 10
0.0
 20
1.0
 30
0.0
  9
$USERI1
 70
     0
  9
$USERI2
 70
     0
  9
$USERI3
 70
     0
  9
$USERI4
 70
     0
  9
$USERI5
 70
     0
  9
$USERR1
 40
0.0
  9
$USERR2
 40
0.0
  9
$USERR3
 40
0.0
  9
$USERR4
 40
0.0
  9
$USERR5
 40
0.0
  9
$WORLDVIEW
 70
     1
  9
$SHADEDGE
 70
     3
  9
$SHADEDIF
 70
    70
  9
$TILEMODE
 70
     1
  9
$MAXACTVP
 70
    64
  9
$PLIMCHECK
 70
     0
  9
$PEXTMIN
 10
1.0000000000000000E+20
 20
1.0000000000000000E+20
 30
1.0000000000000000E+20
  9
$PEXTMAX
 10
-1.0000000000000000E+20
 20
-1.0000000000000000E+20
 30
-1.0000000000000000E+20
  9
$PLIMMIN
 10
0.0
 20
0.0
  9
$PLIMMAX
 10
12.0
 20
9.0
  9
$UNITMODE
 70
     0
  9
$VISRETAIN
 70
     1
  9
$PLINEGEN
 70
     0
  9
$PSLTSCALE
 70
     1
  0
ENDSEC
  0
SECTION
  2
TABLES
  0
TABLE
  2
VPORT
 70
     1
  0
VPORT
  2
*ACTIVE
 70
     0
 10
0.0
 20
0.0
 11
1.0
 21
1.0
 12
565.9596117329992921
 22
327.8018319153267157
 13
0.0
 23
0.0
 14
1.0
 24
1.0
 15
0.0
 25
0.0
 16
0.0
 26
0.0
 36
60.4960186965801583
 17
3911.3653564453120453
 27
132.5796051025390057
 37
0.0
 40
0.9513921377934462
 41
1.6896551724137929
 42
50.0
 43
0.0
 44
0.0
 50
0.0
 51
0.0
 71
     0
 72
   100
 73
     1
 74
     1
 75
     0
 76
     0
 77
     0
 78
     0
  0
ENDTAB
  0
TABLE
  2
LTYPE
 70
     2
  0
LTYPE
  2
CONTINUOUS
 70
     0
  3
Solid line
 72
    65
 73
     0
 40
0.0
  0
LTYPE
  2
PHANTOM2
 70
     0
  3
___ _ _ ___ _ _ ___ _ _ ___ _ _
 72
    65
 73
     6
 40
1.25
 49
0.625
 49
-0.125
 49
0.125
 49
-0.125
 49
0.125
 49
-0.125
  0
ENDTAB
  0
TABLE
  2
LAYER
 70
     2
  0
LAYER
  2
0
 70
     0
 62
   255
  6
CONTINUOUS
  0
LAYER
  2
DEFPOINTS
 70
     0
 62
     7
  6
CONTINUOUS
  0
ENDTAB
  0
TABLE
  2
STYLE
 70
     1
  0
STYLE
  2
STANDARD
 70
     0
 40
0.0
 41
0.8
 50
0.0
 71
     0
 42
0.2
  3
txt
  4

  0
ENDTAB
  0
TABLE
  2
VIEW
 70
     0
  0
ENDTAB
  0
TABLE
  2
UCS
 70
     0
  0
ENDTAB
  0
TABLE
  2
APPID
 70
    11
  0
APPID
  2
ACAD
 70
     0
  0
APPID
  2
ACAD_MLEADERVER
 70
     0
  0
APPID
  2
ACAD_EXEMPT_FROM_CAD_STANDARDS
 70
     0
  0
APPID
  2
ACAD_NAV_VCDISPLAY
 70
     0
  0
APPID
  2
ACAECLAYERSTANDARD
 70
     0
  0
APPID
  2
ACCMTRANSPARENCY
 70
     0
  0
APPID
  2
ACAD_DSTYLE_DIMJAG
 70
     0
  0
APPID
  2
ACAD_DSTYLE_DIMTALN
 70
     0
  0
APPID
  2
ACDBATTR
 70
     0
  0
APPID
  2
ACADANNOTATIVE
 70
     0
  0
APPID
  2
DCO15
 70
     0
  0
ENDTAB
  0
TABLE
  2
DIMSTYLE
 70
     1
  0
DIMSTYLE
  2
STANDARD
 70
     0
  3

  4

  5

  6

  7

 40
1.0
 41
0.1875
 42
0.0625
 43
0.38
 44
0.125
 45
0.0
 46
0.0
 47
0.01
 48
0.01
140
0.15625
141
0.09
142
0.0
143
25.3999999999999986
144
1.0
145
0.0
146
1.0
147
0.09
 71
     1
 72
     0
 73
     1
 74
     1
 75
     0
 76
     0
 77
     0
 78
     4
170
     0
171
     2
172
     0
173
     0
174
     0
175
     0
176
     0
177
     0
178
     0
  0
ENDTAB
  0
ENDSEC
  0
SECTION
  2
BLOCKS
  0
BLOCK
  8
0
  2
$MODEL_SPACE
 70
     0
 10
0.0
 20
0.0
 30
0.0
  3
$MODEL_SPACE
  1

  0
ENDBLK
  5
21
  8
0
  0
BLOCK
 67
     1
  8
0
  2
$PAPER_SPACE
 70
     0
 10
0.0
 20
0.0
 30
0.0
  3
$PAPER_SPACE
  1

  0
ENDBLK
  5
1D
 67
     1
  8
0
  0
ENDSEC
  0
SECTION
  2
ENTITIES
  0
ATTDEF
  5
159BF
  8
DEFPOINTS
 10
4477.9742206639730284
 20
460.3847683423747981
 30
0.0
 40
0.001
  1
K-72579
  3

  2
MODELNUMBER
 70
     0
1001
ACDBATTR
1070
     0
1070
     1
  0
ATTDEF
  5
159C0
  8
DEFPOINTS
 10
4477.9740948543167178
 20
460.3831015019956112
 30
0.0
 40
0.001
  1
ARTIFACTS
  3

  2
TRADENAME
 70
     0
1001
ACDBATTR
1070
     0
1070
     1
  0
ATTDEF
  5
159C1
  8
DEFPOINTS
 10
4477.9742206639730284
 20
460.3814350090415246
 30
0.0
 40
0.001
  1
DRAWER PULL
  3

  2
PRODUCT
 70
     0
1001
ACDBATTR
1070
     0
1070
     1
  0
ARC
  5
18DEC
  8
0
 10
4477.9442054798828394
 20
459.9387954866473933
 30
0.0
 40
0.0300158715556146
 50
265.1614634174985099
 51
359.5584640829741261
  0
ARC
  5
18DED
  8
0
 10
4477.9442054799301332
 20
460.82407854913032
 30
0.0
 40
0.03001587150932
 50
0.441535821599607
 51
94.8385366779427983
  0
ARC
  5
18DEE
  8
0
 10
4477.947195684721919
 20
460.0093144046098814
 30
0.0
 40
0.100579521092947
 50
224.6432771117248137
 51
266.8527827197074203
  0
ARC
  5
18DEF
  8
0
 10
4477.9874681450828575
 20
460.0390781669179887
 30
0.0
 40
0.150316741853255
 50
193.6920973267208126
 51
221.9274748689838077
  0
ARC
  5
18DF0
  8
0
 10
4477.8126350102038487
 20
459.9953929763809128
 30
0.0
 40
0.0299072024974593
 50
15.7232708458437909
 51
89.942192458462813
  0
ARC
  5
18DF1
  8
0
 10
4477.7993453448088985
 20
460.0552756875774207
 30
0.0
 40
0.0299755239209184
 50
187.336958464837096
 51
270.0
  0
ARC
  5
18DF2
  8
0
 10
4477.5308661667049819
 20
460.0216952001736104
 30
0.0
 40
0.2405957937960693
 50
7.1034763071628069
 51
17.8468995311399112
  0
ARC
  5
18DF3
  8
0
 10
4477.6420077351331201
 20
460.0583557709159095
 30
0.0
 40
0.1235697700878442
 50
17.4600288094199385
 51
41.0792069871629835
  0
ARC
  5
18DF4
  8
0
 10
4477.6985245585156008
 20
460.1095359679446233
 30
0.0
 40
0.0473586562747477
 50
39.333849005143577
 51
140.6661509948613968
  0
ARC
  5
18DF5
  8
0
 10
4477.7816695701258141
 20
460.0414004977777154
 30
0.0
 40
0.1548553318071548
 50
140.6661509948613968
 51
151.804793401640012
  0
ARC
  5
18DF6
  8
0
 10
4477.6197216544578623
 20
460.1300300294498129
 30
0.0
 40
0.0297945409830125
 50
269.9452619573889933
 51
328.7335040473192862
  0
LINE
  5
18DF7
  8
0
 10
4477.6196931899767151
 20
460.1002355020638106
 30
0.0
 11
4477.5305392071768438
 21
460.1002355020638106
 31
0.0
  0
LINE
  5
18DF8
  8
0
 10
4477.6543063996768979
 20
460.6334807541637133
 30
0.0
 11
4477.6543063996768979
 21
460.1294845292591731
 31
0.0
  0
LINE
  5
18DF9
  8
0
 10
4477.4999048668505566
 20
460.6399890005328075
 30
0.0
 11
4477.4999048668505566
 21
460.1228850351945994
 31
0.0
  0
LINE
  5
18DFA
  8
0
 10
4477.6067691694770474
 20
460.2561727512637049
 30
0.0
 11
4477.5434632283768224
 21
460.2561727512637049
 31
0.0
  0
ARC
  5
18DFB
  8
0
 10
4477.4017284318560996
 20
460.1935081581154918
 30
0.0
 40
0.2434517725810193
 50
341.3524472118073732
 51
18.6475528618055115
  0
ARC
  5
18DFC
  8
0
 10
4477.600828901487148
 20
460.2954336067867871
 30
0.0
 40
0.0397077015224491
 50
278.6037406251726907
 51
322.663060078882495
  0
ARC
  5
18DFD
  8
0
 10
4477.5492294953146484
 20
460.2949454553997839
 30
0.0
 40
0.0391991380061909
 50
216.9728767435013879
 51
261.5409865226911847
  0
ARC
  5
18DFE
  8
0
 10
4477.7478422272261014
 20
460.1933995304157747
 30
0.0
 40
0.2427900639053662
 50
161.2679900991620059
 51
198.6731961315568071
  0
ARC
  5
18DFF
  8
0
 10
4477.1649849732630173
 20
460.3814370181260074
 30
0.0
 40
0.4802036976725575
 50
346.7471436378025942
 51
13.2528563101500492
  0
ARC
  5
18E00
  8
0
 10
4477.9837108953470306
 20
460.3816155185372736
 30
0.0
 40
0.478667201695941
 50
166.7257773596759876
 51
193.3158188343074073
  0
LINE
  5
18E01
  8
0
 10
4477.6323998049765578
 20
460.491523195063678
 30
0.0
 11
4477.6067691694770474
 21
460.4854881041637213
 31
0.0
  0
LINE
  5
18E02
  8
0
 10
4477.6067691694770474
 20
460.4854881041637213
 30
0.0
 11
4477.5434632246769979
 21
460.4854881050637232
 31
0.0
  0
LINE
  5
18E03
  8
0
 10
4477.5434632246769979
 20
460.4854881050637232
 30
0.0
 11
4477.5178325929773564
 21
460.491523195063678
 31
0.0
  0
ARC
  5
18E04
  8
0
 10
4477.4017287128826865
 20
460.5693658774654864
 30
0.0
 40
0.2434515063244283
 50
341.3524260530754759
 51
18.6475740205374088
  0
ARC
  5
18E05
  8
0
 10
4477.6132119767971744
 20
460.6259438161067123
 30
0.0
 40
0.0286419637284693
 50
47.9390992614623315
 51
102.9995224262925007
  0
ARC
  5
18E06
  8
0
 10
4477.6065208883401283
 20
460.1296503535967872
 30
0.0
 40
0.029415899345267
 50
270.4836036365850873
 51
331.6133645731305819
  0
ARC
  5
18E07
  8
0
 10
4477.5437115096156049
 20
460.129650353779823
 30
0.0
 40
0.029415899529073
 50
208.3866360812405958
 51
269.5163961677861266
  0
ARC
  5
18E08
  8
0
 10
4477.5370204201472006
 20
460.6259438199684269
 30
0.0
 40
0.0286419601704993
 50
77.0004740627445443
 51
132.0609049788326956
  0
ARC
  5
18E09
  8
0
 10
4477.7476466040361629
 20
460.5692251975489739
 30
0.0
 40
0.2425944782325955
 50
161.2603454346956084
 51
198.6808170474145072
  0
LINE
  5
18E0A
  8
0
 10
4477.6067691719772483
 20
460.6538517420636936
 30
0.0
 11
4477.5434632276783304
 21
460.6538517415636989
 31
0.0
  0
ARC
  5
18E0B
  8
0
 10
4477.530582920485358
 20
460.1303061039461113
 30
0.0
 40
0.0300706336551425
 50
211.6454777221192103
 51
269.9167098069419808
  0
ARC
  5
18E0C
  8
0
 10
4477.2759622711919292
 20
459.9810536427585248
 30
0.0
 40
0.2650781583437034
 50
30.2340050828651492
 51
32.3476410508917098
  0
ARC
  5
18E0D
  8
0
 10
4477.4700374012509201
 20
460.1045877667477271
 30
0.0
 40
0.0350264975984973
 50
31.4922759394808587
 51
147.5936611193486954
  0
ARC
  5
18E0E
  8
0
 10
4477.334099300725029
 20
460.1217637593024961
 30
0.0
 40
0.0300919557062506
 50
20.0209323520650493
 51
89.8621096523898046
  0
ARC
  5
18E0F
  8
0
 10
4477.947195684721919
 20
460.7535596311175254
 30
0.0
 40
0.100579521092947
 50
93.1472172802926508
 51
135.3567228882751863
  0
ARC
  5
18E10
  8
0
 10
4477.9874681450828575
 20
460.7237958688094182
 30
0.0
 40
0.150316741853255
 50
138.072525131016107
 51
166.3079026732791021
  0
ARC
  5
18E11
  8
0
 10
4477.8126350102038487
 20
460.767481059346494
 30
0.0
 40
0.0299072024974669
 50
270.057807542475075
 51
344.2767291541467785
  0
ARC
  5
18E12
  8
0
 10
4477.7993453448088985
 20
460.7075983481499861
 30
0.0
 40
0.0299755239209283
 50
90.0
 51
172.6630415351532122
  0
ARC
  5
18E13
  8
0
 10
4477.5308661667049819
 20
460.7411788355537965
 30
0.0
 40
0.2405957937960235
 50
342.1531004688600888
 51
352.8965236928370928
  0
ARC
  5
18E14
  8
0
 10
4477.6420077351331201
 20
460.7045182648114974
 30
0.0
 40
0.1235697700878442
 50
318.9207930128371231
 51
342.5399711905801041
  0
ARC
  5
18E15
  8
0
 10
4477.6985245585156008
 20
460.6533380677828973
 30
0.0
 40
0.0473586562747477
 50
219.3338490051384895
 51
320.666150994856423
  0
ARC
  5
18E16
  8
0
 10
4477.7816695701258141
 20
460.7214735379498052
 30
0.0
 40
0.1548553318071548
 50
208.195206598359988
 51
219.3338490051384895
  0
ARC
  5
18E17
  8
0
 10
4477.6197216544578623
 20
460.632844006277594
 30
0.0
 40
0.0297945409830125
 50
31.2664959526806499
 51
90.0547380426109072
  0
LINE
  5
18E18
  8
0
 10
4477.6196931899767151
 20
460.6626385336637099
 30
0.0
 11
4477.5305392071768438
 21
460.6626385336637099
 31
0.0
  0
ARC
  5
18E19
  8
0
 10
4477.530582920485358
 20
460.6325679317812956
 30
0.0
 40
0.0300706336551425
 50
90.083290193058005
 51
148.3545222778807897
  0
ARC
  5
18E1A
  8
0
 10
4477.4700374012509201
 20
460.6582862689796798
 30
0.0
 40
0.0350264975984986
 50
212.4063388806486046
 51
328.5077240605164093
  0
ARC
  5
18E1B
  8
0
 10
4477.3340992539078798
 20
460.6411103180017221
 30
0.0
 40
0.0300919974954283
 50
270.1379791074971877
 51
339.9791096574895732
  0
ARC
  5
18E1C
  8
0
 10
4477.2759622711919292
 20
460.7818203929688821
 30
0.0
 40
0.2650781583437034
 50
327.6523589491083044
 51
329.7659949171347762
  0
LINE
  5
18E1D
  8
0
 10
4477.4404656277765753
 20
460.6395148612637058
 30
0.0
 11
4477.4404656277765753
 21
460.123359174463701
 31
0.0
  0
LINE
  5
18E1E
  8
0
 10
4477.7696152522767079
 20
460.711426354463697
 30
0.0
 11
4477.7696152522767079
 21
460.0514476812637099
 31
0.0
  0
LINE
  5
18E1F
  8
0
 10
4477.8414231378774275
 20
460.7593764639636902
 30
0.0
 11
4477.8414231378774275
 21
460.0034975717637167
 31
0.0
  0
ARC
  5
18E20
  8
0
 10
4477.6065208883401283
 20
460.6332236821305059
 30
0.0
 40
0.0294158993452599
 50
28.3866354268664587
 51
89.516396363466967
  0
ARC
  5
18E21
  8
0
 10
4477.5437115096156049
 20
460.6332236819475838
 30
0.0
 40
0.0294158995290664
 50
90.483603832213845
 51
151.6133639187592905
  0
LINE
  5
18E22
  8
0
 10
4477.9742204601770936
 20
460.8243098567663765
 30
0.0
 11
4477.9742204601770936
 21
459.9385641789609735
 31
0.0
  0
ARC
  5
18E23
  8
0
 10
4477.5494034904004366
 20
460.467440439421182
 30
0.0
 40
0.0397076904825023
 50
98.6037373922990668
 51
142.6630667661524114
  0
ARC
  5
18E24
  8
0
 10
4477.6008293295835756
 20
460.4674411504421982
 30
0.0
 40
0.0397069237002224
 50
37.3364868389263478
 51
81.39671723540377
  0
LINE
  5
18E25
  8
0
 10
4477.5434632262758896
 20
460.5067012843637144
 30
0.0
 11
4477.606769167577113
 21
460.5067012845636896
 31
0.0
  0
LINE
  5
18E26
  8
0
 10
4477.5179125076783748
 20
460.2713696477636063
 30
0.0
 11
4477.5434632262758896
 21
460.2773859316636731
 31
0.0
  0
LINE
  5
18E27
  8
0
 10
4477.5434632262758896
 20
460.2773859316636731
 30
0.0
 11
4477.6067691674770685
 21
460.2773859316636731
 31
0.0
  0
LINE
  5
18E28
  8
0
 10
4477.6067691674770685
 20
460.2773859316636731
 30
0.0
 11
4477.6323998048774229
 21
460.2713508407637164
 31
0.0
  0
LINE
  5
18E29
  8
0
 10
4477.5434632262758896
 20
460.1090222937637009
 30
0.0
 11
4477.6067691674770685
 21
460.1090222937637009
 31
0.0
  0
ARC
  5
18E2A
  8
0
 10
4477.537020418973043
 20
460.1369302132026178
 30
0.0
 40
0.028641957568474
 50
227.9390937534334967
 51
282.9995252350515784
  0
ARC
  5
18E2B
  8
0
 10
4477.6132119752573999
 20
460.136930222851106
 30
0.0
 40
0.0286419670770284
 50
257.0004781757397723
 51
312.0608991130962977
  0
ARC
  5
18E2C
  8
0
 10
4476.8268445829753546
 20
460.4624785660492989
 30
0.0
 40
0.1555526639809032
 50
81.7039996626874228
 51
98.2960003373126057
  0
ARC
  5
18E2D
  8
0
 10
4477.0413891382131624
 20
460.3743786979150059
 30
0.0
 40
0.3763401122312913
 50
161.8101986628171005
 51
198.1898013371828995
  0
ARC
  5
18E2E
  8
0
 10
4476.9232226373851518
 20
460.4109793352171778
 30
0.0
 40
0.2526620634501421
 50
144.1775264656886861
 51
161.3303679192395919
  0
ARC
  5
18E2F
  8
0
 10
4476.8529408492859147
 20
460.4605865956341972
 30
0.0
 40
0.1666437408614626
 50
125.5849472708539025
 51
143.8643175625651907
  0
ARC
  5
18E30
  8
0
 10
4476.8252239737257696
 20
460.4987684152641236
 30
0.0
 40
0.1194639627226266
 50
100.0384455167018984
 51
125.4302768496338985
  0
ARC
  5
18E31
  8
0
 10
4476.8203102001016305
 20
460.2666920146826897
 30
0.0
 40
0.1237430428358932
 50
256.4810468531902075
 51
283.5189531468099062
  0
ARC
  5
18E32
  8
0
 10
4476.8247777897777269
 20
460.2751607394470739
 30
0.0
 40
0.1330425027353041
 50
231.051167307279087
 51
255.4628770334419983
  0
ARC
  5
18E33
  8
0
 10
4476.8405730862014025
 20
460.2947359694239822
 30
0.0
 40
0.1581956463442188
 50
212.6022151199032066
 51
231.0589100050972888
  0
ARC
  5
18E34
  8
0
 10
4476.9100024625759033
 20
460.3392754959821218
 30
0.0
 40
0.2406832173973399
 50
200.0148988516741895
 51
212.6290491829614098
  0
ARC
  5
18E35
  8
0
 10
4476.8754867291881965
 20
460.9370108034793816
 30
0.0
 40
0.3216758761433844
 50
265.3285480894841726
 51
268.13823851501229
  0
ARC
  5
18E36
  8
0
 10
4477.4027216766389756
 20
492.3103267278440853
 30
0.0
 40
31.6993824398508686
 50
269.0281011569459224
 51
269.8760977060837263
  0
ARC
  5
18E37
  8
0
 10
4476.8829184037031155
 20
459.7653046187288055
 30
0.0
 40
0.3825585060967809
 50
90.4455848536644851
 51
95.0509667842498658
  0
ARC
  5
18E38
  8
0
 10
4477.4318040184125493
 20
423.3100806645405783
 30
0.0
 40
36.8419043280013412
 50
90.1518359386162302
 51
90.8582746424803531
  0
LINE
  5
18E39
  8
0
 10
4477.7993453448088985
 20
460.7375738720709819
 30
0.0
 11
4477.8126651845313972
 21
460.7375738720709819
 31
0.0
  0
LINE
  5
18E3A
  8
0
 10
4477.7993453448088985
 20
460.0253001636564818
 30
0.0
 11
4477.8126651845313972
 21
460.0253001636564818
 31
0.0
  0
ARC
  5
18E3B
  8
0
 10
4477.4033886931983943
 20
460.6218447770381772
 30
0.0
 40
0.0410722650254388
 50
25.4814830907322012
 51
154.5185169092677882
  0
ARC
  5
18E3C
  8
0
 10
4477.4033886931983943
 20
460.1410292586891728
 30
0.0
 40
0.0410722650254388
 50
205.4814830907322118
 51
334.5185169092707724
  0
ARC
  5
18E3D
  8
0
 10
4477.4299463038305475
 20
460.6054819749763283
 30
0.0
 40
0.0721636521627744
 50
151.8613364567978863
 51
159.4544568479786051
  0
ARC
  5
18E3E
  8
0
 10
4477.4299428596350481
 20
460.157390362979811
 30
0.0
 40
0.0721598143589404
 50
200.545204917206604
 51
208.1387645397622066
  0
LINE
  5
18E40
  8
0
 10
4477.3623727274771227
 20
460.6308079393637058
 30
0.0
 11
4477.3623727274771227
 21
460.132066144363705
 31
0.0
  0
ENDSEC
  0
EOF
