  0
SECTION
  2
HEADER
  9
$ACADVER
  1
AC1009
  9
$INSBASE
 10
3398.2855497421201107
 20
44.7670909384582387
 30
0.0
  9
$EXTMIN
 10
3374.1183215838600518
 20
34.0400794958929822
 30
0.0
  9
$EXTMAX
 10
3400.6775399963748896
 20
49.3256087719257934
 30
0.0
  9
$LIMMIN
 10
0.0
 20
0.0
  9
$LIMMAX
 10
11.6929133858000007
 20
8.2677165353999982
  9
$ORTHOMODE
 70
     1
  9
$REGENMODE
 70
     1
  9
$FILLMODE
 70
     1
  9
$QTEXTMODE
 70
     0
  9
$MIRRTEXT
 70
     0
  9
$DRAGMODE
 70
     2
  9
$LTSCALE
 40
0.6431102362
  9
$OSMODE
 70
  4095
  9
$ATTMODE
 70
     1
  9
$TEXTSIZE
 40
0.2
  9
$TRACEWID
 40
0.05
  9
$TEXTSTYLE
  7
STANDARD
  9
$CLAYER
  8
0
  9
$CELTYPE
  6
BYLAYER
  9
$CECOLOR
 62
   256
  9
$DIMSCALE
 40
1.0
  9
$DIMASZ
 40
0.1875
  9
$DIMEXO
 40
0.0625
  9
$DIMDLI
 40
0.4443307087
  9
$DIMRND
 40
0.0
  9
$DIMDLE
 40
0.0
  9
$DIMEXE
 40
0.125
  9
$DIMTP
 40
0.01
  9
$DIMTM
 40
0.01
  9
$DIMTXT
 40
2.0
  9
$DIMCEN
 40
0.1052362205
  9
$DIMTSZ
 40
0.0
  9
$DIMTOL
 70
     1
  9
$DIMLIM
 70
     0
  9
$DIMTIH
 70
     1
  9
$DIMTOH
 70
     1
  9
$DIMSE1
 70
     0
  9
$DIMSE2
 70
     0
  9
$DIMTAD
 70
     0
  9
$DIMZIN
 70
     0
  9
$DIMBLK
  1

  9
$DIMASO
 70
     1
  9
$DIMSHO
 70
     1
  9
$DIMPOST
  1
\X
  9
$DIMAPOST
  1

  9
$DIMALT
 70
     1
  9
$DIMALTD
 70
     2
  9
$DIMALTF
 40
25.3999999999999986
  9
$DIMLFAC
 40
1.0
  9
$DIMTOFL
 70
     0
  9
$DIMTVP
 40
0.0
  9
$DIMTIX
 70
     0
  9
$DIMSOXD
 70
     0
  9
$DIMSAH
 70
     0
  9
$DIMBLK1
  1

  9
$DIMBLK2
  1

  9
$DIMSTYLE
  2
STANDARD
  9
$DIMCLRD
 70
     0
  9
$DIMCLRE
 70
     0
  9
$DIMCLRT
 70
     0
  9
$DIMTFAC
 40
1.0
  9
$DIMGAP
 40
0.09
  9
$LUNITS
 70
     2
  9
$LUPREC
 70
     4
  9
$SKETCHINC
 40
0.1
  9
$FILLETRAD
 40
0.0
  9
$AUNITS
 70
     0
  9
$AUPREC
 70
     0
  9
$MENU
  1
.
  9
$ELEVATION
 40
0.0
  9
$PELEVATION
 40
0.0
  9
$THICKNESS
 40
0.0
  9
$LIMCHECK
 70
     0
  9
$BLIPMODE
 70
     0
  9
$CHAMFERA
 40
0.0
  9
$CHAMFERB
 40
0.0
  9
$SKPOLY
 70
     0
  9
$TDCREATE
 40
2458060.468368056230247
  9
$TDUPDATE
 40
2459979.671736110933125
  9
$TDINDWG
 40
0.3282362269
  9
$TDUSRTIMER
 40
0.3282362269
  9
$USRTIMER
 70
     1
  9
$ANGBASE
 50
0.0
  9
$ANGDIR
 70
     0
  9
$PDMODE
 70
     0
  9
$PDSIZE
 40
0.3125
  9
$PLINEWID
 40
0.0
  9
$COORDS
 70
     1
  9
$SPLFRAME
 70
     0
  9
$SPLINETYPE
 70
     6
  9
$SPLINESEGS
 70
     8
  9
$ATTDIA
 70
     1
  9
$ATTREQ
 70
     1
  9
$HANDLING
 70
     1
  9
$HANDSEED
  5
8EFE
  9
$SURFTAB1
 70
     6
  9
$SURFTAB2
 70
     6
  9
$SURFTYPE
 70
     6
  9
$SURFU
 70
     6
  9
$SURFV
 70
     6
  9
$UCSNAME
  2

  9
$UCSORG
 10
0.0
 20
0.0
 30
0.0
  9
$UCSXDIR
 10
1.0
 20
0.0
 30
0.0
  9
$UCSYDIR
 10
0.0
 20
1.0
 30
0.0
  9
$PUCSNAME
  2

  9
$PUCSORG
 10
0.0
 20
0.0
 30
0.0
  9
$PUCSXDIR
 10
1.0
 20
0.0
 30
0.0
  9
$PUCSYDIR
 10
0.0
 20
1.0
 30
0.0
  9
$USERI1
 70
     0
  9
$USERI2
 70
     0
  9
$USERI3
 70
     0
  9
$USERI4
 70
     0
  9
$USERI5
 70
     0
  9
$USERR1
 40
0.0
  9
$USERR2
 40
0.0
  9
$USERR3
 40
0.0
  9
$USERR4
 40
0.0
  9
$USERR5
 40
0.0
  9
$WORLDVIEW
 70
     1
  9
$SHADEDGE
 70
     3
  9
$SHADEDIF
 70
    70
  9
$TILEMODE
 70
     1
  9
$MAXACTVP
 70
    64
  9
$PLIMCHECK
 70
     0
  9
$PEXTMIN
 10
1.0000000000000000E+20
 20
1.0000000000000000E+20
 30
1.0000000000000000E+20
  9
$PEXTMAX
 10
-1.0000000000000000E+20
 20
-1.0000000000000000E+20
 30
-1.0000000000000000E+20
  9
$PLIMMIN
 10
0.0
 20
0.0
  9
$PLIMMAX
 10
12.0
 20
9.0
  9
$UNITMODE
 70
     0
  9
$VISRETAIN
 70
     1
  9
$PLINEGEN
 70
     0
  9
$PSLTSCALE
 70
     1
  0
ENDSEC
  0
SECTION
  2
TABLES
  0
TABLE
  2
VPORT
 70
     1
  0
VPORT
  2
*ACTIVE
 70
     0
 10
0.0
 20
0.0
 11
1.0
 21
1.0
 12
401.2944845919568024
 22
-12.5987319479404807
 13
0.0
 23
0.0
 14
1.0
 24
1.0
 15
0.0
 25
0.0
 16
0.0
 26
0.0
 36
238.8063968625259008
 17
3002.96630859375
 27
54.8220901489257813
 37
0.0
 40
13.3476701282196508
 41
2.8493975903614448
 42
50.0
 43
0.0
 44
0.0
 50
0.0
 51
0.0
 71
     0
 72
   100
 73
     1
 74
     1
 75
     0
 76
     0
 77
     0
 78
     0
  0
ENDTAB
  0
TABLE
  2
LTYPE
 70
     2
  0
LTYPE
  2
CONTINUOUS
 70
     0
  3
Solid line
 72
    65
 73
     0
 40
0.0
  0
LTYPE
  2
PHANTOM2
 70
     0
  3
___ _ _ ___ _ _ ___ _ _ ___ _ _
 72
    65
 73
     6
 40
1.25
 49
0.625
 49
-0.125
 49
0.125
 49
-0.125
 49
0.125
 49
-0.125
  0
ENDTAB
  0
TABLE
  2
LAYER
 70
     2
  0
LAYER
  2
0
 70
     0
 62
   255
  6
CONTINUOUS
  0
LAYER
  2
DEFPOINTS
 70
     0
 62
     7
  6
CONTINUOUS
  0
ENDTAB
  0
TABLE
  2
STYLE
 70
     1
  0
STYLE
  2
STANDARD
 70
     0
 40
0.0
 41
0.8
 50
0.0
 71
     0
 42
0.2
  3
txt
  4

  0
ENDTAB
  0
TABLE
  2
VIEW
 70
     0
  0
ENDTAB
  0
TABLE
  2
UCS
 70
     0
  0
ENDTAB
  0
TABLE
  2
APPID
 70
     9
  0
APPID
  2
ACAD
 70
     0
  0
APPID
  2
ACAD_MLEADERVER
 70
     0
  0
APPID
  2
ACAD_EXEMPT_FROM_CAD_STANDARDS
 70
     0
  0
APPID
  2
ACAD_NAV_VCDISPLAY
 70
     0
  0
APPID
  2
ACAECLAYERSTANDARD
 70
     0
  0
APPID
  2
ACCMTRANSPARENCY
 70
     0
  0
APPID
  2
ACAD_DSTYLE_DIMJAG
 70
     0
  0
APPID
  2
ACAD_DSTYLE_DIMTALN
 70
     0
  0
APPID
  2
ACDBATTR
 70
     0
  0
ENDTAB
  0
TABLE
  2
DIMSTYLE
 70
     1
  0
DIMSTYLE
  2
STANDARD
 70
     0
  3

  4

  5

  6

  7

 40
1.0
 41
0.1875
 42
0.0625
 43
0.38
 44
0.125
 45
0.0
 46
0.0
 47
0.01
 48
0.01
140
0.15625
141
0.09
142
0.0
143
25.3999999999999986
144
1.0
145
0.0
146
1.0
147
0.09
 71
     1
 72
     0
 73
     1
 74
     1
 75
     0
 76
     0
 77
     0
 78
     4
170
     0
171
     2
172
     0
173
     0
174
     0
175
     0
176
     0
177
     0
178
     0
  0
ENDTAB
  0
ENDSEC
  0
SECTION
  2
BLOCKS
  0
BLOCK
  8
0
  2
$MODEL_SPACE
 70
     0
 10
0.0
 20
0.0
 30
0.0
  3
$MODEL_SPACE
  1

  0
ENDBLK
  5
21
  8
0
  0
BLOCK
 67
     1
  8
0
  2
$PAPER_SPACE
 70
     0
 10
0.0
 20
0.0
 30
0.0
  3
$PAPER_SPACE
  1

  0
ENDBLK
  5
1D
 67
     1
  8
0
  0
BLOCK
  8
0
  2
_FILLED
 70
     0
 10
0.0
 20
0.0
 30
0.0
  3
_FILLED
  1

  0
SOLID
  5
5CF5
  8
0
  6
BYBLOCK
 62
     0
 10
0.0
 20
0.0
 30
0.0
 11
-1.0
 21
0.1666666667
 31
0.0
 12
-1.0
 22
-0.1666666667
 32
0.0
 13
-1.0
 23
-0.1666666667
 33
0.0
  0
ENDBLK
  5
5CF6
  8
0
  6
BYBLOCK
 62
     0
  0
ENDSEC
  0
SECTION
  2
ENTITIES
  0
ATTDEF
  5
3930
  8
DEFPOINTS
 10
3398.276672602796225
 20
44.7713276399248628
 30
0.0
 40
0.001
  1
K-72595-G
  3

  2
MODELNUMBER
 70
     0
1001
ACDBATTR
1070
     0
1070
     1
  0
ATTDEF
  5
3931
  8
DEFPOINTS
 10
3398.276672602796225
 20
44.7696609732581976
 30
0.0
 40
0.001
  1
EXHALE
  3

  2
TRADENAME
 70
     0
1001
ACDBATTR
1070
     0
1070
     1
  0
ATTDEF
  5
3932
  8
DEFPOINTS
 10
3398.276672602796225
 20
44.7679943065915324
 30
0.0
 40
0.001
  1
HANDSHOWER
  3

  2
PRODUCT
 70
     0
1001
ACDBATTR
1070
     0
1070
     1
  0
LINE
  5
8C9F
  8
0
 10
3397.7225707241527743
 20
43.5070074210096394
 30
0.0
 11
3397.7225707241527743
 21
44.8294045345099619
 31
0.0
  0
ARC
  5
8CA0
  8
0
 10
3398.247743588162848
 20
43.0449617235966926
 30
0.0
 40
0.7578828267767924
 50
92.8593238443560836
 51
125.8533299824161986
  0
ARC
  5
8CA1
  8
0
 10
3397.9424737531571736
 20
43.4874194974364983
 30
0.0
 40
0.2207737052160085
 50
128.8979201256690033
 51
174.9097966890857947
  0
ARC
  5
8CA2
  8
0
 10
3397.9506570914049917
 20
43.5262000131900635
 30
0.0
 40
0.2288924343892773
 50
184.8098889809934064
 51
237.3811194909908977
  0
ARC
  5
8CA3
  8
0
 10
3398.2561554710750897
 20
44.0056066660991405
 30
0.0
 40
0.7973637575747662
 50
237.4608646514872987
 51
267.88735269753181
  0
ARC
  5
8CA4
  8
0
 10
3398.2808608210439161
 20
44.7427862441877835
 30
0.0
 40
0.5649695217485209
 50
90.4755276188005979
 51
171.1809163840042913
  0
ARC
  5
8CA5
  8
0
 10
3398.2374489003200324
 20
39.5752105732098869
 30
0.0
 40
4.4724056327997568
 50
96.6107378942573547
 51
99.2035041272993539
  0
ARC
  5
8CA6
  8
0
 10
3397.9807405518067753
 20
40.7856627985095201
 30
0.0
 40
3.2370302969800209
 50
98.1449422805624749
 51
114.053948917369496
  0
ARC
  5
8CA7
  8
0
 10
3397.3384481708831117
 20
42.1687482128492803
 30
0.0
 40
1.7124044055520891
 50
113.2918560784575988
 51
133.1840600696858985
  0
ARC
  5
8CA8
  8
0
 10
3396.6999143077568988
 20
42.8129704294748734
 30
0.0
 40
0.8060661849999776
 50
131.4264586477142132
 51
177.1060018471042952
  0
ARC
  5
8CA9
  8
0
 10
3396.5605161839439461
 20
42.8092077450665798
 30
0.0
 40
0.6671231729056286
 50
176.1787602010776084
 51
178.7199688279800966
  0
ARC
  5
8CAA
  8
0
 10
3396.5605161839439461
 20
42.8092077450665798
 30
0.0
 40
0.6671231729056286
 50
181.2800311720197897
 51
187.4838589872736065
  0
ARC
  5
8CAB
  8
0
 10
3396.732770211944171
 20
42.8686442906409724
 30
0.0
 40
0.8464384068308071
 50
189.9549662939031123
 51
227.425839158035501
  0
ARC
  5
8CAC
  8
0
 10
3397.6366907727087892
 20
43.9029580355809799
 30
0.0
 40
2.219913436452237
 50
228.306238204630489
 51
257.7511029732260113
  0
ARC
  5
8CAD
  8
0
 10
3398.2659700892750152
 20
46.0207331377295219
 30
0.0
 40
4.4260858245260311
 50
255.6062702444010029
 51
269.7465401314561859
  0
ARC
  5
8CAE
  8
0
 10
3398.2359039267857952
 20
46.2031176156236683
 30
0.0
 40
4.214770548980125
 50
249.990463945192289
 51
269.3250969568205164
  0
ARC
  5
8CAF
  8
0
 10
3397.4866245158741549
 20
44.0643952226510507
 30
0.0
 40
1.9489627030392589
 50
233.7590728372917113
 51
249.1740234388373096
  0
ARC
  5
8CB0
  8
0
 10
3396.836337658067805
 20
43.1949252815023002
 30
0.0
 40
0.8633275556901965
 50
205.4783738214077005
 51
234.4536974760451074
  0
ARC
  5
8CB1
  8
0
 10
3396.4979650805248639
 20
43.0188590720744415
 30
0.0
 40
0.4823097940402841
 50
165.5515797965134936
 51
203.8880443738266024
  0
ARC
  5
8CB2
  8
0
 10
3396.8014331554281853
 20
42.9046445792525191
 30
0.0
 40
0.805433245050559
 50
133.9916869493899867
 51
163.0692475684593887
  0
ARC
  5
8CB3
  8
0
 10
3398.1755554188612223
 20
41.4069589562250187
 30
0.0
 40
2.473972610423929
 50
100.5503856705979047
 51
106.1481642344196956
  0
ARC
  5
8CB4
  8
0
 10
3397.8785104213698105
 20
42.3342265346209814
 30
0.0
 40
1.500925613624104
 50
105.1009426924279069
 51
123.6979625608064026
  0
ARC
  5
8CB5
  8
0
 10
3397.3324140694908237
 20
43.1244158211989017
 30
0.0
 40
0.5407610899311531
 50
122.0099628447974993
 51
160.879285978427788
  0
ARC
  5
8CB6
  8
0
 10
3397.1221999136578233
 20
43.2202787962567569
 30
0.0
 40
0.3115014243285161
 50
164.8769594899355013
 51
207.6830857596746114
  0
ARC
  5
8CB7
  8
0
 10
3397.4604564209280397
 20
43.4464589896775379
 30
0.0
 40
0.7174152853401856
 50
211.1306742216187899
 51
240.8555360530168912
  0
ARC
  5
8CB8
  8
0
 10
3397.9628884953322085
 20
44.3326944858658081
 30
0.0
 40
1.736154626658831
 50
240.6174971454474019
 51
253.8788547125330979
  0
ARC
  5
8CB9
  8
0
 10
3398.2739911178641705
 20
45.525387482433878
 30
0.0
 40
2.9685064593721662
 50
254.5023941613941929
 51
269.7769039517459078
  0
ARC
  5
8CBA
  8
0
 10
3398.1789818228071454
 20
41.4517361920986929
 30
0.0
 40
2.4293092184606739
 50
100.828908692329307
 51
105.3581325287897954
  0
ARC
  5
8CBB
  8
0
 10
3398.0494250502179057
 20
41.9131870693001076
 30
0.0
 40
1.9500256992691201
 50
105.2783833438042933
 51
110.8513306320495957
  0
ARC
  5
8CBC
  8
0
 10
3397.814537919086888
 20
42.491393511191589
 30
0.0
 40
1.3261516054753399
 50
110.2596593953931006
 51
122.7104344306574006
  0
ARC
  5
8CBD
  8
0
 10
3397.4385831431291081
 20
43.0500196805710189
 30
0.0
 40
0.6531130709190814
 50
121.4422327181462009
 51
149.8012249672929102
  0
ARC
  5
8CBE
  8
0
 10
3397.1777655129458253
 20
43.2181716225895798
 30
0.0
 40
0.3434027107438725
 50
152.1610520045045973
 51
178.2227581665364085
  0
ARC
  5
8CBF
  8
0
 10
3397.1498184324418617
 20
43.2241967088348602
 30
0.0
 40
0.3153243611346894
 50
179.1595660806968908
 51
202.9633605773339013
  0
ARC
  5
8CC0
  8
0
 10
3397.378471959530998
 20
43.3487727172720696
 30
0.0
 40
0.575026046955343
 50
205.5046718740678102
 51
236.9084019618435093
  0
ARC
  5
8CC1
  8
0
 10
3397.9203748080808509
 20
44.1645327885289589
 30
0.0
 40
1.5543603707755169
 50
236.5907444850419949
 51
256.4696236953757875
  0
ARC
  5
8CC2
  8
0
 10
3398.2581842413251252
 20
45.397058190266911
 30
0.0
 40
2.8319959743600789
 50
255.6588928389222133
 51
267.5025699275615239
  0
ARC
  5
8CC3
  8
0
 10
3398.2867579070621105
 20
45.8044812148321583
 30
0.0
 40
3.2402950804585648
 50
267.3117205649793959
 51
269.97863689817882
  0
LINE
  5
8CC4
  8
0
 10
3398.8485287600869924
 20
43.5070074210096394
 30
0.0
 11
3398.8485287600869924
 21
44.8294045345099619
 31
0.0
  0
ARC
  5
8CC5
  8
0
 10
3398.3233558960778282
 20
43.0449617235966926
 30
0.0
 40
0.7578828267767924
 50
54.1466700175840501
 51
87.1406761556439164
  0
ARC
  5
8CC6
  8
0
 10
3398.6286257310839574
 20
43.4874194974364983
 30
0.0
 40
0.2207737052160085
 50
5.0902033109142231
 51
51.1020798743310323
  0
ARC
  5
8CC7
  8
0
 10
3398.6204423928361393
 20
43.5262000131900635
 30
0.0
 40
0.2288924343892773
 50
302.6188805090091023
 51
355.1901110190065083
  0
ARC
  5
8CC8
  8
0
 10
3398.3149440131651318
 20
44.0056066660991405
 30
0.0
 40
0.7973637575747662
 50
272.11264730246819
 51
302.5391353485123886
  0
ARC
  5
8CC9
  8
0
 10
3398.2902386631972149
 20
44.7427862441877835
 30
0.0
 40
0.5649695217485209
 50
8.8190836159956998
 51
89.5244723811994021
  0
ARC
  5
8CCA
  8
0
 10
3398.3336505839210986
 20
39.5752105732098869
 30
0.0
 40
4.4724056327997568
 50
80.7964958727006746
 51
83.3892621057426595
  0
ARC
  5
8CCB
  8
0
 10
3398.5903589324329914
 20
40.7856627985095201
 30
0.0
 40
3.2370302969800209
 50
65.9460510826304471
 51
81.8550577194375393
  0
ARC
  5
8CCC
  8
0
 10
3399.2326513133571098
 20
42.1687482128492803
 30
0.0
 40
1.7124044055520891
 50
46.8159399303140802
 51
66.7081439215424297
  0
ARC
  5
8CCD
  8
0
 10
3399.871185176482868
 20
42.8129704294748734
 30
0.0
 40
0.8060661849999776
 50
2.893998152895302
 51
48.5735413522857726
  0
ARC
  5
8CCE
  8
0
 10
3400.0105833002971849
 20
42.8092077450665798
 30
0.0
 40
0.6671231729056286
 50
352.5161410127262798
 51
358.7199688279800966
  0
ARC
  5
8CCF
  8
0
 10
3400.0105833002971849
 20
42.8092077450665798
 30
0.0
 40
0.6671231729056286
 50
1.2800311720198849
 51
3.821239798922405
  0
ARC
  5
8CD0
  8
0
 10
3399.8383292722960505
 20
42.8686442906409724
 30
0.0
 40
0.8464384068308071
 50
312.574160841964499
 51
350.0450337060968877
  0
ARC
  5
8CD1
  8
0
 10
3398.9344087115318871
 20
43.9029580355809799
 30
0.0
 40
2.219913436452237
 50
282.248897026773875
 51
311.6937617953694257
  0
ARC
  5
8CD2
  8
0
 10
3398.3051293949652063
 20
46.0207331377295219
 30
0.0
 40
4.4260858245260311
 50
270.2534598685438141
 51
284.3937297555988835
  0
ARC
  5
8CD3
  8
0
 10
3398.3351955574539716
 20
46.2031176156236683
 30
0.0
 40
4.214770548980125
 50
270.6749030431794836
 51
290.009536054807711
  0
ARC
  5
8CD4
  8
0
 10
3399.0844749683660666
 20
44.0643952226510507
 30
0.0
 40
1.9489627030392589
 50
290.8259765611625767
 51
306.2409271627083172
  0
ARC
  5
8CD5
  8
0
 10
3399.7347618261728712
 20
43.1949252815023002
 30
0.0
 40
0.8633275556901965
 50
305.5463025239548074
 51
334.5216261785918732
  0
ARC
  5
8CD6
  8
0
 10
3400.0731344037158124
 20
43.0188590720744415
 30
0.0
 40
0.4823097940402841
 50
336.111955626173426
 51
14.4484202034864797
  0
ARC
  5
8CD7
  8
0
 10
3399.7696663288129457
 20
42.9046445792525191
 30
0.0
 40
0.805433245050559
 50
16.930752431540629
 51
46.0083130506099778
  0
ARC
  5
8CD8
  8
0
 10
3398.3955440653799087
 20
41.4069589562250187
 30
0.0
 40
2.473972610423929
 50
73.8518357655802618
 51
79.4496143294020669
  0
ARC
  5
8CD9
  8
0
 10
3398.6925890628699563
 20
42.3342265346209814
 30
0.0
 40
1.500925613624104
 50
56.3020374391935903
 51
74.8990573075721215
  0
ARC
  5
8CDA
  8
0
 10
3399.2386854147498525
 20
43.1244158211989017
 30
0.0
 40
0.5407610899311531
 50
19.1207140215725389
 51
57.9900371552024581
  0
ARC
  5
8CDB
  8
0
 10
3399.4488995705828529
 20
43.2202787962567569
 30
0.0
 40
0.3115014243285161
 50
332.3169142403249907
 51
15.1230405100648895
  0
ARC
  5
8CDC
  8
0
 10
3399.1106430633130913
 20
43.4464589896775379
 30
0.0
 40
0.7174152853401856
 50
299.1444639469830804
 51
328.8693257783808122
  0
ARC
  5
8CDD
  8
0
 10
3398.6082109889089224
 20
44.3326944858658081
 30
0.0
 40
1.736154626658831
 50
286.1211452874669021
 51
299.3825028545526266
  0
ARC
  5
8CDE
  8
0
 10
3398.2971083663769605
 20
45.525387482433878
 30
0.0
 40
2.9685064593721662
 50
270.2230960482540922
 51
285.4976058386056934
  0
ARC
  5
8CDF
  8
0
 10
3398.3921176614339856
 20
41.4517361920986929
 30
0.0
 40
2.4293092184606739
 50
74.641867471210233
 51
79.171091307670693
  0
ARC
  5
8CE0
  8
0
 10
3398.5216744340232253
 20
41.9131870693001076
 30
0.0
 40
1.9500256992691201
 50
69.1486693679504043
 51
74.7216166561956783
  0
ARC
  5
8CE1
  8
0
 10
3398.7565615651537883
 20
42.491393511191589
 30
0.0
 40
1.3261516054753399
 50
57.2895655693425923
 51
69.7403406046069136
  0
ARC
  5
8CE2
  8
0
 10
3399.1325163411120229
 20
43.0500196805710189
 30
0.0
 40
0.6531130709190814
 50
30.1987750327071005
 51
58.5577672818538204
  0
ARC
  5
8CE3
  8
0
 10
3399.3933339712939414
 20
43.2181716225895798
 30
0.0
 40
0.3434027107438725
 50
1.7772418334636011
 51
27.8389479954954417
  0
ARC
  5
8CE4
  8
0
 10
3399.4212810517988146
 20
43.2241967088348602
 30
0.0
 40
0.3153243611346894
 50
337.0366394226662123
 51
0.8404339193030667
  0
ARC
  5
8CE5
  8
0
 10
3399.1926275247110425
 20
43.3487727172720696
 30
0.0
 40
0.575026046955343
 50
303.0915980381565191
 51
334.4953281259320761
  0
ARC
  5
8CE6
  8
0
 10
3398.6507246761598253
 20
44.1645327885289589
 30
0.0
 40
1.5543603707755169
 50
283.5303763046240988
 51
303.4092555149579766
  0
ARC
  5
8CE7
  8
0
 10
3398.3129152429150963
 20
45.397058190266911
 30
0.0
 40
2.8319959743600789
 50
272.4974300724384761
 51
284.3411071610777867
  0
ARC
  5
8CE8
  8
0
 10
3398.2843415771790205
 20
45.8044812148321583
 30
0.0
 40
3.2402950804585648
 50
270.02136310182118
 51
272.6882794350204904
  0
LINE
  5
8CE9
  8
0
 10
3398.2761718975430085
 20
45.3077363079112487
 30
0.0
 11
3398.2949275866981225
 21
45.3077363079112487
 31
0.0
  0
LINE
  5
8CEA
  8
0
 10
3398.3247090478098471
 20
41.5946906206196019
 30
0.0
 11
3398.2463904364299196
 21
41.5946906206196019
 31
0.0
  0
LINE
  5
8CEC
  8
0
 10
3395.8935594878657867
 20
42.8241105429886488
 30
0.0
 11
3395.8935594878657867
 21
42.794304947144532
 31
0.0
  0
LINE
  5
8CED
  8
0
 10
3400.6775399963748896
 20
42.8241105429886488
 30
0.0
 11
3400.6775399963748896
 21
42.794304947144532
 31
0.0
  0
LINE
  5
8CEE
  8
0
 10
3398.3848413727878324
 20
41.9886394660101132
 30
0.0
 11
3398.1862581114528439
 21
41.9886394660101132
 31
0.0
  0
LINE
  5
8CEF
  8
0
 10
3398.2624324936091398
 20
42.556903526347952
 30
0.0
 11
3398.3086669906319912
 21
42.556903526347952
 31
0.0
  0
LINE
  5
8CF0
  8
0
 10
3398.2267612169907807
 20
43.208784891973572
 30
0.0
 11
3398.3443382672489861
 21
43.208784891973572
 31
0.0
  0
LINE
  5
8CF1
  8
0
 10
3398.3611620500360004
 20
43.8019010037547076
 30
0.0
 11
3398.2099374342060401
 21
43.8019010037547076
 31
0.0
  0
LINE
  5
8CF2
  8
0
 10
3396.8346088184061955
 20
43.21569071421888
 30
0.0
 11
3396.8320394003690126
 21
43.1069650111898923
 31
0.0
  0
LINE
  5
8CF3
  8
0
 10
3399.7364906658349355
 20
43.2156907142189084
 30
0.0
 11
3399.7390600838730279
 21
43.1069650111898923
 31
0.0
  0
ENDSEC
  0
EOF
