  0
SECTION
  2
HEADER
  9
$ACADVER
  1
AC1009
  9
$INSBASE
 10
1709.7538554020870833
 20
150.5837982267293
 30
0.0
  9
$EXTMIN
 10
1707.3356108430839413
 20
147.5201641922938904
 30
-0.0000000349181948
  9
$EXTMAX
 10
1712.1491826833118921
 20
151.20943234821641
 30
0.0000000814935746
  9
$LIMMIN
 10
0.0
 20
0.0
  9
$LIMMAX
 10
11.6929133858000007
 20
8.2677165353999982
  9
$ORTHOMODE
 70
     0
  9
$REGENMODE
 70
     1
  9
$FILLMODE
 70
     1
  9
$QTEXTMODE
 70
     0
  9
$MIRRTEXT
 70
     0
  9
$DRAGMODE
 70
     2
  9
$LTSCALE
 40
0.6431102362
  9
$OSMODE
 70
  4095
  9
$ATTMODE
 70
     1
  9
$TEXTSIZE
 40
0.2
  9
$TRACEWID
 40
0.05
  9
$TEXTSTYLE
  7
STANDARD
  9
$CLAYER
  8
0
  9
$CELTYPE
  6
BYLAYER
  9
$CECOLOR
 62
   256
  9
$DIMSCALE
 40
1.0
  9
$DIMASZ
 40
0.1875
  9
$DIMEXO
 40
0.0625
  9
$DIMDLI
 40
0.4443307087
  9
$DIMRND
 40
0.0
  9
$DIMDLE
 40
0.0
  9
$DIMEXE
 40
0.125
  9
$DIMTP
 40
0.01
  9
$DIMTM
 40
0.01
  9
$DIMTXT
 40
2.0
  9
$DIMCEN
 40
0.1052362205
  9
$DIMTSZ
 40
0.0
  9
$DIMTOL
 70
     1
  9
$DIMLIM
 70
     0
  9
$DIMTIH
 70
     1
  9
$DIMTOH
 70
     1
  9
$DIMSE1
 70
     0
  9
$DIMSE2
 70
     0
  9
$DIMTAD
 70
     0
  9
$DIMZIN
 70
     0
  9
$DIMBLK
  1

  9
$DIMASO
 70
     1
  9
$DIMSHO
 70
     1
  9
$DIMPOST
  1
\X
  9
$DIMAPOST
  1

  9
$DIMALT
 70
     1
  9
$DIMALTD
 70
     2
  9
$DIMALTF
 40
25.3999999999999986
  9
$DIMLFAC
 40
1.0
  9
$DIMTOFL
 70
     0
  9
$DIMTVP
 40
0.0
  9
$DIMTIX
 70
     0
  9
$DIMSOXD
 70
     0
  9
$DIMSAH
 70
     0
  9
$DIMBLK1
  1

  9
$DIMBLK2
  1

  9
$DIMSTYLE
  2
STANDARD
  9
$DIMCLRD
 70
     0
  9
$DIMCLRE
 70
     0
  9
$DIMCLRT
 70
     0
  9
$DIMTFAC
 40
1.0
  9
$DIMGAP
 40
0.09
  9
$LUNITS
 70
     2
  9
$LUPREC
 70
     4
  9
$SKETCHINC
 40
0.1
  9
$FILLETRAD
 40
0.0
  9
$AUNITS
 70
     0
  9
$AUPREC
 70
     0
  9
$MENU
  1
.
  9
$ELEVATION
 40
0.0
  9
$PELEVATION
 40
0.0
  9
$THICKNESS
 40
0.0
  9
$LIMCHECK
 70
     0
  9
$BLIPMODE
 70
     0
  9
$CHAMFERA
 40
0.0
  9
$CHAMFERB
 40
0.0
  9
$SKPOLY
 70
     0
  9
$TDCREATE
 40
2458060.468368056230247
  9
$TDUPDATE
 40
2459947.4369097221642733
  9
$TDINDWG
 40
0.3142555903
  9
$TDUSRTIMER
 40
0.3142555903
  9
$USRTIMER
 70
     1
  9
$ANGBASE
 50
0.0
  9
$ANGDIR
 70
     0
  9
$PDMODE
 70
     0
  9
$PDSIZE
 40
0.3125
  9
$PLINEWID
 40
0.0
  9
$COORDS
 70
     1
  9
$SPLFRAME
 70
     0
  9
$SPLINETYPE
 70
     6
  9
$SPLINESEGS
 70
     8
  9
$ATTDIA
 70
     1
  9
$ATTREQ
 70
     1
  9
$HANDLING
 70
     1
  9
$HANDSEED
  5
A263
  9
$SURFTAB1
 70
     6
  9
$SURFTAB2
 70
     6
  9
$SURFTYPE
 70
     6
  9
$SURFU
 70
     6
  9
$SURFV
 70
     6
  9
$UCSNAME
  2

  9
$UCSORG
 10
0.0
 20
0.0
 30
0.0
  9
$UCSXDIR
 10
1.0
 20
0.0
 30
0.0
  9
$UCSYDIR
 10
0.0
 20
1.0
 30
0.0
  9
$PUCSNAME
  2

  9
$PUCSORG
 10
0.0
 20
0.0
 30
0.0
  9
$PUCSXDIR
 10
1.0
 20
0.0
 30
0.0
  9
$PUCSYDIR
 10
0.0
 20
1.0
 30
0.0
  9
$USERI1
 70
     0
  9
$USERI2
 70
     0
  9
$USERI3
 70
     0
  9
$USERI4
 70
     0
  9
$USERI5
 70
     0
  9
$USERR1
 40
0.0
  9
$USERR2
 40
0.0
  9
$USERR3
 40
0.0
  9
$USERR4
 40
0.0
  9
$USERR5
 40
0.0
  9
$WORLDVIEW
 70
     1
  9
$SHADEDGE
 70
     3
  9
$SHADEDIF
 70
    70
  9
$TILEMODE
 70
     1
  9
$MAXACTVP
 70
    64
  9
$PLIMCHECK
 70
     0
  9
$PEXTMIN
 10
1.0000000000000000E+20
 20
1.0000000000000000E+20
 30
1.0000000000000000E+20
  9
$PEXTMAX
 10
-1.0000000000000000E+20
 20
-1.0000000000000000E+20
 30
-1.0000000000000000E+20
  9
$PLIMMIN
 10
0.0
 20
0.0
  9
$PLIMMAX
 10
12.0
 20
9.0
  9
$UNITMODE
 70
     0
  9
$VISRETAIN
 70
     1
  9
$PLINEGEN
 70
     0
  9
$PSLTSCALE
 70
     1
  0
ENDSEC
  0
SECTION
  2
TABLES
  0
TABLE
  2
VPORT
 70
     1
  0
VPORT
  2
*ACTIVE
 70
     0
 10
0.0
 20
0.0
 11
1.0
 21
1.0
 12
749.2353005424702133
 22
72.3587290869055835
 13
0.0
 23
0.0
 14
1.0
 24
1.0
 15
0.0
 25
0.0
 16
0.0
 26
0.0
 36
82.6066804857415349
 17
960.5070962207281582
 27
77.0060691833496094
 37
0.0
 40
3.7141676035440692
 41
1.7905405405405399
 42
50.0
 43
0.0
 44
0.0
 50
0.0
 51
0.0
 71
     0
 72
   100
 73
     1
 74
     1
 75
     0
 76
     0
 77
     0
 78
     0
  0
ENDTAB
  0
TABLE
  2
LTYPE
 70
     2
  0
LTYPE
  2
CONTINUOUS
 70
     0
  3
Solid line
 72
    65
 73
     0
 40
0.0
  0
LTYPE
  2
PHANTOM2
 70
     0
  3
___ _ _ ___ _ _ ___ _ _ ___ _ _
 72
    65
 73
     6
 40
1.25
 49
0.625
 49
-0.125
 49
0.125
 49
-0.125
 49
0.125
 49
-0.125
  0
ENDTAB
  0
TABLE
  2
LAYER
 70
     2
  0
LAYER
  2
0
 70
     0
 62
   255
  6
CONTINUOUS
  0
LAYER
  2
DEFPOINTS
 70
     0
 62
     7
  6
CONTINUOUS
  0
ENDTAB
  0
TABLE
  2
STYLE
 70
     1
  0
STYLE
  2
STANDARD
 70
     0
 40
0.0
 41
0.8
 50
0.0
 71
     0
 42
0.2
  3
txt
  4

  0
ENDTAB
  0
TABLE
  2
VIEW
 70
     0
  0
ENDTAB
  0
TABLE
  2
UCS
 70
     0
  0
ENDTAB
  0
TABLE
  2
APPID
 70
     9
  0
APPID
  2
ACAD
 70
     0
  0
APPID
  2
ACAD_MLEADERVER
 70
     0
  0
APPID
  2
ACAD_EXEMPT_FROM_CAD_STANDARDS
 70
     0
  0
APPID
  2
ACAD_NAV_VCDISPLAY
 70
     0
  0
APPID
  2
ACAECLAYERSTANDARD
 70
     0
  0
APPID
  2
ACCMTRANSPARENCY
 70
     0
  0
APPID
  2
ACAD_DSTYLE_DIMJAG
 70
     0
  0
APPID
  2
ACAD_DSTYLE_DIMTALN
 70
     0
  0
APPID
  2
ACDBATTR
 70
     0
  0
ENDTAB
  0
TABLE
  2
DIMSTYLE
 70
     1
  0
DIMSTYLE
  2
STANDARD
 70
     0
  3

  4

  5

  6

  7

 40
1.0
 41
0.1875
 42
0.0625
 43
0.38
 44
0.125
 45
0.0
 46
0.0
 47
0.01
 48
0.01
140
0.15625
141
0.09
142
0.0
143
25.3999999999999986
144
1.0
145
0.0
146
1.0
147
0.09
 71
     1
 72
     0
 73
     1
 74
     1
 75
     0
 76
     0
 77
     0
 78
     4
170
     0
171
     2
172
     0
173
     0
174
     0
175
     0
176
     0
177
     0
178
     0
  0
ENDTAB
  0
ENDSEC
  0
SECTION
  2
BLOCKS
  0
BLOCK
  8
0
  2
$MODEL_SPACE
 70
     0
 10
0.0
 20
0.0
 30
0.0
  3
$MODEL_SPACE
  1

  0
ENDBLK
  5
21
  8
0
  0
BLOCK
 67
     1
  8
0
  2
$PAPER_SPACE
 70
     0
 10
0.0
 20
0.0
 30
0.0
  3
$PAPER_SPACE
  1

  0
ENDBLK
  5
1D
 67
     1
  8
0
  0
ENDSEC
  0
SECTION
  2
ENTITIES
  0
ATTDEF
  5
3930
  8
DEFPOINTS
 10
1709.7504045578371006
 20
150.5884010599729947
 30
0.0
 40
0.001
  1
K-72597-G
  3

  2
MODELNUMBER
 70
     0
1001
ACDBATTR
1070
     0
1070
     1
  0
ATTDEF
  5
3931
  8
DEFPOINTS
 10
1709.7504045578371006
 20
150.5867343933063864
 30
0.0
 40
0.001
  1
EXHALE
  3

  2
TRADENAME
 70
     0
1001
ACDBATTR
1070
     0
1070
     1
  0
ATTDEF
  5
3932
  8
DEFPOINTS
 10
1709.7504045578371006
 20
150.5850677266396929
 30
0.0
 40
0.001
  1
SHOWERHEAD
  3

  2
PRODUCT
 70
     0
1001
ACDBATTR
1070
     0
1070
     1
  0
ARC
  5
A041
  8
0
 10
1709.7812710474070172
 20
151.0490889198343041
 30
0.0
 40
3.5199695153902
 50
259.6541590272345275
 51
269.5537414047515199
  0
ARC
  5
A042
  8
0
 10
1709.6996799160949649
 20
150.4823002641444134
 30
0.0
 40
2.9478215865082822
 50
244.2451724394987025
 51
259.2357890673495717
  0
ARC
  5
A043
  8
0
 10
1709.3923884432128943
 20
149.8453562584147107
 30
0.0
 40
2.2406259164558691
 50
226.1306793052501121
 51
244.2451724394979919
  0
ARC
  5
A044
  8
0
 10
1708.9924923371129353
 20
149.4293571226556878
 30
0.0
 40
1.6635885029147941
 50
206.7552239978795114
 51
226.1306793052501121
  0
ARC
  5
A045
  8
0
 10
1708.7057656136109927
 20
149.2848021706587929
 30
0.0
 40
1.342483616441807
 50
184.1227660348781114
 51
206.7552239978795114
  0
ARC
  5
A046
  8
0
 10
1709.5562073096818949
 20
149.2456457269682915
 30
0.0
 40
2.1927831435125591
 50
176.0666639924266121
 51
179.1651864581423865
  0
ARC
  5
A047
  8
0
 10
1711.5801205865009251
 20
149.3791995318254919
 30
0.0
 40
4.2176877031643976
 50
181.3804085804841009
 51
182.5943789370033983
  0
ARC
  5
A048
  8
0
 10
1708.8266788825690128
 20
149.2650632374275972
 30
0.0
 40
1.46396245446502
 50
155.8875003811388922
 51
174.8661995828445015
  0
ARC
  5
A049
  8
0
 10
1708.9552662423739093
 20
149.2075096626278139
 30
0.0
 40
1.604842272302057
 50
128.6378554674089116
 51
155.8875003811388922
  0
ARC
  5
A04A
  8
0
 10
1709.6567765806269108
 20
148.3299326544176893
 30
0.0
 40
2.7283449024789399
 50
114.3609893576292933
 51
128.6378554674089116
  0
ARC
  5
A04B
  8
0
 10
1709.5188277009760895
 20
148.6345904743909045
 30
0.0
 40
2.3939106329019748
 50
103.1907014447558026
 51
114.3609893576292933
  0
ARC
  5
A04C
  8
0
 10
1709.9704863083309192
 20
146.7075274853395115
 30
0.0
 40
4.3731951655979042
 50
98.1069625552908491
 51
103.1907014447558026
  0
ARC
  5
A04D
  8
0
 10
1709.7588761036079177
 20
150.6668509067177126
 30
0.0
 40
2.1001701180238781
 50
258.3180149807346879
 51
269.8630276286223193
  0
ARC
  5
A04E
  8
0
 10
1709.7004427664969626
 20
150.3798918984282125
 30
0.0
 40
1.807323696128728
 50
244.3772551448670924
 51
258.290107467527605
  0
ARC
  5
A04F
  8
0
 10
1709.4620397125140698
 20
149.9149833472089881
 30
0.0
 40
1.285113220666888
 50
217.8763956474273016
 51
244.9975202147232949
  0
ARC
  5
A050
  8
0
 10
1709.0879792587909378
 20
149.6175983054613141
 30
0.0
 40
0.8072868682075982
 50
180.2619036704500957
 51
217.5159299035337028
  0
ARC
  5
A051
  8
0
 10
1709.0910050782690632
 20
149.5945538450162076
 30
0.0
 40
0.8105353615973244
 50
144.5134184965141912
 51
178.631737581040511
  0
ARC
  5
A052
  8
0
 10
1709.3847214174529654
 20
149.3839143831652052
 30
0.0
 40
1.1719735564552349
 50
123.4006367552997006
 51
144.4641608029540976
  0
ARC
  5
A053
  8
0
 10
1709.6653350268541089
 20
148.9471819042720995
 30
0.0
 40
1.6910622315044681
 50
101.8471663417479931
 51
123.1923016430619953
  0
ARC
  5
A054
  8
0
 10
1709.7552471167080057
 20
150.568354112619005
 30
0.0
 40
0.6354088190420623
 50
90.125493124181574
 51
103.0419645090553047
  0
ARC
  5
A055
  8
0
 10
1709.7354314854430868
 20
150.6538991402701981
 30
0.0
 40
0.5475987342095175
 50
103.0419645090553047
 51
121.664286761093507
  0
ARC
  5
A056
  8
0
 10
1709.6438251485469664
 20
150.8024294407011041
 30
0.0
 40
0.3730909375195578
 50
121.664286761093507
 51
139.0990342616250928
  0
ARC
  5
A057
  8
0
 10
1709.5948207416440709
 20
150.8448798353346092
 30
0.0
 40
0.308256780623569
 50
139.0990342616250928
 51
162.6028345218674076
  0
ARC
  5
A058
  8
0
 10
1709.5133586666529482
 20
150.870510936989092
 30
0.0
 40
0.2228576667466772
 50
162.6290511675663879
 51
178.6035508795984015
  0
ARC
  5
A059
  8
0
 10
1709.587858893919929
 20
150.8826132544787129
 30
0.0
 40
0.2973665474916984
 50
181.2855016994975017
 51
208.5355400662062095
  0
ARC
  5
A05A
  8
0
 10
1709.6122409830159086
 20
150.9096896923784925
 30
0.0
 40
0.3319433031677707
 50
210.6314237835105985
 51
238.6342920554330931
  0
ARC
  5
A05B
  8
0
 10
1709.7599725629549994
 20
151.1520389182018107
 30
0.0
 40
0.615770304999209
 50
238.6342920554330931
 51
254.409229994504301
  0
ARC
  5
A05C
  8
0
 10
1709.7554793524930119
 20
151.1845562487139887
 30
0.0
 40
0.6460157476701234
 50
255.5682693896401929
 51
269.855970070809974
  0
ARC
  5
A05D
  8
0
 10
1709.7554475428109981
 20
151.179255687943396
 30
0.0
 40
0.5954595897519602
 50
258.0549974924609842
 51
269.8468022782785738
  0
ARC
  5
A05E
  8
0
 10
1709.7400088857750688
 20
151.106278137328701
 30
0.0
 40
0.5208668620583496
 50
241.4098800421097053
 51
258.0549974924609842
  0
ARC
  5
A05F
  8
0
 10
1709.6630873997410163
 20
150.9651362476728025
 30
0.0
 40
0.3601249943653937
 50
216.3885906514136934
 51
241.4098800421097053
  0
ARC
  5
A060
  8
0
 10
1709.5563364374070261
 20
150.8864654576734097
 30
0.0
 40
0.227517071682618
 50
192.7515556654861086
 51
216.3885906514136934
  0
ARC
  5
A061
  8
0
 10
1709.5517933522019121
 20
150.8854373327766041
 30
0.0
 40
0.2228591038870185
 50
154.1223586794498885
 51
192.7515556654861086
  0
ARC
  5
A062
  8
0
 10
1709.6110485201620577
 20
150.8566931391000878
 30
0.0
 40
0.2887180713867185
 50
125.0738323160682057
 51
154.1223586794498885
  0
ARC
  5
A063
  8
0
 10
1709.7421646738619074
 20
150.669952489837101
 30
0.0
 40
0.5168923816148207
 50
106.2618753112631964
 51
125.0738323160682057
  0
ARC
  5
A064
  8
0
 10
1709.7395506812690655
 20
150.6789137780893952
 30
0.0
 40
0.5075576269627154
 50
95.846978495997547
 51
106.2618753112631964
  0
ARC
  5
A065
  8
0
 10
1709.764214461353049
 20
150.4380677327787055
 30
0.0
 40
0.7496632229116886
 50
90.7917545475543619
 51
95.846978495997547
  0
ARC
  5
A066
  8
0
 10
1709.7553911014510959
 20
151.1872949352396915
 30
0.0
 40
0.6119842290879829
 50
258.3563140116344812
 51
269.8562231177094191
  0
ARC
  5
A067
  8
0
 10
1709.740050450111994
 20
151.1128493295136082
 30
0.0
 40
0.535974467902845
 50
240.592062018551303
 51
258.3563140116344812
  0
ARC
  5
A068
  8
0
 10
1709.6544687699449696
 20
150.9610155044854025
 30
0.0
 40
0.3616823728354424
 50
216.5520588036067124
 51
240.592062018551303
  0
ARC
  5
A069
  8
0
 10
1709.5575200093580861
 20
150.8891407846367088
 30
0.0
 40
0.2409966755361982
 50
182.9242783133217074
 51
216.5520588036067124
  0
ARC
  5
A06A
  8
0
 10
1709.5328099662049226
 20
150.8878785302078995
 30
0.0
 40
0.2162544137386192
 50
152.0322869018270922
 51
182.9242783133217074
  0
ARC
  5
A06B
  8
0
 10
1709.6280984331360742
 20
150.8372816099891054
 30
0.0
 40
0.3241429685793722
 50
129.324782416326201
 51
152.0322869018270922
  0
ARC
  5
A06C
  8
0
 10
1709.6852028872710889
 20
150.7675751367926011
 30
0.0
 40
0.4142535178376944
 50
115.6547758122356981
 51
129.324782416326201
  0
ARC
  5
A06D
  8
0
 10
1709.7422373063379837
 20
150.6488265938938866
 30
0.0
 40
0.5459886361578822
 50
103.1825512983893987
 51
115.6547758122356981
  0
ARC
  5
A06E
  8
0
 10
1709.7518346683830259
 20
150.6078519076637008
 30
0.0
 40
0.5880722941486461
 50
95.5282941913008017
 51
103.1825512983893987
  0
ARC
  5
A06F
  8
0
 10
1709.7565170037939879
 20
150.5594744156294951
 30
0.0
 40
0.6366758536934644
 50
90.2395237511749571
 51
95.5282941913008017
  0
ARC
  5
A070
  8
0
 10
1709.5960352114600482
 20
150.0477590382780875
 30
0.0
 40
0.5618316855207891
 50
119.642948201565801
 51
143.1811883157211867
  0
ARC
  5
A071
  8
0
 10
1709.4653733725899656
 20
150.1455735070321111
 30
0.0
 40
0.398613468294531
 50
143.1811883157211867
 51
176.3560580716813888
  0
ARC
  5
A072
  8
0
 10
1709.4094156357371048
 20
150.1491371571268019
 30
0.0
 40
0.3425423713225519
 50
176.3560580716813888
 51
214.6396724076709006
  0
ARC
  5
A073
  8
0
 10
1709.6190412052199008
 20
150.2939624767643068
 30
0.0
 40
0.597331014297998
 50
214.6396724076709006
 51
241.6399352290241893
  0
ARC
  5
A074
  8
0
 10
1709.7182039738870571
 20
150.4776661055346949
 30
0.0
 40
0.8060899133010655
 50
241.6399352290241893
 51
257.5835137196229994
  0
ARC
  5
A075
  8
0
 10
1709.7599091768870494
 20
150.6670923415339018
 30
0.0
 40
1.0000528552310699
 50
257.5835137196229994
 51
269.6531604677101086
  0
ARC
  5
A076
  8
0
 10
1709.7547727022279105
 20
150.4876792116646129
 30
0.0
 40
0.6577251501960965
 50
253.3414138035404051
 51
269.9200920876683085
  0
ARC
  5
A077
  8
0
 10
1709.7138951047479623
 20
150.3510684082596924
 30
0.0
 40
0.5151296047444114
 50
230.8675037099552014
 51
253.3414138035404051
  0
ARC
  5
A078
  8
0
 10
1709.5784241330509303
 20
150.1845644526468959
 30
0.0
 40
0.300476509245477
 50
202.6809439069984933
 51
230.8675037099552014
  0
ARC
  5
A079
  8
0
 10
1709.5093185084479046
 20
150.1556839456605985
 30
0.0
 40
0.2255787720599017
 50
166.0097190594979963
 51
202.6809439069984933
  0
ARC
  5
A07A
  8
0
 10
1709.5367872223071117
 20
150.1488401750465016
 30
0.0
 40
0.2538872060911691
 50
143.215573469033103
 51
166.0097190594979963
  0
ARC
  5
A07B
  8
0
 10
1709.7555761154089851
 20
150.631472521710208
 30
0.0
 40
0.5589303565259499
 50
259.9464921177341239
 51
269.8236099262467746
  0
ARC
  5
A07C
  8
0
 10
1709.7486093380618968
 20
150.5921765950847089
 30
0.0
 40
0.519021637729682
 50
238.2378531449089962
 51
259.9464921177341239
  0
ARC
  5
A07D
  8
0
 10
1709.6889837164999335
 20
150.4958682996104926
 30
0.0
 40
0.4057498295703823
 50
217.3141344259867083
 51
238.2378531449089962
  0
ARC
  5
A07E
  8
0
 10
1709.6719785705840877
 20
150.4829072191390935
 30
0.0
 40
0.384368421884554
 50
202.9966976567029064
 51
217.3141344259867083
  0
LINE
  5
A07F
  8
0
 10
1709.2905671881799208
 20
150.8759420278167909
 30
0.0
 11
1709.2905671881799208
 21
150.7833558307090129
 31
0.0
  0
LINE
  5
A080
  8
0
 10
1709.318156917152919
 20
150.6611943821999091
 30
0.0
 11
1709.318156917152919
 21
150.3327429047861017
 31
0.0
  0
ARC
  5
A081
  8
0
 10
1709.7057222533080676
 20
150.8129208812981119
 30
0.0
 40
0.416206463569816
 50
184.0734121208068927
 51
201.3796598825070134
  0
ARC
  5
A082
  8
0
 10
1709.7553657104249396
 20
150.6205758542035085
 30
0.0
 40
2.0389593819966492
 50
261.7517087595480803
 51
269.9575595756434723
  0
ARC
  5
A083
  8
0
 10
1709.7360394591089516
 20
150.4872570205097873
 30
0.0
 40
1.9042470388080059
 50
249.5779319703312922
 51
261.7517087595480803
  0
ARC
  5
A084
  8
0
 10
1709.5988587339090827
 20
150.1188235761453882
 30
0.0
 40
1.5111036116818919
 50
231.1683677382497137
 51
249.5779319703312922
  0
ARC
  5
A085
  8
0
 10
1709.2872730388680793
 20
149.7317269546668115
 30
0.0
 40
1.0141836586566291
 50
209.0772156566575006
 51
231.1683677382497137
  0
ARC
  5
A086
  8
0
 10
1709.0736866802990335
 20
149.6129575355977011
 30
0.0
 40
0.7697960413907862
 50
177.4505776541242028
 51
209.0772156566575006
  0
ARC
  5
A087
  8
0
 10
1709.0308053523069702
 20
149.614866835416592
 30
0.0
 40
0.7268722284650114
 50
153.312811067568191
 51
177.4505776541242028
  0
ARC
  5
A088
  8
0
 10
1709.3030486139450659
 20
149.4780190012384935
 30
0.0
 40
1.0315749085094279
 50
136.1762990109940858
 51
153.312811067568191
  0
ARC
  5
A089
  8
0
 10
1709.4060879978248977
 20
149.3791259318950893
 30
0.0
 40
1.174392812829772
 50
120.2380933573950017
 51
136.1762990109940858
  0
ARC
  5
A08A
  8
0
 10
1709.7165338336819786
 20
148.8465413715472039
 30
0.0
 40
1.7908528122798479
 50
108.3358465482797044
 51
120.2380933573950017
  0
ARC
  5
A08B
  8
0
 10
1709.6460627074538934
 20
149.059180020940687
 30
0.0
 40
1.5668408151731801
 50
102.0800624478933969
 51
108.3358465482797044
  0
ARC
  5
A08C
  8
0
 10
1709.755656917152919
 20
150.0018453650166066
 30
0.0
 40
0.4800000000001387
 50
146.6341545407111084
 51
166.8621550986792954
  0
ARC
  5
A08D
  8
0
 10
1709.6340334152880587
 20
150.0450270756151099
 30
0.0
 40
0.3905323257671776
 50
139.8331747814328025
 51
146.0491343470341121
  0
LINE
  5
A08E
  8
0
 10
1709.3477846451230562
 20
150.2700735764551041
 30
0.0
 11
1709.3505408632829585
 21
150.2721540837713121
 31
0.0
  0
LINE
  5
A08F
  8
0
 10
1709.3300921086770359
 20
150.2685481288625056
 30
0.0
 11
1709.3181601347989726
 21
150.2746780458759872
 31
0.0
  0
ARC
  5
A090
  8
0
 10
1709.3377233940630049
 20
150.2834025384217966
 30
0.0
 40
0.0167
 50
242.8086789228767941
 51
307.0470127960596187
  0
ARC
  5
A091
  8
0
 10
1709.5903399912940586
 20
149.9371934192367064
 30
0.0
 40
0.3825525619084779
 50
134.1201600289170983
 51
143.20695220349441
  0
ARC
  5
A092
  8
0
 10
1709.754128329391051
 20
150.4601489749115899
 30
0.0
 40
0.4474288631690453
 50
250.6800053082689885
 51
269.9650501233008981
  0
ARC
  5
A093
  8
0
 10
1709.7219291798430731
 20
150.3683053969463117
 30
0.0
 40
0.3501045186036691
 50
233.3598230191439029
 51
250.6800053082689885
  0
ARC
  5
A094
  8
0
 10
1709.6482338183759566
 20
150.2692197413940107
 30
0.0
 40
0.2266177847489569
 50
205.06368315381809
 51
233.3598230191448977
  0
ARC
  5
A095
  8
0
 10
1709.7533663930250896
 20
150.2959661510562057
 30
0.0
 40
0.9609904019388018
 50
253.8626167474646991
 51
270.0291555010111892
  0
ARC
  5
A096
  8
0
 10
1709.6996729721399788
 20
150.1103954468202062
 30
0.0
 40
0.767807924169787
 50
228.5777152889585864
 51
253.8626167474646991
  0
ARC
  5
A097
  8
0
 10
1709.4697400721240683
 20
149.8497921666885873
 30
0.0
 40
0.4202691376646845
 50
203.061999543497393
 51
228.5777152889585864
  0
ARC
  5
A098
  8
0
 10
1709.4496667274991069
 20
149.8412458906217921
 30
0.0
 40
0.3984522176483746
 50
181.1815112880624099
 51
203.061999543497393
  0
LINE
  5
A099
  8
0
 10
1709.0672360843389015
 20
150.1648988434729119
 30
0.0
 11
1709.0512992250530715
 21
149.8330298853165914
 31
0.0
  0
ARC
  5
A09A
  8
0
 10
1709.7547396810589362
 20
150.2150353914840082
 30
0.0
 40
0.4696535542567974
 50
90.1078784190162452
 51
109.8785233526868979
  0
ARC
  5
A09B
  8
0
 10
1709.7155969496579928
 20
150.323292763699186
 30
0.0
 40
0.3545370391060905
 50
109.8785233526868979
 51
120.7943046620139
  0
ARC
  5
A09C
  8
0
 10
1709.7514935969240923
 20
150.1984389163326057
 30
0.0
 40
0.5490452627880554
 50
89.7535323689526621
 51
103.0171314345415965
  0
ARC
  5
A09D
  8
0
 10
1709.7206127044439654
 20
150.3604265438953007
 30
0.0
 40
0.3843178628762285
 50
103.9711871773976952
 51
129.4526267476072974
  0
ARC
  5
A09E
  8
0
 10
1709.7521450693520819
 20
150.2411594621331972
 30
0.0
 40
0.5533244290196671
 50
89.8228977464430756
 51
103.7498651865581962
  0
ARC
  5
A09F
  8
0
 10
1709.7142966808598885
 20
150.4249547346121858
 30
0.0
 40
0.3658657787039521
 50
104.8338390800947053
 51
136.6488905023441021
  0
ARC
  5
A0A0
  8
0
 10
1709.7496193234419479
 20
150.3042873054621964
 30
0.0
 40
0.4952690375450969
 50
89.5099382981661194
 51
113.8696127301713972
  0
ARC
  5
A0A1
  8
0
 10
1709.6713521335029782
 20
150.4927435137952045
 30
0.0
 40
0.291298107675507
 50
114.7915761937351959
 51
140.6054119186840978
  0
ARC
  5
A0A2
  8
0
 10
1709.7508876656590928
 20
150.3178564456430024
 30
0.0
 40
0.5287311833203694
 50
89.6784005365314272
 51
107.1524101102343991
  0
ARC
  5
A0A3
  8
0
 10
1709.6977057493008942
 20
150.5074533572683038
 30
0.0
 40
0.3319218898601387
 50
108.0325041379299051
 51
145.4701542060115003
  0
ARC
  5
A0A4
  8
0
 10
1709.75057069563195
 20
150.3310615753563013
 30
0.0
 40
0.5205383843257159
 50
89.6384492066304404
 51
108.8071487616525985
  0
ARC
  5
A0A5
  8
0
 10
1709.6919803110511111
 20
150.519028864401804
 30
0.0
 40
0.3237589886689014
 50
109.7160049147776988
 51
146.514501696791001
  0
ARC
  5
A0A6
  8
0
 10
1709.7467915782749515
 20
150.4131083463913967
 30
0.0
 40
0.4855736686645654
 50
89.1664672237017015
 51
114.9705225747713939
  0
ARC
  5
A0A7
  8
0
 10
1709.6635164234180593
 20
150.597633631198903
 30
0.0
 40
0.2831523281182242
 50
115.4575208560803929
 51
143.6680826909046971
  0
ARC
  5
A0A8
  8
0
 10
1709.5795968445108883
 20
150.6593506936239919
 30
0.0
 40
0.1789818355676542
 50
143.6680826909046971
 51
163.3042980213118085
  0
ARC
  5
A0A9
  8
0
 10
1709.7493482665449847
 20
150.3825175637933
 30
0.0
 40
0.5211687479788135
 50
89.5044924233223043
 51
107.4300154426415048
  0
ARC
  5
A0AA
  8
0
 10
1709.7008242656879702
 20
150.5512767715734981
 30
0.0
 40
0.3456496371733639
 50
108.1352356932193004
 51
136.5574598023474948
  0
ARC
  5
A0AB
  8
0
 10
1709.5796167403100299
 20
150.6660676194964879
 30
0.0
 40
0.1787119153269082
 50
136.5574598023474948
 51
165.0986744136766902
  0
ARC
  5
A0AC
  8
0
 10
1709.5665040662929641
 20
150.7659167225808119
 30
0.0
 40
0.1708708907479229
 50
172.5578809632733055
 51
197.0071460409716906
  0
ARC
  5
A0AD
  8
0
 10
1709.5806529074250193
 20
150.7640685314655116
 30
0.0
 40
0.1851399312120527
 50
138.6304838030933979
 51
172.5578809632733055
  0
ARC
  5
A0AE
  8
0
 10
1709.6869332948961073
 20
150.6704702146953991
 30
0.0
 40
0.3267597238374257
 50
113.1042646760864017
 51
138.6304838030933979
  0
ARC
  5
A0AF
  8
0
 10
1709.7366756292319678
 20
150.5538749927765139
 30
0.0
 40
0.4535222798209782
 50
95.7096431155929253
 51
113.1042646760864017
  0
ARC
  5
A0B0
  8
0
 10
1709.7546577835050812
 20
150.2520677123387998
 30
0.0
 40
0.7557186444171706
 50
90.0608335890160703
 51
94.7897226859534641
  0
ARC
  5
A0B1
  8
0
 10
1709.7469159908100664
 20
150.4867731546106029
 30
0.0
 40
0.5160202341674845
 50
89.2294663323469024
 51
105.9741403668791975
  0
ARC
  5
A0B2
  8
0
 10
1709.7115842046589478
 20
150.6221747681607042
 30
0.0
 40
0.3761380247333024
 50
106.476140217720598
 51
130.0595837458216124
  0
ARC
  5
A0B3
  8
0
 10
1709.6097401008069028
 20
150.7432918280973126
 30
0.0
 40
0.2178927603586657
 50
130.0595837458216124
 51
166.0353304002931907
  0
ARC
  5
A0B4
  8
0
 10
1709.7506300844258931
 20
150.4094240751319944
 30
0.0
 40
0.5462999178486517
 50
89.6617276387922573
 51
104.4398447965263017
  0
ARC
  5
A0B5
  8
0
 10
1709.7124700869230765
 20
150.5787058004611083
 30
0.0
 40
0.3728871732569336
 50
105.2478089441506057
 51
132.6173308873630958
  0
ARC
  5
A0B6
  8
0
 10
1709.5906495862880092
 20
150.7111041993827882
 30
0.0
 40
0.192971719746539
 50
132.6173308873630958
 51
161.1725810551926088
  0
ARC
  5
A0B7
  8
0
 10
1709.5966674387050261
 20
150.709052341191807
 30
0.0
 40
0.1993297595193637
 50
161.1725810551926088
 51
173.0520775436359031
  0
ARC
  5
A0B8
  8
0
 10
1709.7495789790768868
 20
150.4019212467198088
 30
0.0
 40
0.5487821893819022
 50
89.553514172831342
 51
102.4411095088402988
  0
ARC
  5
A0B9
  8
0
 10
1709.7224432256259661
 20
150.5483010403137882
 30
0.0
 40
0.4000253862454302
 50
103.1625700379329942
 51
125.7928276828234999
  0
ARC
  5
A0BA
  8
0
 10
1709.6246573441649161
 20
150.6839202886781948
 30
0.0
 40
0.232828917562662
 50
125.7928276828234999
 51
148.2476021195130897
  0
ARC
  5
A0BB
  8
0
 10
1709.5928730265579816
 20
150.70359086085179
 30
0.0
 40
0.1954501233693625
 50
148.2476021195130897
 51
172.0360921966583874
  0
ARC
  5
A0BC
  8
0
 10
1709.7617844708370285
 20
150.3902786259870084
 30
0.0
 40
0.6708325715204096
 50
90.6772371719995647
 51
105.7764552567118983
  0
ARC
  5
A0BD
  8
0
 10
1709.6996299126869872
 20
150.6633226478782035
 30
0.0
 40
0.3914411085405653
 50
107.8880976364697943
 51
133.5829783327116047
  0
ARC
  5
A0BE
  8
0
 10
1709.5833945170850257
 20
150.7854544707525122
 30
0.0
 40
0.2228384711078912
 50
133.5829783327116047
 51
163.8777047083409002
  0
ARC
  5
A0BF
  8
0
 10
1709.5566370922529131
 20
150.7931888852961038
 30
0.0
 40
0.1949856265142097
 50
163.8777047083409002
 51
188.1553185346674013
  0
ARC
  5
A0C0
  8
0
 10
1709.7539282288439608
 20
150.5460486752531892
 30
0.0
 40
0.5779715513248304
 50
90.0072195003314164
 51
108.8493710824181022
  0
ARC
  5
A0C1
  8
0
 10
1709.7100694504511011
 20
150.6745200120691948
 30
0.0
 40
0.4422200252730461
 50
108.8493710824181022
 51
132.7511156465594979
  0
ARC
  5
A0C2
  8
0
 10
1709.5860728607879082
 20
150.8086535271818889
 30
0.0
 40
0.2595537883146803
 50
132.7511156465594979
 51
158.7150425015285009
  0
ARC
  5
A0C3
  8
0
 10
1709.5626534683269711
 20
150.8177772842851141
 30
0.0
 40
0.2344199289422953
 50
158.7150425015285009
 51
171.0168735540949001
  0
ARC
  5
A0C4
  8
0
 10
1709.438793168985967
 20
149.5154092848464984
 30
0.0
 40
1.1379407910717769
 50
175.7375145934356908
 51
184.6922045365328131
  0
ARC
  5
A0C5
  8
0
 10
1709.6048806182120643
 20
150.4824044411811883
 30
0.0
 40
0.2111638848644364
 50
101.4943601033026965
 51
125.6576325656640023
  0
ARC
  5
A0C6
  8
0
 10
1709.8900139252530153
 20
150.2332090941168019
 30
0.0
 40
0.5577041099997818
 50
125.9664244081592983
 51
133.1941042827317006
  0
LINE
  5
A0C7
  8
0
 10
1709.5624681311810491
 20
150.6845932177818952
 30
0.0
 11
1709.5628016794530595
 21
150.6893332917165935
 31
0.0
  0
ARC
  5
A0C8
  8
0
 10
1709.7188424128580664
 20
151.1295196095485096
 30
0.0
 40
3.6004636859897481
 50
270.557186047646212
 51
280.2349135203734249
  0
ARC
  5
A0C9
  8
0
 10
1709.8080308880801113
 20
150.4823002641444134
 30
0.0
 40
2.9478215865082822
 50
280.7642109326504283
 51
295.7548275605013259
  0
ARC
  5
A0CA
  8
0
 10
1710.1153223609619545
 20
149.8453562584147107
 30
0.0
 40
2.2406259164558691
 50
295.7548275605020081
 51
313.8693206947497742
  0
ARC
  5
A0CB
  8
0
 10
1710.5152184670619135
 20
149.4293571226556878
 30
0.0
 40
1.6635885029147941
 50
313.8693206947497742
 51
333.2447760021204886
  0
ARC
  5
A0CC
  8
0
 10
1710.8019451905640835
 20
149.2848021706587929
 30
0.0
 40
1.342483616441807
 50
333.2447760021204886
 51
355.8772339651217749
  0
ARC
  5
A0CD
  8
0
 10
1709.9515034944929539
 20
149.2456457269682915
 30
0.0
 40
2.1927831435125591
 50
0.8348135418576159
 51
3.9333360075733341
  0
ARC
  5
A0CE
  8
0
 10
1707.9275902176739237
 20
149.3791995318254919
 30
0.0
 40
4.2176877031643976
 50
357.4056210629948964
 51
358.6195914195159276
  0
ARC
  5
A0CF
  8
0
 10
1710.6810319216060634
 20
149.2650632374275972
 30
0.0
 40
1.46396245446502
 50
5.1338004171554532
 51
24.1124996188611007
  0
ARC
  5
A0D0
  8
0
 10
1710.5524445618009395
 20
149.2075096626278139
 30
0.0
 40
1.604842272302057
 50
24.1124996188611007
 51
51.3621445325911026
  0
ARC
  5
A0D1
  8
0
 10
1709.8509342235490749
 20
148.3299326544176893
 30
0.0
 40
2.7283449024789399
 50
51.3621445325911026
 51
65.6390106423706357
  0
ARC
  5
A0D2
  8
0
 10
1709.9888831031980772
 20
148.6345904743909045
 30
0.0
 40
2.3939106329019748
 50
65.6390106423706357
 51
76.8092985552442258
  0
ARC
  5
A0D3
  8
0
 10
1709.5372244958439296
 20
146.7075274853395115
 30
0.0
 40
4.3731951655979042
 50
76.8092985552442258
 51
81.8930374447091651
  0
ARC
  5
A0D4
  8
0
 10
1709.7488347005660216
 20
150.6668509067177126
 30
0.0
 40
2.1001701180238781
 50
270.1369723713776807
 51
281.6819850192651984
  0
ARC
  5
A0D5
  8
0
 10
1709.8072680376781136
 20
150.3798918984282125
 30
0.0
 40
1.807323696128728
 50
281.709892532472395
 51
295.6227448551329076
  0
ARC
  5
A0D6
  8
0
 10
1710.0456710916600969
 20
149.9149833472089881
 30
0.0
 40
1.285113220666888
 50
295.0024797852767051
 51
322.1236043525727268
  0
ARC
  5
A0D7
  8
0
 10
1710.419731545383911
 20
149.6175983054613141
 30
0.0
 40
0.8072868682075982
 50
322.4840700964663256
 51
359.7380963295498759
  0
ARC
  5
A0D8
  8
0
 10
1710.4167057259051035
 20
149.5945538450162076
 30
0.0
 40
0.8105353615973244
 50
1.3682624189595081
 51
35.4865815034858088
  0
ARC
  5
A0D9
  8
0
 10
1710.1229893867230203
 20
149.3839143831652052
 30
0.0
 40
1.1719735564552349
 50
35.5358391970459024
 51
56.5993632447002426
  0
ARC
  5
A0DA
  8
0
 10
1709.8423757773209672
 20
148.9471819042720995
 30
0.0
 40
1.6910622315044681
 50
56.8076983569380118
 51
78.1528336582519927
  0
ARC
  5
A0DB
  8
0
 10
1709.7524636874659336
 20
150.568354112619005
 30
0.0
 40
0.6354088190420623
 50
76.9580354909446953
 51
89.8745068758184402
  0
ARC
  5
A0DC
  8
0
 10
1709.7722793187319894
 20
150.6538991402701981
 30
0.0
 40
0.5475987342095175
 50
58.3357132389064574
 51
76.9580354909446953
  0
ARC
  5
A0DD
  8
0
 10
1709.8638856556281098
 20
150.8024294407011041
 30
0.0
 40
0.3730909375195578
 50
40.9009657383749072
 51
58.3357132389064574
  0
ARC
  5
A0DE
  8
0
 10
1709.9128900625300957
 20
150.8448798353346092
 30
0.0
 40
0.308256780623569
 50
17.3971654781326208
 51
40.9009657383749072
  0
ARC
  5
A0DF
  8
0
 10
1709.9943521375219007
 20
150.870510936989092
 30
0.0
 40
0.2228576667466772
 50
1.396449120401638
 51
17.3709488324336014
  0
ARC
  5
A0E0
  8
0
 10
1709.9198519102540104
 20
150.8826132544787129
 30
0.0
 40
0.2973665474916984
 50
331.4644599337937052
 51
358.7144983005024983
  0
ARC
  5
A0E1
  8
0
 10
1709.8954698211589402
 20
150.9096896923784925
 30
0.0
 40
0.3319433031677707
 50
301.3657079445667932
 51
329.3685762164893731
  0
ARC
  5
A0E2
  8
0
 10
1709.7477382412200768
 20
151.1520389182018107
 30
0.0
 40
0.615770304999209
 50
285.5907700054955853
 51
301.3657079445667932
  0
ARC
  5
A0E3
  8
0
 10
1709.7522314516809274
 20
151.1845562487139887
 30
0.0
 40
0.6460157476701234
 50
270.1440299291899123
 51
284.4317306103598071
  0
ARC
  5
A0E4
  8
0
 10
1709.7522632613640781
 20
151.179255687943396
 30
0.0
 40
0.5954595897519602
 50
270.1531977217214262
 51
281.9450025075390158
  0
ARC
  5
A0E5
  8
0
 10
1709.7677019183990978
 20
151.106278137328701
 30
0.0
 40
0.5208668620583496
 50
281.9450025075390158
 51
298.5901199578904084
  0
ARC
  5
A0E6
  8
0
 10
1709.8446234044340599
 20
150.9651362476728025
 30
0.0
 40
0.3601249943653937
 50
298.5901199578904084
 51
323.6114093485862782
  0
ARC
  5
A0E7
  8
0
 10
1709.9513743667669132
 20
150.8864654576734097
 30
0.0
 40
0.227517071682618
 50
323.6114093485862782
 51
347.2484443345138061
  0
ARC
  5
A0E8
  8
0
 10
1709.9559174519720273
 20
150.8854373327766041
 30
0.0
 40
0.2228591038870185
 50
347.2484443345138061
 51
25.8776413205501008
  0
ARC
  5
A0E9
  8
0
 10
1709.896662284012109
 20
150.8566931391000878
 30
0.0
 40
0.2887180713867185
 50
25.8776413205501008
 51
54.9261676839317587
  0
ARC
  5
A0EA
  8
0
 10
1709.7655461303120319
 20
150.669952489837101
 30
0.0
 40
0.5168923816148207
 50
54.9261676839317587
 51
73.7381246887367325
  0
ARC
  5
A0EB
  8
0
 10
1709.7681601229051012
 20
150.6789137780893952
 30
0.0
 40
0.5075576269627154
 50
73.7381246887367325
 51
84.153021504002453
  0
ARC
  5
A0EC
  8
0
 10
1709.7434963428208903
 20
150.4380677327787055
 30
0.0
 40
0.7496632229116886
 50
84.153021504002453
 51
89.2082454524456239
  0
ARC
  5
A0ED
  8
0
 10
1709.7523197027239803
 20
151.1872949352396915
 30
0.0
 40
0.6119842290879829
 50
270.1437768822905809
 51
281.6436859883655188
  0
ARC
  5
A0EE
  8
0
 10
1709.7676603540630822
 20
151.1128493295136082
 30
0.0
 40
0.535974467902845
 50
281.6436859883655188
 51
299.407937981448697
  0
ARC
  5
A0EF
  8
0
 10
1709.8532420342301066
 20
150.9610155044854025
 30
0.0
 40
0.3616823728354424
 50
299.407937981448697
 51
323.4479411963919802
  0
ARC
  5
A0F0
  8
0
 10
1709.9501907948160806
 20
150.8891407846367088
 30
0.0
 40
0.2409966755361982
 50
323.4479411963932876
 51
357.075721686678321
  0
ARC
  5
A0F1
  8
0
 10
1709.9749008379690167
 20
150.8878785302078995
 30
0.0
 40
0.2162544137386192
 50
357.075721686678321
 51
27.9677130981729292
  0
ARC
  5
A0F2
  8
0
 10
1709.879612371039002
 20
150.8372816099891054
 30
0.0
 40
0.3241429685793722
 50
27.9677130981729292
 51
50.6752175836737919
  0
ARC
  5
A0F3
  8
0
 10
1709.8225079169030778
 20
150.7675751367926011
 30
0.0
 40
0.4142535178376944
 50
50.6752175836737919
 51
64.3452241877642734
  0
ARC
  5
A0F4
  8
0
 10
1709.7654734978359556
 20
150.6488265938938866
 30
0.0
 40
0.5459886361578822
 50
64.3452241877642734
 51
76.817448701610644
  0
ARC
  5
A0F5
  8
0
 10
1709.7558761357920503
 20
150.6078519076637008
 30
0.0
 40
0.5880722941486461
 50
76.817448701610644
 51
84.4717058086991983
  0
ARC
  5
A0F6
  8
0
 10
1709.7511938003799514
 20
150.5594744156294951
 30
0.0
 40
0.6366758536934644
 50
84.4717058086991983
 51
89.7604762488250572
  0
ARC
  5
A0F7
  8
0
 10
1709.911675592715028
 20
150.0477590382780875
 30
0.0
 40
0.5618316855207891
 50
36.8188116842788133
 51
60.3570517984341421
  0
ARC
  5
A0F8
  8
0
 10
1710.0423374315851106
 20
150.1455735070321111
 30
0.0
 40
0.398613468294531
 50
3.643941928318589
 51
36.8188116842788133
  0
ARC
  5
A0F9
  8
0
 10
1710.0982951684379714
 20
150.1491371571268019
 30
0.0
 40
0.3425423713225519
 50
325.3603275923292131
 51
3.643941928318589
  0
ARC
  5
A0FA
  8
0
 10
1709.8886695989540385
 20
150.2939624767643068
 30
0.0
 40
0.597331014297998
 50
298.3600647709757823
 51
325.3603275923292131
  0
ARC
  5
A0FB
  8
0
 10
1709.789506830288019
 20
150.4776661055346949
 30
0.0
 40
0.8060899133010655
 50
282.4164862803771143
 51
298.3600647709757823
  0
ARC
  5
A0FC
  8
0
 10
1709.7478016272880268
 20
150.6670923415339018
 30
0.0
 40
1.0000528552310699
 50
270.3468395322898914
 51
282.4164862803771143
  0
ARC
  5
A0FD
  8
0
 10
1709.7529381019469383
 20
150.4876792116646129
 30
0.0
 40
0.6577251501960965
 50
270.0799079123318052
 51
286.6585861964596234
  0
ARC
  5
A0FE
  8
0
 10
1709.7938156994268866
 20
150.3510684082596924
 30
0.0
 40
0.5151296047444114
 50
286.6585861964596234
 51
309.1324962900447986
  0
ARC
  5
A0FF
  8
0
 10
1709.9292866711239185
 20
150.1845644526468959
 30
0.0
 40
0.300476509245477
 50
309.1324962900447986
 51
337.319056092999972
  0
ARC
  5
A100
  8
0
 10
1709.9983922957269442
 20
150.1556839456605985
 30
0.0
 40
0.2255787720599017
 50
337.319056092999972
 51
13.9902809405019308
  0
ARC
  5
A101
  8
0
 10
1709.970923581867055
 20
150.1488401750465016
 30
0.0
 40
0.2538872060911691
 50
13.9902809405019308
 51
36.7844265309668828
  0
ARC
  5
A102
  8
0
 10
1709.7521346887660911
 20
150.631472521710208
 30
0.0
 40
0.5589303565259499
 50
270.1763900737532254
 51
280.0535078822658193
  0
ARC
  5
A103
  8
0
 10
1709.759101466112952
 20
150.5921765950847089
 30
0.0
 40
0.519021637729682
 50
280.0535078822658193
 51
301.7621468550909754
  0
ARC
  5
A104
  8
0
 10
1709.8187270876740058
 20
150.4958682996104926
 30
0.0
 40
0.4057498295703823
 50
301.7621468550909754
 51
322.6858655740119843
  0
ARC
  5
A105
  8
0
 10
1709.8357322335909885
 20
150.4829072191390935
 30
0.0
 40
0.384368421884554
 50
322.6858655740132917
 51
337.0033023432970936
  0
LINE
  5
A106
  8
0
 10
1710.217143615994928
 20
150.8759420278167909
 30
0.0
 11
1710.217143615994928
 21
150.7833558307090129
 31
0.0
  0
LINE
  5
A107
  8
0
 10
1710.1895538870219298
 20
150.6611943821999091
 30
0.0
 11
1710.1895538870219298
 21
150.3327429047861017
 31
0.0
  0
ARC
  5
A108
  8
0
 10
1709.8019885508670086
 20
150.8129208812981119
 30
0.0
 40
0.416206463569816
 50
338.620340117493015
 51
355.9265878791931073
  0
ARC
  5
A109
  8
0
 10
1709.7523450937499092
 20
150.6205758542035085
 30
0.0
 40
2.0389593819966492
 50
270.0424404243565277
 51
278.2482912404518061
  0
ARC
  5
A10A
  8
0
 10
1709.7716713450658972
 20
150.4872570205097873
 30
0.0
 40
1.9042470388080059
 50
278.2482912404518061
 51
290.4220680296687078
  0
ARC
  5
A10B
  8
0
 10
1709.908852070265084
 20
150.1188235761453882
 30
0.0
 40
1.5111036116818919
 50
290.4220680296687078
 51
308.8316322617503147
  0
ARC
  5
A10C
  8
0
 10
1710.2204377653069969
 20
149.7317269546668115
 30
0.0
 40
1.0141836586566291
 50
308.8316322617503147
 51
330.9227843433425278
  0
ARC
  5
A10D
  8
0
 10
1710.4340241238760427
 20
149.6129575355977011
 30
0.0
 40
0.7697960413907862
 50
330.9227843433425278
 51
2.5494223458758158
  0
ARC
  5
A10E
  8
0
 10
1710.4769054518669691
 20
149.614866835416592
 30
0.0
 40
0.7268722284650114
 50
2.5494223458758158
 51
26.6871889324317806
  0
ARC
  5
A10F
  8
0
 10
1710.2046621902300103
 20
149.4780190012384935
 30
0.0
 40
1.0315749085094279
 50
26.6871889324317806
 51
43.8237009890058502
  0
ARC
  5
A110
  8
0
 10
1710.1016228063499511
 20
149.3791259318950893
 30
0.0
 40
1.174392812829772
 50
43.8237009890058502
 51
59.7619066426049415
  0
ARC
  5
A111
  8
0
 10
1709.7911769704930975
 20
148.8465413715472039
 30
0.0
 40
1.7908528122798479
 50
59.7619066426049415
 51
71.6641534517202103
  0
ARC
  5
A112
  8
0
 10
1709.8616480967209554
 20
149.059180020940687
 30
0.0
 40
1.5668408151731801
 50
71.6641534517202103
 51
77.9199375521065463
  0
ARC
  5
A113
  8
0
 10
1709.7520538870219298
 20
150.0018453650166066
 30
0.0
 40
0.4800000000001387
 50
13.1378449013206602
 51
33.3658454592888702
  0
ARC
  5
A114
  8
0
 10
1709.873677388886108
 20
150.0450270756151099
 30
0.0
 40
0.3905323257671776
 50
33.9508656529659305
 51
40.1668252185671832
  0
LINE
  5
A115
  8
0
 10
1710.15992615905202
 20
150.2700735764551041
 30
0.0
 11
1710.1571699408909808
 21
150.2721540837713121
 31
0.0
  0
LINE
  5
A116
  8
0
 10
1710.1776186954980403
 20
150.2685481288625056
 30
0.0
 11
1710.1895506693761035
 21
150.2746780458759872
 31
0.0
  0
ARC
  5
A117
  8
0
 10
1710.1699874101120713
 20
150.2834025384217966
 30
0.0
 40
0.0167
 50
232.9529872039404097
 51
297.1913210771231775
  0
ARC
  5
A118
  8
0
 10
1709.9173708128810176
 20
149.9371934192367064
 30
0.0
 40
0.3825525619084779
 50
36.79304779650559
 51
45.8798399710828875
  0
ARC
  5
A119
  8
0
 10
1709.7535824747840252
 20
150.4601489749115899
 30
0.0
 40
0.4474288631690453
 50
270.0349498766991019
 51
289.3199946917309262
  0
ARC
  5
A11A
  8
0
 10
1709.7857816243310936
 20
150.3683053969463117
 30
0.0
 40
0.3501045186036691
 50
289.3199946917309262
 51
306.6401769808560971
  0
ARC
  5
A11B
  8
0
 10
1709.8594769857988922
 20
150.2692197413940107
 30
0.0
 40
0.2266177847489569
 50
306.6401769808550739
 51
334.93631684618191
  0
ARC
  5
A11C
  8
0
 10
1709.7543444111499866
 20
150.2959661510562057
 30
0.0
 40
0.9609904019388018
 50
269.9708444989886971
 51
286.1373832525353009
  0
ARC
  5
A11D
  8
0
 10
1709.8080378320350974
 20
150.1103954468202062
 30
0.0
 40
0.767807924169787
 50
286.1373832525353009
 51
311.4222847110414136
  0
ARC
  5
A11E
  8
0
 10
1710.0379707320510079
 20
149.8497921666885873
 30
0.0
 40
0.4202691376646845
 50
311.4222847110414136
 51
336.938000456502607
  0
ARC
  5
A11F
  8
0
 10
1710.0580440766750598
 20
149.8412458906217921
 30
0.0
 40
0.3984522176483746
 50
336.938000456502607
 51
358.8184887119376185
  0
LINE
  5
A120
  8
0
 10
1710.4404747198350378
 20
150.1648988434729119
 30
0.0
 11
1710.4564115791220047
 21
149.8330298853165914
 31
0.0
  0
ARC
  5
A121
  8
0
 10
1709.7529711231159126
 20
150.2150353914840082
 30
0.0
 40
0.4696535542567974
 50
70.1214766473130595
 51
89.892121580983769
  0
ARC
  5
A122
  8
0
 10
1709.7921138545159465
 20
150.323292763699186
 30
0.0
 40
0.3545370391060905
 50
59.2056953379860929
 51
70.1214766473130595
  0
ARC
  5
A123
  8
0
 10
1709.7562172072509838
 20
150.1984389163326057
 30
0.0
 40
0.5490452627880554
 50
76.9828685654583751
 51
90.2464676310473664
  0
ARC
  5
A124
  8
0
 10
1709.7870980997299739
 20
150.3604265438953007
 30
0.0
 40
0.3843178628762285
 50
50.5473732523926387
 51
76.0288128226022195
  0
ARC
  5
A125
  8
0
 10
1709.7555657348229943
 20
150.2411594621331972
 30
0.0
 40
0.5533244290196671
 50
76.2501348134417327
 51
90.177102253556896
  0
ARC
  5
A126
  8
0
 10
1709.7934141233140508
 20
150.4249547346121858
 30
0.0
 40
0.3658657787039521
 50
43.3511094976558908
 51
75.1661609199053231
  0
ARC
  5
A127
  8
0
 10
1709.7580914807329009
 20
150.3042873054621964
 30
0.0
 40
0.4952690375450969
 50
66.1303872698285318
 51
90.4900617018338949
  0
ARC
  5
A128
  8
0
 10
1709.836358670672098
 20
150.4927435137952045
 30
0.0
 40
0.291298107675507
 50
39.3945880813158524
 51
65.2084238062647898
  0
ARC
  5
A129
  8
0
 10
1709.7568231385150739
 20
150.3178564456430024
 30
0.0
 40
0.5287311833203694
 50
72.8475898897655298
 51
90.3215994634685586
  0
ARC
  5
A12A
  8
0
 10
1709.8100050548739546
 20
150.5074533572683038
 30
0.0
 40
0.3319218898601387
 50
34.5298457939884997
 51
71.9674958620700806
  0
ARC
  5
A12B
  8
0
 10
1709.7571401085428988
 20
150.3310615753563013
 30
0.0
 40
0.5205383843257159
 50
71.1928512383473731
 51
90.3615507933695454
  0
ARC
  5
A12C
  8
0
 10
1709.8157304931230556
 20
150.519028864401804
 30
0.0
 40
0.3237589886689014
 50
33.4854983032089422
 51
70.2839950852222302
  0
ARC
  5
A12D
  8
0
 10
1709.7609192258989879
 20
150.4131083463913967
 30
0.0
 40
0.4855736686645654
 50
65.0294774252285492
 51
90.8335327762982985
  0
ARC
  5
A12E
  8
0
 10
1709.8441943807570169
 20
150.597633631198903
 30
0.0
 40
0.2831523281182242
 50
36.3319173090952532
 51
64.5424791439196213
  0
ARC
  5
A12F
  8
0
 10
1709.928113959663051
 20
150.6593506936239919
 30
0.0
 40
0.1789818355676542
 50
16.6957019786882093
 51
36.3319173090952532
  0
ARC
  5
A130
  8
0
 10
1709.7583625376300915
 20
150.3825175637933
 30
0.0
 40
0.5211687479788135
 50
72.5699845573589357
 51
90.4955075766776531
  0
ARC
  5
A131
  8
0
 10
1709.806886538487106
 20
150.5512767715734981
 30
0.0
 40
0.3456496371733639
 50
43.442540197652491
 51
71.864764306780657
  0
ARC
  5
A132
  8
0
 10
1709.9280940638650463
 20
150.6660676194964879
 30
0.0
 40
0.1787119153269082
 50
14.9013255863232903
 51
43.442540197652491
  0
ARC
  5
A133
  8
0
 10
1709.9412067378821121
 20
150.7659167225808119
 30
0.0
 40
0.1708708907479229
 50
342.9928539590281957
 51
7.4421190367267123
  0
ARC
  5
A134
  8
0
 10
1709.9270578967500569
 20
150.7640685314655116
 30
0.0
 40
0.1851399312120527
 50
7.4421190367267123
 51
41.3695161969065595
  0
ARC
  5
A135
  8
0
 10
1709.8207775092789689
 20
150.6704702146953991
 30
0.0
 40
0.3267597238374257
 50
41.3695161969065595
 51
66.8957353239135983
  0
ARC
  5
A136
  8
0
 10
1709.7710351749431084
 20
150.5538749927765139
 30
0.0
 40
0.4535222798209782
 50
66.8957353239135983
 51
84.2903568844070605
  0
ARC
  5
A137
  8
0
 10
1709.753053020669995
 20
150.2520677123387998
 30
0.0
 40
0.7557186444171706
 50
85.2102773140464933
 51
89.9391664109839155
  0
ARC
  5
A138
  8
0
 10
1709.7607948133650098
 20
150.4867731546106029
 30
0.0
 40
0.5160202341674845
 50
74.0258596331208025
 51
90.7705336676530976
  0
ARC
  5
A139
  8
0
 10
1709.796126599515901
 20
150.6221747681607042
 30
0.0
 40
0.3761380247333024
 50
49.9404162541783521
 51
73.5238597822794162
  0
ARC
  5
A13A
  8
0
 10
1709.8979707033670365
 20
150.7432918280973126
 30
0.0
 40
0.2178927603586657
 50
13.9646695997068004
 51
49.9404162541783521
  0
ARC
  5
A13B
  8
0
 10
1709.7570807197480462
 20
150.4094240751319944
 30
0.0
 40
0.5462999178486517
 50
75.5601552034737125
 51
90.3382723612077427
  0
ARC
  5
A13C
  8
0
 10
1709.7952407172519997
 20
150.5787058004611083
 30
0.0
 40
0.3728871732569336
 50
47.3826691126368971
 51
74.7521910558493943
  0
ARC
  5
A13D
  8
0
 10
1709.9170612178859301
 20
150.7111041993827882
 30
0.0
 40
0.192971719746539
 50
18.8274189448074196
 51
47.3826691126368971
  0
ARC
  5
A13E
  8
0
 10
1709.9110433654689132
 20
150.709052341191807
 30
0.0
 40
0.1993297595193637
 50
6.9479224563640667
 51
18.8274189448074196
  0
ARC
  5
A13F
  8
0
 10
1709.7581318250979621
 20
150.4019212467198088
 30
0.0
 40
0.5487821893819022
 50
77.5588904911596728
 51
90.4464858271686438
  0
ARC
  5
A140
  8
0
 10
1709.7852675785491101
 20
150.5483010403137882
 30
0.0
 40
0.4000253862454302
 50
54.2071723171764432
 51
76.8374299620669632
  0
ARC
  5
A141
  8
0
 10
1709.8830534600099327
 20
150.6839202886781948
 30
0.0
 40
0.232828917562662
 50
31.7523978804868392
 51
54.2071723171764432
  0
ARC
  5
A142
  8
0
 10
1709.9148377776159577
 20
150.70359086085179
 30
0.0
 40
0.1954501233693625
 50
7.9639078033415567
 51
31.7523978804868392
  0
ARC
  5
A143
  8
0
 10
1709.7459263333380477
 20
150.3902786259870084
 30
0.0
 40
0.6708325715204096
 50
74.2235447432881301
 51
89.3227628280004353
  0
ARC
  5
A144
  8
0
 10
1709.808080891488089
 20
150.6633226478782035
 30
0.0
 40
0.3914411085405653
 50
46.4170216672883669
 51
72.1119023635302057
  0
ARC
  5
A145
  8
0
 10
1709.9243162870889137
 20
150.7854544707525122
 30
0.0
 40
0.2228384711078912
 50
16.1222952916590501
 51
46.4170216672883669
  0
ARC
  5
A146
  8
0
 10
1709.9510737119210262
 20
150.7931888852961038
 30
0.0
 40
0.1949856265142097
 50
351.844681465332485
 51
16.1222952916590501
  0
ARC
  5
A147
  8
0
 10
1709.753782575330888
 20
150.5460486752531892
 30
0.0
 40
0.5779715513248304
 50
71.1506289175818267
 51
89.9927804996685836
  0
ARC
  5
A148
  8
0
 10
1709.7976413537230655
 20
150.6745200120691948
 30
0.0
 40
0.4422200252730461
 50
47.2488843534404808
 51
71.1506289175818267
  0
ARC
  5
A149
  8
0
 10
1709.9216379433860311
 20
150.8086535271818889
 30
0.0
 40
0.2595537883146803
 50
21.2849574984715098
 51
47.2488843534404808
  0
ARC
  5
A14A
  8
0
 10
1709.9450573358481051
 20
150.8177772842851141
 30
0.0
 40
0.2344199289422953
 50
8.9831264459050857
 51
21.2849574984715098
  0
ARC
  5
A14B
  8
0
 10
1710.0689176351879723
 20
149.5154092848464984
 30
0.0
 40
1.1379407910717769
 50
355.3077954634670732
 51
4.2624854065643296
  0
ARC
  5
A14D
  8
0
 10
1709.8476771439800359
 20
151.5965114136378986
 30
0.0
 40
3.7611710529163842
 50
258.1017447491328198
 51
268.5706187233175797
  0
ARC
  5
A14E
  8
0
 10
1709.6330718430210709
 20
150.4821818986422954
 30
0.0
 40
2.6266107623296411
 50
233.9609310602592132
 51
257.6708866726531255
  0
ARC
  5
A14F
  8
0
 10
1708.9919452933320372
 20
149.6010110843812981
 30
0.0
 40
1.536883614543713
 50
199.458555165124011
 51
233.9609310602592132
  0
ARC
  5
A150
  8
0
 10
1708.5492723218080755
 20
149.4446126323045974
 30
0.0
 40
1.067394705698048
 50
163.3218486120680097
 51
199.458555165124011
  0
ARC
  5
A151
  8
0
 10
1708.9343990473250869
 20
149.3292291382304882
 30
0.0
 40
1.469434436833633
 50
144.0803450547520015
 51
163.3218486120680097
  0
ARC
  5
A152
  8
0
 10
1708.9889155281430249
 20
149.2897372793042052
 30
0.0
 40
1.5367519947381481
 50
127.1912259254963971
 51
144.0803450547520015
  0
ARC
  5
A153
  8
0
 10
1710.1104262733349515
 20
147.7659046107064
 30
0.0
 40
3.4287108777738671
 50
119.8075228981234943
 51
126.7283156695447985
  0
ARC
  5
A154
  8
0
 10
1710.6923325156649298
 20
147.0306829187132109
 30
0.0
 40
4.358153039007254
 50
119.7252881785601062
 51
121.6411622534133983
  0
ARC
  5
A155
  8
0
 10
1709.6600336601939034
 20
151.5965114136378986
 30
0.0
 40
3.7611710529164091
 50
271.4293812766824203
 51
281.8982552508671802
  0
ARC
  5
A156
  8
0
 10
1709.8746389611540053
 20
150.4821818986422954
 30
0.0
 40
2.6266107623296411
 50
282.3291133273468745
 51
306.0390689397406732
  0
ARC
  5
A157
  8
0
 10
1710.515765510843039
 20
149.6010110843812981
 30
0.0
 40
1.536883614543713
 50
306.0390689397406732
 51
340.5414448348760175
  0
ARC
  5
A158
  8
0
 10
1710.9584384823660912
 20
149.4446126323045974
 30
0.0
 40
1.067394705698048
 50
340.5414448348760175
 51
16.6781513879319512
  0
ARC
  5
A159
  8
0
 10
1710.5733117568499893
 20
149.3292291382304882
 30
0.0
 40
1.469434436833633
 50
16.6781513879319512
 51
35.9196549452480625
  0
ARC
  5
A15A
  8
0
 10
1710.5187952760320513
 20
149.2897372793042052
 30
0.0
 40
1.5367519947381481
 50
35.9196549452480625
 51
52.8087740745035816
  0
ARC
  5
A15B
  8
0
 10
1709.3972845308398973
 20
147.7659046107064
 30
0.0
 40
3.4287108777738671
 50
53.2716843304551233
 51
60.1924771018764204
  0
ARC
  5
A15C
  8
0
 10
1708.815378288509919
 20
147.0306829187132109
 30
0.0
 40
4.358153039007254
 50
58.3588377465857633
 51
60.2747118214398512
  0
ENDSEC
  0
EOF
