  0
SECTION
  2
HEADER
  9
$ACADVER
  1
AC1009
  9
$INSBASE
 10
847.6792887663560805
 20
135.5896461765073013
 30
0.0
  9
$EXTMIN
 10
837.7640515464063355
 20
122.9926995658404962
 30
-0.0000000349181948
  9
$EXTMAX
 10
847.7128392720700276
 20
162.0011116282356056
 30
0.0000000814935746
  9
$LIMMIN
 10
0.0
 20
0.0
  9
$LIMMAX
 10
11.6929133858000007
 20
8.2677165353999982
  9
$ORTHOMODE
 70
     0
  9
$REGENMODE
 70
     1
  9
$FILLMODE
 70
     1
  9
$QTEXTMODE
 70
     0
  9
$MIRRTEXT
 70
     0
  9
$DRAGMODE
 70
     2
  9
$LTSCALE
 40
0.6431102362
  9
$OSMODE
 70
  4095
  9
$ATTMODE
 70
     1
  9
$TEXTSIZE
 40
0.2
  9
$TRACEWID
 40
0.05
  9
$TEXTSTYLE
  7
STANDARD
  9
$CLAYER
  8
0
  9
$CELTYPE
  6
BYLAYER
  9
$CECOLOR
 62
   256
  9
$DIMSCALE
 40
1.0
  9
$DIMASZ
 40
0.1875
  9
$DIMEXO
 40
0.0625
  9
$DIMDLI
 40
0.4443307087
  9
$DIMRND
 40
0.0
  9
$DIMDLE
 40
0.0
  9
$DIMEXE
 40
0.125
  9
$DIMTP
 40
0.01
  9
$DIMTM
 40
0.01
  9
$DIMTXT
 40
1.0
  9
$DIMCEN
 40
0.1052362205
  9
$DIMTSZ
 40
0.0
  9
$DIMTOL
 70
     1
  9
$DIMLIM
 70
     0
  9
$DIMTIH
 70
     0
  9
$DIMTOH
 70
     1
  9
$DIMSE1
 70
     0
  9
$DIMSE2
 70
     0
  9
$DIMTAD
 70
     0
  9
$DIMZIN
 70
     0
  9
$DIMBLK
  1

  9
$DIMASO
 70
     1
  9
$DIMSHO
 70
     1
  9
$DIMPOST
  1
\X
  9
$DIMAPOST
  1

  9
$DIMALT
 70
     1
  9
$DIMALTD
 70
     2
  9
$DIMALTF
 40
25.3999999999999986
  9
$DIMLFAC
 40
1.0
  9
$DIMTOFL
 70
     0
  9
$DIMTVP
 40
0.0
  9
$DIMTIX
 70
     0
  9
$DIMSOXD
 70
     0
  9
$DIMSAH
 70
     0
  9
$DIMBLK1
  1

  9
$DIMBLK2
  1

  9
$DIMSTYLE
  2
STANDARD
  9
$DIMCLRD
 70
     0
  9
$DIMCLRE
 70
     0
  9
$DIMCLRT
 70
     0
  9
$DIMTFAC
 40
1.0
  9
$DIMGAP
 40
0.09
  9
$LUNITS
 70
     2
  9
$LUPREC
 70
     4
  9
$SKETCHINC
 40
0.1
  9
$FILLETRAD
 40
0.0
  9
$AUNITS
 70
     0
  9
$AUPREC
 70
     0
  9
$MENU
  1
.
  9
$ELEVATION
 40
0.0
  9
$PELEVATION
 40
0.0
  9
$THICKNESS
 40
0.0
  9
$LIMCHECK
 70
     0
  9
$BLIPMODE
 70
     0
  9
$CHAMFERA
 40
0.0
  9
$CHAMFERB
 40
0.0
  9
$SKPOLY
 70
     0
  9
$TDCREATE
 40
2458172.5207638889551163
  9
$TDUPDATE
 40
2459117.5132175930775702
  9
$TDINDWG
 40
0.4111812731
  9
$TDUSRTIMER
 40
0.4111812731
  9
$USRTIMER
 70
     1
  9
$ANGBASE
 50
0.0
  9
$ANGDIR
 70
     0
  9
$PDMODE
 70
     0
  9
$PDSIZE
 40
0.3125
  9
$PLINEWID
 40
0.0
  9
$COORDS
 70
     1
  9
$SPLFRAME
 70
     0
  9
$SPLINETYPE
 70
     6
  9
$SPLINESEGS
 70
     8
  9
$ATTDIA
 70
     1
  9
$ATTREQ
 70
     1
  9
$HANDLING
 70
     1
  9
$HANDSEED
  5
E7FA
  9
$SURFTAB1
 70
     6
  9
$SURFTAB2
 70
     6
  9
$SURFTYPE
 70
     6
  9
$SURFU
 70
     6
  9
$SURFV
 70
     6
  9
$UCSNAME
  2

  9
$UCSORG
 10
0.0
 20
0.0
 30
0.0
  9
$UCSXDIR
 10
1.0
 20
0.0
 30
0.0
  9
$UCSYDIR
 10
0.0
 20
1.0
 30
0.0
  9
$PUCSNAME
  2

  9
$PUCSORG
 10
0.0
 20
0.0
 30
0.0
  9
$PUCSXDIR
 10
1.0
 20
0.0
 30
0.0
  9
$PUCSYDIR
 10
0.0
 20
1.0
 30
0.0
  9
$USERI1
 70
     0
  9
$USERI2
 70
     0
  9
$USERI3
 70
     0
  9
$USERI4
 70
     0
  9
$USERI5
 70
     0
  9
$USERR1
 40
0.0
  9
$USERR2
 40
0.0
  9
$USERR3
 40
0.0
  9
$USERR4
 40
0.0
  9
$USERR5
 40
0.0
  9
$WORLDVIEW
 70
     1
  9
$SHADEDGE
 70
     3
  9
$SHADEDIF
 70
    70
  9
$TILEMODE
 70
     1
  9
$MAXACTVP
 70
    64
  9
$PLIMCHECK
 70
     0
  9
$PEXTMIN
 10
1.0000000000000000E+20
 20
1.0000000000000000E+20
 30
1.0000000000000000E+20
  9
$PEXTMAX
 10
-1.0000000000000000E+20
 20
-1.0000000000000000E+20
 30
-1.0000000000000000E+20
  9
$PLIMMIN
 10
0.0
 20
0.0
  9
$PLIMMAX
 10
12.0
 20
9.0
  9
$UNITMODE
 70
     0
  9
$VISRETAIN
 70
     1
  9
$PLINEGEN
 70
     0
  9
$PSLTSCALE
 70
     1
  0
ENDSEC
  0
SECTION
  2
TABLES
  0
TABLE
  2
VPORT
 70
     1
  0
VPORT
  2
*ACTIVE
 70
     0
 10
0.0
 20
0.0
 11
1.0
 21
1.0
 12
375.9962437014082184
 22
53.3637584771082913
 13
0.0
 23
0.0
 14
1.0
 24
1.0
 15
0.0
 25
0.0
 16
0.0
 26
0.0
 36
24.1179433675886514
 17
466.74220170783002
 27
89.133147119929788
 37
0.0
 40
39.4691413387225509
 41
2.6528599605522678
 42
50.0
 43
0.0
 44
0.0
 50
0.0
 51
0.0
 71
     0
 72
   100
 73
     1
 74
     1
 75
     0
 76
     0
 77
     0
 78
     0
  0
ENDTAB
  0
TABLE
  2
LTYPE
 70
     2
  0
LTYPE
  2
CONTINUOUS
 70
     0
  3
Solid line
 72
    65
 73
     0
 40
0.0
  0
LTYPE
  2
PHANTOM2
 70
     0
  3
___ _ _ ___ _ _ ___ _ _ ___ _ _
 72
    65
 73
     6
 40
1.25
 49
0.625
 49
-0.125
 49
0.125
 49
-0.125
 49
0.125
 49
-0.125
  0
ENDTAB
  0
TABLE
  2
LAYER
 70
     2
  0
LAYER
  2
0
 70
     0
 62
   255
  6
CONTINUOUS
  0
LAYER
  2
DEFPOINTS
 70
     0
 62
     7
  6
CONTINUOUS
  0
ENDTAB
  0
TABLE
  2
STYLE
 70
     1
  0
STYLE
  2
STANDARD
 70
     0
 40
0.0
 41
0.8
 50
0.0
 71
     0
 42
0.2
  3
txt
  4

  0
ENDTAB
  0
TABLE
  2
VIEW
 70
     0
  0
ENDTAB
  0
TABLE
  2
UCS
 70
     0
  0
ENDTAB
  0
TABLE
  2
APPID
 70
    11
  0
APPID
  2
ACAD
 70
     0
  0
APPID
  2
ACAD_MLEADERVER
 70
     0
  0
APPID
  2
ACAD_EXEMPT_FROM_CAD_STANDARDS
 70
     0
  0
APPID
  2
ACAD_DSTYLE_DIMJAG
 70
     0
  0
APPID
  2
ACAD_DSTYLE_DIMTALN
 70
     0
  0
APPID
  2
ACAD_NAV_VCDISPLAY
 70
     0
  0
APPID
  2
ACAECLAYERSTANDARD
 70
     0
  0
APPID
  2
ACCMTRANSPARENCY
 70
     0
  0
APPID
  2
DCO15
 70
     0
  0
APPID
  2
ACDBATTR
 70
     0
  0
APPID
  2
ACADANNOTATIVE
 70
     0
  0
ENDTAB
  0
TABLE
  2
DIMSTYLE
 70
     1
  0
DIMSTYLE
  2
STANDARD
 70
     0
  3

  4

  5

  6

  7

 40
1.0
 41
0.1875
 42
0.0625
 43
0.38
 44
0.125
 45
0.0
 46
0.0
 47
0.01
 48
0.01
140
0.15625
141
0.09
142
0.0
143
25.3999999999999986
144
1.0
145
0.0
146
1.0
147
0.09
 71
     1
 72
     0
 73
     1
 74
     1
 75
     0
 76
     0
 77
     0
 78
     4
170
     0
171
     2
172
     0
173
     0
174
     0
175
     0
176
     0
177
     0
178
     0
  0
ENDTAB
  0
ENDSEC
  0
SECTION
  2
BLOCKS
  0
BLOCK
  8
0
  2
$MODEL_SPACE
 70
     0
 10
0.0
 20
0.0
 30
0.0
  3
$MODEL_SPACE
  1

  0
ENDBLK
  5
21
  8
0
  0
BLOCK
 67
     1
  8
0
  2
$PAPER_SPACE
 70
     0
 10
0.0
 20
0.0
 30
0.0
  3
$PAPER_SPACE
  1

  0
ENDBLK
  5
1D
 67
     1
  8
0
  0
ENDSEC
  0
SECTION
  2
ENTITIES
  0
ATTDEF
  5
829
  8
DEFPOINTS
 10
847.681079307126538
 20
135.5892203293759053
 30
0.0
 40
0.001
  1
K-72627T-9
  3

  2
MODELNUMBER
 70
     0
1001
ACDBATTR
1070
     0
1070
     1
  0
ATTDEF
  5
82A
  8
DEFPOINTS
 10
847.681079307126538
 20
135.587553662709297
 30
0.0
 40
0.001
  1
MARGAUX
  3

  2
TRADENAME
 70
     0
1001
ACDBATTR
1070
     0
1070
     1
  0
ATTDEF
  5
82B
  8
DEFPOINTS
 10
847.681079307126538
 20
135.5858869960426034
 30
0.0
 40
0.001
  1
BATH AND SHOWER FAUCET
  3

  2
PRODUCT
 70
     0
1001
ACDBATTR
1070
     0
1070
     1
  0
LINE
  5
E449
  8
0
 10
839.1243530046259593
 20
135.2721310627904927
 30
0.0
 11
837.8238397534977366
 21
135.5723782045664052
 31
0.0
  0
LINE
  5
E44A
  8
0
 10
837.8439288907993614
 20
135.2986460973046121
 30
0.0
 11
837.9029104497599292
 21
135.5541232959521949
 31
0.0
  0
LINE
  5
E44B
  8
0
 10
838.9142015209836245
 20
135.0515541911356934
 30
0.0
 11
838.9731830799584031
 21
135.3070313898456902
 31
0.0
  0
ARC
  5
E44C
  8
0
 10
841.6523213444764906
 20
134.7787268145748953
 30
0.0
 40
3.9369558170582102
 50
153.0011180043545096
 51
167.8839543794780127
  0
ARC
  5
E44D
  8
0
 10
838.4249546940141045
 20
136.4230729341132076
 30
0.0
 40
0.3148335583047772
 50
105.0763371279388991
 51
153.0011180043545096
  0
ARC
  5
E44E
  8
0
 10
839.1768397483283479
 20
133.6318802373060919
 30
0.0
 40
3.205523407736969
 50
95.1586797689390238
 51
105.0763371279388991
  0
ARC
  5
E44F
  8
0
 10
839.2963145434539456
 20
132.3085001344427099
 30
0.0
 40
4.5342856601075994
 50
81.2511001212659636
 51
95.1586797689390238
  0
ARC
  5
E450
  8
0
 10
835.8379394488335947
 20
109.8362065429978998
 30
0.0
 40
27.2711354321227191
 50
78.6134167825363619
 51
81.2511001212659636
  0
ARC
  5
E451
  8
0
 10
843.873809745663948
 20
149.7379033953270948
 30
0.0
 40
13.4316976771666408
 50
258.6134167825363761
 51
263.4665111074992865
  0
ARC
  5
E452
  8
0
 10
842.8421027495556928
 20
140.7295446576144116
 30
0.0
 40
4.364451873001931
 50
263.4665130442141958
 51
279.7762005932872853
  0
ARC
  5
E453
  8
0
 10
844.3654959287566726
 20
131.8933844932761019
 30
0.0
 40
4.6020666252274394
 50
87.9657637157167045
 51
99.7872782355010912
  0
ARC
  5
E454
  8
0
 10
843.5932168608163693
 20
136.3703298137459115
 30
0.0
 40
0.059
 50
99.7872782355010912
 51
170.3916772842582077
  0
ARC
  5
E455
  8
0
 10
839.6221364885532239
 20
134.7682218126944917
 30
0.0
 40
0.6958614274024854
 50
97.7822737951756125
 51
132.8027264463979975
  0
ARC
  5
E456
  8
0
 10
839.9432176985219485
 20
132.4188663822401963
 30
0.0
 40
3.0670560803148241
 50
87.0315985278014637
 51
97.7822737951756125
  0
ARC
  5
E457
  8
0
 10
839.8535712573811907
 20
130.6900684303556943
 30
0.0
 40
4.7981767701713931
 50
77.3296093046040482
 51
87.0315985278014637
  0
ARC
  5
E458
  8
0
 10
835.4834812473407055
 20
109.192985798848099
 30
0.0
 40
26.7341210549041683
 50
75.1374967288802225
 51
78.2973916028130645
  0
ARC
  5
E459
  8
0
 10
846.4653641858490118
 20
150.3422542139792881
 30
0.0
 40
15.8554322232248701
 50
254.9218525757854934
 51
259.5277544343938985
  0
ARC
  5
E45A
  8
0
 10
839.1305616537249534
 20
135.2990236765787984
 30
0.0
 40
0.0276
 50
257.0000000020016273
 51
312.802726446327199
  0
ARC
  5
E45B
  8
0
 10
837.8300484025965034
 20
135.5992708183547961
 30
0.0
 40
0.0276
 50
167.8839543794892961
 51
257.0000000019480808
  0
ARC
  5
E45C
  8
0
 10
848.2009243125395415
 20
135.5903059588200108
 30
0.0
 40
4.7322649373770327
 50
170.391677284257014
 51
189.6232236706599963
  0
ARC
  5
E45D
  8
0
 10
843.5934198780088309
 20
134.8090838004692955
 30
0.0
 40
0.059
 50
189.6232236706582057
 51
260.3141445133572915
  0
ARC
  5
E45E
  8
0
 10
844.3746296714246
 20
139.3861525679112106
 30
0.0
 40
4.7022582572177756
 50
260.3141445133572915
 51
268.9462787055193189
  0
ARC
  5
E45F
  8
0
 10
844.3746296714246
 20
139.3861525679112106
 30
0.0
 40
4.7022582572177756
 50
276.1360698126691773
 51
279.6740215484553005
  0
ARC
  5
E460
  8
0
 10
845.1548940949780899
 20
134.8089225461012859
 30
0.0
 40
0.059
 50
279.6740215484553005
 51
350.3666826183094827
  0
ARC
  5
E461
  8
0
 10
844.3741703825097602
 20
131.7707428442257935
 30
0.0
 40
4.7244149103921158
 50
80.3666385563241334
 51
80.9821207949266579
  0
ARC
  5
E462
  8
0
 10
845.1548941232838388
 20
136.3703696472067008
 30
0.0
 40
0.059
 50
9.6333153043901181
 51
80.3666385563307415
  0
ARC
  5
E463
  8
0
 10
840.5552464813557663
 20
135.5896461800357997
 30
0.0
 40
4.7244354097001731
 50
350.3666826183110743
 51
9.6333153043901181
  0
LINE
  5
E464
  8
0
 10
842.9450367399060724
 20
134.5975201956356955
 30
0.0
 11
843.9135407928060886
 21
134.5975201956356955
 31
0.0
  0
LINE
  5
E465
  8
0
 10
842.9450367399060724
 20
134.5975201956356955
 30
0.0
 11
842.9253517585061672
 21
134.6172051747356875
 31
0.0
  0
LINE
  5
E466
  8
0
 10
842.9253517585061672
 20
134.5417434413357967
 30
0.0
 11
843.9332257742059937
 21
134.5417434413357967
 31
0.0
  0
LINE
  5
E467
  8
0
 10
842.990312388406096
 20
134.5417434413357967
 30
0.0
 11
842.990312388406096
 21
134.5975201956356955
 31
0.0
  0
LINE
  5
E468
  8
0
 10
842.9253517585061672
 20
134.1992439384571014
 30
0.0
 11
842.9253517585061672
 21
134.5417434413357967
 31
0.0
  0
LINE
  5
E469
  8
0
 10
842.8181024949327593
 20
134.1293367877277092
 30
0.0
 11
842.9007112582794434
 21
134.1627128945841889
 31
0.0
  0
LINE
  5
E46A
  8
0
 10
842.7934619947061492
 20
133.9236631264357129
 30
0.0
 11
842.7934619947061492
 21
134.0928057438547967
 31
0.0
  0
LINE
  5
E46B
  8
0
 10
842.8328619947061497
 20
133.8842631264357124
 30
0.0
 11
844.0257155380061249
 21
133.8842631264357124
 31
0.0
  0
LINE
  5
E46C
  8
0
 10
843.1107406261605774
 20
132.6958184728356969
 30
0.0
 11
843.7478369065518109
 21
132.6958184728356969
 31
0.0
  0
LINE
  5
E46D
  8
0
 10
843.0321251887479548
 20
132.7708711449901955
 30
0.0
 11
842.9814261991655258
 21
133.8636501358568864
 31
0.0
  0
ARC
  5
E46E
  8
0
 10
843.1107406261605774
 20
132.7745184728358083
 30
0.0
 40
0.0787
 50
182.6563071429405909
 51
270.0
  0
ARC
  5
E46F
  8
0
 10
843.0011050316561523
 20
133.8645631264357121
 30
0.0
 40
0.0197
 50
90.0
 51
182.6563071429405909
  0
ARC
  5
E470
  8
0
 10
842.8328619947061497
 20
133.9236631264357129
 30
0.0
 40
0.0394
 50
180.0
 51
270.0
  0
ARC
  5
E471
  8
0
 10
842.8328619947061497
 20
134.0928057438547967
 30
0.0
 40
0.0394
 50
111.999999988493002
 51
180.0
  0
ARC
  5
E472
  8
0
 10
842.885951758506053
 20
134.1992439384571014
 30
0.0
 40
0.0394
 50
291.9999999884868771
 51
0.0
  0
LINE
  5
E473
  8
0
 10
843.9135407928060886
 20
134.5975201956356955
 30
0.0
 11
843.9332257742059937
 21
134.6172051747356875
 31
0.0
  0
LINE
  5
E474
  8
0
 10
843.8682651443060649
 20
134.5417434413357967
 30
0.0
 11
843.8682651443060649
 21
134.5975201956356955
 31
0.0
  0
LINE
  5
E475
  8
0
 10
843.9332257742059937
 20
134.1992439384571014
 30
0.0
 11
843.9332257742059937
 21
134.5417434413357967
 31
0.0
  0
LINE
  5
E476
  8
0
 10
844.0404750377794016
 20
134.1293367877277092
 30
0.0
 11
843.9578662744329449
 21
134.1627128945841889
 31
0.0
  0
LINE
  5
E477
  8
0
 10
844.0651155380061255
 20
133.9236631264357129
 30
0.0
 11
844.0651155380061255
 21
134.0928057438547967
 31
0.0
  0
LINE
  5
E478
  8
0
 10
843.8264523439643199
 20
132.7708711449901955
 30
0.0
 11
843.8771513335468626
 21
133.8636501358568864
 31
0.0
  0
ARC
  5
E479
  8
0
 10
843.7478369065518109
 20
132.7745184728358083
 30
0.0
 40
0.0787
 50
270.0
 51
357.3436928570594091
  0
ARC
  5
E47A
  8
0
 10
843.8574725010560087
 20
133.8645631264357121
 30
0.0
 40
0.0197
 50
357.3436928570594091
 51
90.0
  0
ARC
  5
E47B
  8
0
 10
844.0257155380061249
 20
133.9236631264357129
 30
0.0
 40
0.0394
 50
270.0
 51
0.0
  0
ARC
  5
E47C
  8
0
 10
844.0257155380061249
 20
134.0928057438547967
 30
0.0
 40
0.0394
 50
0.0
 51
68.0000000115069554
  0
ARC
  5
E47D
  8
0
 10
843.9726257742059943
 20
134.1992439384571014
 30
0.0
 40
0.0394
 50
180.0
 51
248.0000000115130945
  0
LINE
  5
E47E
  8
0
 10
842.8180837960873077
 20
134.129329227335802
 30
0.0
 11
844.0404937366248532
 21
134.129329227335802
 31
0.0
  0
LINE
  5
E47F
  8
0
 10
842.900729957025078
 20
134.1627204549357089
 30
0.0
 11
843.957847575687083
 21
134.1627204549357089
 31
0.0
  0
LINE
  5
E480
  8
0
 10
843.9332257741560852
 20
134.7046575805115083
 30
0.0
 11
843.9332257741560852
 21
134.6172051746858074
 31
0.0
  0
LINE
  5
E481
  8
0
 10
842.925351758456145
 20
134.8870595209583882
 30
0.0
 11
842.925351758456145
 21
134.617205174785795
 31
0.0
  0
LINE
  5
E482
  8
0
 10
842.9253517585061672
 20
134.6172051747356875
 30
0.0
 11
843.9332257742059937
 21
134.6172051747356875
 31
0.0
  0
LINE
  5
E483
  8
0
 10
847.5942887663561578
 20
154.9006931182358073
 30
0.0
 11
847.6442887663559986
 21
154.9006931182358073
 31
0.0
  0
LINE
  5
E484
  8
0
 10
847.5942887663561578
 20
152.4606931182358096
 30
0.0
 11
847.6442887663559986
 21
152.4606931182358096
 31
0.0
  0
LINE
  5
E485
  8
0
 10
846.3042887663560805
 20
153.0529179087577063
 30
0.0
 11
846.3042887663560805
 21
154.308468327713797
 31
0.0
  0
LINE
  5
E486
  8
0
 10
847.6792887663560805
 20
152.4956931182356925
 30
0.0
 11
847.6792887663560805
 21
154.8656931182356971
 31
0.0
  0
LINE
  5
E487
  8
0
 10
847.5592887663560759
 20
152.4956931182356925
 30
0.0
 11
847.5592887663560759
 21
154.8656931182356971
 31
0.0
  0
LINE
  5
E488
  8
0
 10
847.5192958705234787
 20
152.5656931182357994
 30
0.0
 11
847.5292435062885943
 21
152.5656931182357994
 31
0.0
  0
ARC
  5
E489
  8
0
 10
847.5292661363312163
 20
152.5356362683156135
 30
0.0
 40
0.0300568584393058
 50
2.7346418166994431
 51
90.0431384423493029
  0
ARC
  5
E48A
  8
0
 10
847.5942887663561578
 20
152.4956931182356925
 30
0.0
 40
0.035
 50
180.0
 51
269.9999999999869829
  0
ARC
  5
E48B
  8
0
 10
847.6442887663559986
 20
152.4956931182356925
 30
0.0
 40
0.035
 50
270.0
 51
0.0
  0
ARC
  5
E48C
  8
0
 10
847.6442887663559986
 20
154.8656931182356971
 30
0.0
 40
0.035
 50
0.0000000000065138
 51
89.9999999999869686
  0
ARC
  5
E48D
  8
0
 10
847.5942887663561578
 20
154.8656931182356971
 30
0.0
 40
0.035
 50
90.0000000000130314
 51
179.9999999999934914
  0
ARC
  5
E48E
  8
0
 10
843.9678354913291969
 20
144.842005598128992
 30
0.0
 40
8.5010716814552012
 50
65.3063617683240523
 51
71.7200011520355218
  0
ARC
  5
E48F
  8
0
 10
843.9648360775072433
 20
144.8329255772094086
 30
0.0
 40
8.5106342785488724
 50
71.7200011520355218
 51
73.7983036494085525
  0
ARC
  5
E490
  8
0
 10
846.3530851582338528
 20
153.052424493477389
 30
0.0
 40
0.0487988864523331
 50
179.4206610662257901
 51
253.7983036494084956
  0
LINE
  5
E491
  8
0
 10
847.5192958705234787
 20
154.7956931182357039
 30
0.0
 11
847.5292435062885943
 21
154.7956931182357039
 31
0.0
  0
ARC
  5
E492
  8
0
 10
847.5292661363312163
 20
154.8257499681558897
 30
0.0
 40
0.0300568584393058
 50
269.9568615576507113
 51
357.2653581833022258
  0
ARC
  5
E493
  8
0
 10
843.9678354913291969
 20
162.5193806383423976
 30
0.0
 40
8.5010716814552012
 50
288.2799988479645208
 51
294.6936382316760046
  0
ARC
  5
E494
  8
0
 10
843.9648360775072433
 20
162.5284606592620946
 30
0.0
 40
8.5106342785488724
 50
286.2016963505914759
 51
288.2799988479645208
  0
ARC
  5
E495
  8
0
 10
846.3530851582338528
 20
154.3089617429940859
 30
0.0
 40
0.0487988864523331
 50
106.2016963505914049
 51
180.5793389337740962
  0
ARC
  5
E496
  8
0
 10
845.9763903144505548
 20
152.7908595739471878
 30
0.0
 40
0.6423537740545401
 50
11.9383615893599302
 51
59.3052611026400527
  0
ARC
  5
E497
  8
0
 10
845.9953659229200866
 20
154.5540876825535008
 30
0.0
 40
0.6185585304103501
 50
299.9618853389023911
 51
349.0847523712714064
  0
LINE
  5
E498
  8
0
 10
847.6792887663560805
 20
136.8888587714789082
 30
0.0
 11
847.6792887663560805
 21
134.2904335815356944
 31
0.0
  0
LINE
  5
E499
  8
0
 10
846.4391312860560674
 20
136.3770477507572991
 30
0.0
 11
846.4391312860560674
 21
134.8022446022573035
 31
0.0
  0
LINE
  5
E49A
  8
0
 10
846.5414650941777381
 20
136.4987315627035969
 30
0.0
 11
846.7811455833113996
 21
136.5071013897523073
 31
0.0
  0
LINE
  5
E49B
  8
0
 10
845.2769258377816186
 20
136.298307593657313
 30
0.0
 11
845.7835785301560918
 21
136.298307593657313
 31
0.0
  0
LINE
  5
E49C
  8
0
 10
845.8111785301563259
 20
136.2707075936573062
 30
0.0
 11
845.8111785301563259
 21
134.9085847593572964
 31
0.0
  0
LINE
  5
E49D
  8
0
 10
845.8485801049562269
 20
136.2786225578358028
 30
0.0
 11
845.8485801049562269
 21
134.9006698019356918
 31
0.0
  0
LINE
  5
E49E
  8
0
 10
845.8682651443560871
 20
136.298307593657313
 30
0.0
 11
845.8682651475345438
 21
134.8809847593572897
 31
0.0
  0
ARC
  5
E49F
  8
0
 10
845.7835785301560918
 20
136.2707075936573062
 30
0.0
 40
0.0276
 50
0.0000000000032569
 51
89.9999999999804601
  0
LINE
  5
E4A0
  8
0
 10
845.8682651406776358
 20
136.298307593657313
 30
0.0
 11
846.4391312860560674
 21
136.298307593657313
 31
0.0
  0
LINE
  5
E4A1
  8
0
 10
846.4391312860560674
 20
136.3770477507572991
 30
0.0
 11
846.4923455530615684
 21
136.4692175648401076
 31
0.0
  0
ARC
  5
E4A2
  8
0
 10
846.543527654417062
 20
136.4396675648262089
 30
0.0
 40
0.0591
 50
91.9999999846934742
 51
149.9999999844133072
  0
LINE
  5
E4A3
  8
0
 10
847.6792887663560805
 20
136.8888587714789082
 30
0.0
 11
847.454239851367447
 21
136.8809998934528096
 31
0.0
  0
ARC
  5
E4A4
  8
0
 10
846.7536656648561575
 20
137.2940233008573045
 30
0.0
 40
0.7874015747999925
 50
271.999999999997101
 51
326.1036457293686794
  0
ARC
  5
E4A5
  8
0
 10
847.4563024116278029
 20
136.8219358955761891
 30
0.0
 40
0.0591
 50
92.0000000050158064
 51
146.1036457294071909
  0
LINE
  5
E4A6
  8
0
 10
846.5414650941777381
 20
134.6805607903110058
 30
0.0
 11
846.7811455833113996
 21
134.6721909632622953
 31
0.0
  0
LINE
  5
E4A7
  8
0
 10
845.2768716622757665
 20
134.8809847593572897
 30
0.0
 11
845.7835785301560918
 21
134.8809847593572897
 31
0.0
  0
ARC
  5
E4A8
  8
0
 10
845.7835785301560918
 20
134.9085847593572964
 30
0.0
 40
0.0276
 50
270.0000000000130171
 51
359.9999999999968168
  0
LINE
  5
E4A9
  8
0
 10
845.8682651475345438
 20
134.8809847593572897
 30
0.0
 11
846.4391312860560674
 21
134.8809847593572897
 31
0.0
  0
LINE
  5
E4AA
  8
0
 10
846.4391312860560674
 20
134.8022446022573035
 30
0.0
 11
846.4923455530615684
 21
134.7100747881744098
 31
0.0
  0
ARC
  5
E4AB
  8
0
 10
846.543527654417062
 20
134.7396247881883085
 30
0.0
 40
0.0591
 50
210.0000000155866928
 51
268.0000000153065116
  0
LINE
  5
E4AC
  8
0
 10
847.6792887663560805
 20
134.2904335815356944
 30
0.0
 11
847.454239851367447
 21
134.2982924595617078
 31
0.0
  0
ARC
  5
E4AD
  8
0
 10
846.7536656648561575
 20
133.8852690521572981
 30
0.0
 40
0.7874015747999925
 50
33.8963542706313135
 51
88.0000000000028564
  0
ARC
  5
E4AE
  8
0
 10
847.4563024116278029
 20
134.3573564574382999
 30
0.0
 40
0.0591
 50
213.8963542705928091
 51
267.9999999949841936
  0
LINE
  5
E4AF
  8
0
 10
845.8485801049562269
 20
135.1664178298572949
 30
0.0
 11
845.8111785301563259
 21
135.1664178298572949
 31
0.0
  0
LINE
  5
E4B0
  8
0
 10
845.8485801049562269
 20
136.0128745227573006
 30
0.0
 11
845.8111785301563259
 21
136.0128745227573006
 31
0.0
  0
LINE
  5
E4B1
  8
0
 10
847.4072584782561535
 20
136.8549131998844928
 30
0.0
 11
847.4072584782561535
 21
134.3243791531301099
 31
0.0
  0
ARC
  5
E4B2
  8
0
 10
845.2768349002446939
 20
134.8215745329625861
 30
0.0
 40
0.0594102377681182
 50
89.9645463568055703
 51
166.1679120222306096
  0
ARC
  5
E4B3
  8
0
 10
845.2769355741174877
 20
136.3578956893991005
 30
0.0
 40
0.0595880965375342
 50
194.3861037138757126
 51
269.9906382148345187
  0
LINE
  5
E4B4
  8
0
 10
845.8485801049562269
 20
134.9006698019356918
 30
0.0
 11
845.8682651475345438
 21
134.8809847593572897
 31
0.0
  0
LINE
  5
E4B5
  8
0
 10
845.8485801049562269
 20
136.2786225578358028
 30
0.0
 11
845.8682651406776358
 21
136.298307593657313
 31
0.0
  0
ARC
  5
E4B6
  8
0
 10
850.2721871619087324
 20
135.5899087042963913
 30
0.0
 40
5.0454298005599201
 50
176.6927217553563878
 51
183.3132460194728992
  0
ARC
  5
E4B7
  8
0
 10
843.6589812372338884
 20
135.5895642973939061
 30
0.0
 40
1.602893178149013
 50
349.5308534047002809
 51
10.4751143701284306
  0
ARC
  5
E4B8
  8
0
 10
844.3743842057109532
 20
131.7761945529445029
 30
0.0
 40
4.6519244163661257
 50
88.2075055361796672
 51
99.044806534094306
  0
ARC
  5
E4B9
  8
0
 10
848.1667865774736583
 20
135.5891567739907089
 30
0.0
 40
4.6310844161366163
 50
170.9054004443885049
 51
189.0818521817213025
  0
ARC
  5
E4BA
  8
0
 10
843.6523766478331936
 20
136.3118116720422961
 30
0.0
 40
0.0592
 50
99.044806534094306
 51
170.9054004443885049
  0
ARC
  5
E4BB
  8
0
 10
844.3741706561061164
 20
139.402861488811709
 30
0.0
 40
4.65165745304264
 50
260.9553313438577788
 51
269.0496623964764922
  0
ARC
  5
E4BC
  8
0
 10
844.3741706561061164
 20
139.402861488811709
 30
0.0
 40
4.65165745304264
 50
276.3216404572727924
 51
279.0479308999862269
  0
ARC
  5
E4BD
  8
0
 10
843.6522159806678474
 20
134.8675062761938932
 30
0.0
 40
0.0592
 50
189.0818521817197109
 51
260.9553313438577788
  0
ARC
  5
E4BE
  8
0
 10
840.5561946592312097
 20
135.5888543480027977
 30
0.0
 40
4.6563294280175578
 50
350.972774349324709
 51
9.0481621620758403
  0
ARC
  5
E4BF
  8
0
 10
845.0963835594227476
 20
134.8675473894035974
 30
0.0
 40
0.0592
 50
279.0479308999862269
 51
350.972774349324709
  0
ARC
  5
E4C0
  8
0
 10
845.0966796337055484
 20
136.3119094637123965
 30
0.0
 40
0.0586329935210375
 50
9.0481621620821269
 51
81.6781782267388934
  0
LINE
  5
E4C1
  8
0
 10
846.2619659316560501
 20
135.2649921936356918
 30
0.0
 11
845.868265146673366
 21
135.2649921936356918
 31
0.0
  0
LINE
  5
E4C2
  8
0
 10
846.2619659316560501
 20
135.9143001661356891
 30
0.0
 11
845.8682651452172649
 21
135.9143001661356891
 31
0.0
  0
LINE
  5
E4C3
  8
0
 10
846.2619659316560501
 20
135.2649921936356918
 30
0.0
 11
846.2619659316560501
 21
135.9143001661356891
 31
0.0
  0
ARC
  5
E4C4
  8
0
 10
845.3116134263630101
 20
135.5896461798857899
 30
0.0
 40
1.0042759058669211
 50
341.1391002939623149
 51
18.8608997060376815
  0
LINE
  5
E4C5
  8
0
 10
843.1280521804878845
 20
132.6958184728356969
 30
0.0
 11
843.1280521804878845
 21
124.3339013867368976
 31
0.0
  0
ARC
  5
E4C6
  8
0
 10
881.9783747024516742
 20
122.0576312851646037
 30
0.0
 40
38.9169495931519478
 50
174.1325196348840052
 51
178.194072472146587
  0
ARC
  5
E4C7
  8
0
 10
1170.4037567888169633
 20
92.4172089464759949
 30
0.0
 40
328.861350587690481
 50
173.5749661095881891
 51
174.1325196348840052
  0
ARC
  5
E4C8
  8
0
 10
1057.0605318723419259
 20
105.1808365218276009
 30
0.0
 40
214.8017309874610135
 50
172.6281970124099985
 51
173.5749661095881891
  0
ARC
  5
E4C9
  8
0
 10
1613.9186733581600492
 20
33.1362432751687095
 30
0.0
 40
776.3009858000707482
 50
172.2602065873331867
 51
172.6281970124099985
  0
ARC
  5
E4CA
  8
0
 10
1227.5219577912389468
 20
85.6524230140157101
 30
0.0
 40
386.3517956031087124
 50
171.5456663613558135
 51
172.2602065873331867
  0
ARC
  5
E4CB
  8
0
 10
812.9905035968851053
 20
147.2668312320107873
 30
0.0
 40
32.7337109663021479
 50
351.5456663613558135
 51
359.7380909488833822
  0
ARC
  5
E4CC
  8
0
 10
830.1391991078045294
 20
147.1884409929540993
 30
0.0
 40
15.5848362873093809
 50
359.7380909488833822
 51
12.4479106204903101
  0
ARC
  5
E4CD
  8
0
 10
832.1381008507713659
 20
147.6296806444522929
 30
0.0
 40
13.5378139112494207
 50
12.4479106204903101
 51
21.8053747485907792
  0
ARC
  5
E4CE
  8
0
 10
830.529510562455016
 20
147.1451527807514879
 30
0.0
 40
15.8150668741294602
 50
12.2958376889138901
 51
21.2015709685739502
  0
ARC
  5
E4CF
  8
0
 10
830.9746843985162741
 20
147.2421824970288071
 30
0.0
 40
15.3594414686105392
 50
358.08071480242711
 51
12.2958376889138901
  0
ARC
  5
E4D0
  8
0
 10
801.7090244292744501
 20
148.2228859123219138
 30
0.0
 40
44.6415286999545415
 50
352.3346560189215779
 51
358.08071480242711
  0
ARC
  5
E4D1
  8
0
 10
559.6776872060110009
 20
180.7977471186841001
 30
0.0
 40
288.8551437599975884
 50
351.4349955738304061
 51
352.3346560189215779
  0
ARC
  5
E4D2
  8
0
 10
1017.6529693215959469
 20
111.8215950484563024
 30
0.0
 40
174.2852977728761061
 50
171.4349955738302924
 51
173.674422168495397
  0
ARC
  5
E4D3
  8
0
 10
385.0248316856810789
 20
181.9502641674276049
 30
0.0
 40
462.2179549769309119
 50
353.2091026713097222
 51
353.6744221684954255
  0
ARC
  5
E4D4
  8
0
 10
878.8511512804085442
 20
123.1446096478850052
 30
0.0
 40
35.0973765059682634
 50
173.2091026713096937
 51
174.98418732707961
  0
ARC
  5
E4D5
  8
0
 10
916.5129037423764657
 20
119.8391594360654011
 30
0.0
 40
72.9039050375506434
 50
174.98418732707961
 51
177.2517318056189879
  0
ARC
  5
E4D6
  8
0
 10
843.3871362531727982
 20
123.305378797082696
 30
0.0
 40
0.3071216766723049
 50
183.9791864801395036
 51
5.4880464911697668
  0
LINE
  5
E4D7
  8
0
 10
843.7299875065098149
 20
132.6958184728356969
 30
0.0
 11
843.734341459909615
 21
130.3148795576865098
 31
0.0
  0
ARC
  5
E4D8
  8
0
 10
637.2671741647742465
 20
73.2634543623008625
 30
0.0
 40
221.9538128130787129
 50
21.2561788323900203
 51
22.4060062220010003
  0
ARC
  5
E4D9
  8
0
 10
844.1395576926296371
 20
153.7374086834466027
 30
0.0
 40
0.0197
 50
201.2561788323764915
 51
290.0000000036566234
  0
ARC
  5
E4DA
  8
0
 10
840.2752998233380595
 20
161.2695666045725886
 30
0.0
 40
0.7730632096433889
 50
109.9176318404245052
 51
126.1956196850439937
  0
ARC
  5
E4DB
  8
0
 10
840.0417159029111644
 20
161.8975039543601042
 30
0.0
 40
0.1032692415788267
 50
67.3011236466903853
 51
106.7574494831960976
  0
ARC
  5
E4DC
  8
0
 10
836.8571491975599201
 20
156.693778628563507
 30
0.0
 40
6.2029205302494539
 50
33.9872362777347377
 51
58.6796605424243864
  0
ARC
  5
E4DD
  8
0
 10
824.8416132840694672
 20
147.5218529174678963
 30
0.0
 40
21.3114476489844513
 50
32.8917472714889101
 51
36.375933155972433
  0
ARC
  5
E4DE
  8
0
 10
827.8493314106284515
 20
150.1202689648982016
 30
0.0
 40
17.3834501348218389
 50
22.0927756518939091
 51
31.0834842098412913
  0
ARC
  5
E4DF
  8
0
 10
1138.1400613911189339
 20
277.4401103437737106
 30
0.0
 40
318.0129826564050859
 50
202.3213854542439947
 51
202.8275247974256956
  0
ARC
  5
E4E0
  8
0
 10
845.0166896287083773
 20
154.0566585997669904
 30
0.0
 40
0.0197
 50
290.0000000036703796
 51
22.8275247974910407
  0
ARC
  5
E4E1
  8
0
 10
840.3390534133809524
 20
161.1772541975188915
 30
0.0
 40
0.8852144310586623
 50
125.997233606152605
 51
140.2201627850687089
  0
ARC
  5
E4E2
  8
0
 10
839.7206992004937547
 20
161.6920789560244884
 30
0.0
 40
0.0805987062772547
 50
140.2201627850664067
 51
192.105553615022302
  0
LINE
  5
E4E3
  8
0
 10
839.6418927745735346
 20
161.6751763323456998
 30
0.0
 11
839.6664175838451456
 21
161.5676597497298985
 31
0.0
  0
ARC
  5
E4E4
  8
0
 10
839.6817394643052239
 20
161.5712984198148092
 30
0.0
 40
0.0157480314999591
 50
193.4428888014537051
 51
213.6884534029371139
  0
ARC
  5
E4E5
  8
0
 10
842.4283437210418697
 20
157.8485735430631962
 30
0.0
 40
0.0400031436999985
 50
24.2260473316226594
 51
97.4573584004205742
  0
ARC
  5
E4E6
  8
0
 10
842.4127475857085301
 20
157.9677231163310012
 30
0.0
 40
0.0801628258888624
 50
239.452916168557806
 51
277.4573584004206168
  0
LINE
  5
E4E7
  8
0
 10
842.3720051300065279
 20
157.8986859454890919
 30
0.0
 11
842.2739077425774212
 21
157.9579634447987075
 31
0.0
  0
ARC
  5
E4E8
  8
0
 10
842.2821959576775726
 20
157.9713510858850043
 30
0.0
 40
0.015745556032824
 50
215.8414901141987059
 51
238.3252041784583923
  0
LINE
  5
E4E9
  8
0
 10
842.2696007977936006
 20
157.9618881486262865
 30
0.0
 11
839.6688048818781454
 21
161.5623201446954909
 31
0.0
  0
LINE
  5
E4EA
  8
0
 10
839.6864155038492754
 20
161.5379407435945893
 30
0.0
 11
839.6800820429364194
 21
161.5333143961553901
 31
0.0
  0
ARC
  5
E4EB
  8
0
 10
839.6870494442877089
 20
161.5237760368549118
 30
0.0
 40
0.0118120692403003
 50
126.1466786885891054
 51
200.1365390593294933
  0
LINE
  5
E4EC
  8
0
 10
839.6759593889596545
 20
161.5197096314944076
 30
0.0
 11
839.7781004006334342
 21
161.2526474181761102
 31
0.0
  0
LINE
  5
E4ED
  8
0
 10
839.7553038694753695
 20
161.3122488512165944
 30
0.0
 11
839.7148485209819455
 21
161.2733951918710034
 31
0.0
  0
ARC
  5
E4EE
  8
0
 10
839.7312120248046767
 20
161.256357124907197
 30
0.0
 40
0.0236232932339083
 50
133.8430374132796885
 51
215.8085454848414031
  0
LINE
  5
E4EF
  8
0
 10
839.7120540875948791
 20
161.2425356407219112
 30
0.0
 11
839.8001367472953689
 21
161.1204444064389065
 31
0.0
  0
ARC
  5
E4F0
  8
0
 10
839.8192640871100139
 20
161.1342438161487962
 30
0.0
 40
0.0235855641595388
 50
215.8085454848302902
 51
294.1977852015534722
  0
LINE
  5
E4F1
  8
0
 10
839.8289315215266697
 20
161.1127305749118079
 30
0.0
 11
839.8489919719262389
 21
161.1216233225312067
 31
0.0
  0
ARC
  5
E4F2
  8
0
 10
839.8488419381518497
 20
161.1219535978501938
 30
0.0
 40
0.0003636475115623
 50
294.4261836857506864
 51
331.5146866261350738
  0
ARC
  5
E4F3
  8
0
 10
839.8289462560163656
 20
161.1218852654710076
 30
0.0
 40
0.0202155794830901
 50
359.702110827896604
 51
18.38554140492651
  0
ARC
  5
E4F4
  8
0
 10
839.063851617348746
 20
160.8728155003146014
 30
0.0
 40
0.8248303634521391
 50
18.0408590073730402
 51
28.2791552909550816
  0
ARC
  5
E4F5
  8
0
 10
839.7898557364078442
 20
161.2632252667690977
 30
0.0
 40
0.0005310589661018
 50
43.9158833716685777
 51
135.0552031739734957
  0
LINE
  5
E4F6
  8
0
 10
839.7894798593855512
 20
161.2636004201904996
 30
0.0
 11
839.7496137775814304
 21
161.225221693555909
 31
0.0
  0
ARC
  5
E4F7
  8
0
 10
839.7661743383082467
 20
161.2081166830488996
 30
0.0
 40
0.0238082665483258
 50
134.0734761287058916
 51
211.8847344647186048
  0
ARC
  5
E4F8
  8
0
 10
-25384.9670752062811516
 20
-18783.0075607468388625
 30
0.0
 40
32352.2211409195406304
 50
35.8363173776849635
 51
35.8443828285582811
  0
ARC
  5
E4F9
  8
0
 10
842.8966836801110958
 20
158.4082287594812897
 30
0.0
 40
0.1832436956082987
 50
215.8363173776849919
 51
240.6368668344505011
  0
ARC
  5
E4FA
  8
0
 10
842.6840106617012225
 20
158.0302264576374114
 30
0.0
 40
0.2504792032094021
 50
23.7336157806398411
 51
60.6368668344505224
  0
ARC
  5
E4FB
  8
0
 10
841.4436803178952005
 20
157.4848913443576066
 30
0.0
 40
1.605399771929892
 50
18.6484236245398804
 51
23.7336157806398411
  0
ARC
  5
E4FC
  8
0
 10
780.8066108679781792
 20
130.0400305422730867
 30
0.0
 40
68.1564443932425235
 50
20.4938110543864198
 51
24.2177957171072116
  0
LINE
  5
E4FD
  8
0
 10
842.2519898357928696
 20
157.9862680204496996
 30
0.0
 11
842.1881704996119424
 21
157.9406740670042097
 31
0.0
  0
ARC
  5
E4FE
  8
0
 10
839.7014218787538766
 20
156.1187726142102008
 30
0.0
 40
3.082733139120398
 50
33.4869927997220671
 51
36.2281454927189088
  0
ARC
  5
E4FF
  8
0
 10
841.917019117802738
 20
157.5678037379298075
 30
0.0
 40
0.43562409008121
 50
24.0968555224730494
 51
35.3211112507922635
  0
ARC
  5
E500
  8
0
 10
842.0538600320162459
 20
157.6239482442258009
 30
0.0
 40
0.2878223036051023
 50
357.7305633835202912
 51
25.0160996022484596
  0
ARC
  5
E501
  8
0
 10
842.2072687241216045
 20
157.6193214713044881
 30
0.0
 40
0.1343585637075928
 50
324.7236664962043164
 51
357.11150900839408
  0
ARC
  5
E502
  8
0
 10
842.1882525270059432
 20
157.6792170310947085
 30
0.0
 40
0.1883299025164113
 50
256.1758015782340863
 51
313.1093543014729903
  0
ARC
  5
E503
  8
0
 10
842.1759702145313895
 20
157.7819536128901063
 30
0.0
 40
0.2874790928819727
 50
202.5542645073591927
 51
263.4650247232049196
  0
ARC
  5
E504
  8
0
 10
842.5120070029969384
 20
157.870457164434896
 30
0.0
 40
0.6335183480832866
 50
168.3527029833944937
 51
198.2855738028478072
  0
ARC
  5
E505
  8
0
 10
840.1202175572627766
 20
158.1972992811010954
 30
0.0
 40
1.782452954079222
 50
353.5917452742692717
 51
357.2645010037555835
  0
ARC
  5
E506
  8
0
 10
865.2259127569207067
 20
158.4462845547687095
 30
0.0
 40
23.3276653097213114
 50
180.5513295142532115
 51
180.8205066983823883
  0
LINE
  5
E507
  8
0
 10
839.89034243103265
 20
161.1211656477478869
 30
0.0
 11
839.8517184655056553
 21
161.0837391632061042
 31
0.0
  0
ARC
  5
E508
  8
0
 10
839.8681612933785345
 20
161.0667702379998047
 30
0.0
 40
0.0236286057800747
 50
134.0979022870347137
 51
217.1228711686667054
  0
LINE
  5
E509
  8
0
 10
839.8493211881071829
 20
161.0525097525776062
 30
0.0
 11
839.900936070065768
 21
160.9810565613869926
 31
0.0
  0
ARC
  5
E50A
  8
0
 10
839.9215821463129714
 20
160.9934225562552115
 30
0.0
 40
0.0240661233578888
 50
210.9195564946155912
 51
293.4405030867833943
  0
LINE
  5
E50B
  8
0
 10
839.9311555674769352
 20
160.9713425222720957
 30
0.0
 11
839.9516860332771557
 21
160.9805213632274103
 31
0.0
  0
ARC
  5
E50C
  8
0
 10
839.9470196719169053
 20
160.9921057459754081
 30
0.0
 40
0.012488909159518
 50
291.9403078711250146
 51
296.5769623715734724
  0
ARC
  5
E50D
  8
0
 10
839.9519534787524435
 20
160.9820222632652076
 30
0.0
 40
0.0012673854712654
 50
301.0513547183288097
 51
333.2592120312287989
  0
ARC
  5
E50E
  8
0
 10
839.9055000970236051
 20
160.9835679065355976
 30
0.0
 40
0.0476322414240848
 50
357.4539809852954022
 51
20.2447897757958692
  0
ARC
  5
E50F
  8
0
 10
839.4056971210980009
 20
160.8240200554762964
 30
0.0
 40
0.5722401838258683
 50
17.9156057584365094
 51
29.5045702260095091
  0
ARC
  5
E510
  8
0
 10
839.8454452010364548
 20
161.0741709627920102
 30
0.0
 40
0.0663324005626309
 50
28.5219024320054793
 51
44.6914352948900131
  0
ARC
  5
E511
  8
0
 10
839.891274258179692
 20
161.1196967699754907
 30
0.0
 40
0.0017396652781199
 50
40.2916145449240304
 51
122.3592624269923022
  0
LINE
  5
E512
  8
0
 10
839.9299988506234058
 20
160.9549584704957965
 30
0.0
 11
839.8913748850962975
 21
160.9175319859540139
 31
0.0
  0
ARC
  5
E513
  8
0
 10
839.907817712969063
 20
160.900563060747686
 30
0.0
 40
0.0236286057800747
 50
134.0979022870347137
 51
217.1228711686667054
  0
LINE
  5
E514
  8
0
 10
839.8889776076979388
 20
160.8863025753254874
 30
0.0
 11
839.9405924896566376
 21
160.8148493841349023
 31
0.0
  0
ARC
  5
E515
  8
0
 10
839.9612385659036136
 20
160.8272153790030075
 30
0.0
 40
0.0240661233578888
 50
210.9195564946155912
 51
293.4405030867833943
  0
LINE
  5
E516
  8
0
 10
839.9708119870674636
 20
160.8051353450200054
 30
0.0
 11
839.9913424528675705
 21
160.8143141859754053
 31
0.0
  0
ARC
  5
E517
  8
0
 10
839.9866760915075474
 20
160.8258985687232894
 30
0.0
 40
0.012488909159518
 50
291.9403078711250146
 51
296.5769623715734724
  0
ARC
  5
E518
  8
0
 10
839.9916098983434267
 20
160.8158150860130888
 30
0.0
 40
0.0012673854712654
 50
301.0513547183288097
 51
333.2592120312287989
  0
ARC
  5
E519
  8
0
 10
839.9451565166142473
 20
160.8173607292835072
 30
0.0
 40
0.0476322414240848
 50
357.4539809852954022
 51
20.2447897757958692
  0
ARC
  5
E51A
  8
0
 10
839.4453535406887568
 20
160.6578128782240924
 30
0.0
 40
0.5722401838258683
 50
17.9156057584365094
 51
29.5045702260095091
  0
ARC
  5
E51B
  8
0
 10
839.8851016206269833
 20
160.9079637855398914
 30
0.0
 40
0.0663324005626309
 50
28.5219024320054793
 51
44.6914352948900131
  0
ARC
  5
E51C
  8
0
 10
839.9309306777704478
 20
160.9534895927234004
 30
0.0
 40
0.0017396652781199
 50
40.2916145449240304
 51
122.3592624269923022
  0
LINE
  5
E51D
  8
0
 10
840.0568811269766911
 20
160.896827579162391
 30
0.0
 11
840.0182571614498102
 21
160.8594010946206936
 31
0.0
  0
ARC
  5
E51E
  8
0
 10
840.0346999893225757
 20
160.8424321694143941
 30
0.0
 40
0.0236286057800747
 50
134.0979022870347137
 51
217.1228711686667054
  0
LINE
  5
E51F
  8
0
 10
840.0158598840512241
 20
160.8281716839921955
 30
0.0
 11
840.0674747660101502
 21
160.7567184928016104
 31
0.0
  0
ARC
  5
E520
  8
0
 10
840.0881208422568989
 20
160.7690844876698009
 30
0.0
 40
0.0240661233578888
 50
210.9195564946155912
 51
293.4405030867833943
  0
LINE
  5
E521
  8
0
 10
840.0976942634209763
 20
160.7470044536865998
 30
0.0
 11
840.1182247292210832
 21
160.7561832946419997
 31
0.0
  0
ARC
  5
E522
  8
0
 10
840.1135583678609464
 20
160.7677676773899123
 30
0.0
 40
0.012488909159518
 50
291.9403078711250146
 51
296.5769623715734724
  0
ARC
  5
E523
  8
0
 10
840.118492174696712
 20
160.757684194679797
 30
0.0
 40
0.0012673854712654
 50
301.0513547183288097
 51
333.2592120312287989
  0
ARC
  5
E524
  8
0
 10
840.0720387929675326
 20
160.7592298379501017
 30
0.0
 40
0.0476322414240848
 50
357.4539809852954022
 51
20.2447897757958692
  0
ARC
  5
E525
  8
0
 10
839.5722358170421558
 20
160.5996819868908005
 30
0.0
 40
0.5722401838258683
 50
17.9156057584365094
 51
29.5045702260095091
  0
ARC
  5
E526
  8
0
 10
840.0119838969802686
 20
160.8498328942064859
 30
0.0
 40
0.0663324005626309
 50
28.5219024320054793
 51
44.6914352948900131
  0
ARC
  5
E527
  8
0
 10
840.0578129541238468
 20
160.8953587013901085
 30
0.0
 40
0.0017396652781199
 50
40.2916145449240304
 51
122.3592624269923022
  0
LINE
  5
E528
  8
0
 10
840.0347044130456879
 20
160.7902663929297091
 30
0.0
 11
839.996080447518807
 21
160.752839908387898
 31
0.0
  0
ARC
  5
E529
  8
0
 10
840.0125232753913451
 20
160.7358709831815986
 30
0.0
 40
0.0236286057800747
 50
134.0979022870347137
 51
217.1228711686667054
  0
LINE
  5
E52A
  8
0
 10
839.9936831701202209
 20
160.7216104977594
 30
0.0
 11
840.0452980520789197
 21
160.6501573065689001
 31
0.0
  0
ARC
  5
E52B
  8
0
 10
840.0659441283258957
 20
160.6625233014368916
 30
0.0
 40
0.0240661233578888
 50
210.9195564946155912
 51
293.4405030867833943
  0
LINE
  5
E52C
  8
0
 10
840.0755175494897458
 20
160.6404432674538896
 30
0.0
 11
840.0960480152899663
 21
160.6496221084092895
 31
0.0
  0
ARC
  5
E52D
  8
0
 10
840.0913816539297159
 20
160.661206491157202
 30
0.0
 40
0.012488909159518
 50
291.9403078711250146
 51
296.5769623715734724
  0
ARC
  5
E52E
  8
0
 10
840.0963154607657088
 20
160.6511230084470014
 30
0.0
 40
0.0012673854712654
 50
301.0513547183288097
 51
333.2592120312287989
  0
ARC
  5
E52F
  8
0
 10
840.0498620790365294
 20
160.6526686517173914
 30
0.0
 40
0.0476322414240848
 50
357.4539809852954022
 51
20.2447897757958692
  0
ARC
  5
E530
  8
0
 10
839.5500591031111526
 20
160.493120800658005
 30
0.0
 40
0.5722401838258683
 50
17.9156057584365094
 51
29.5045702260095091
  0
ARC
  5
E531
  8
0
 10
839.9898071830492654
 20
160.7432717079736904
 30
0.0
 40
0.0663324005626309
 50
28.5219024320054793
 51
44.6914352948900131
  0
ARC
  5
E532
  8
0
 10
840.0356362401928436
 20
160.788797515157313
 30
0.0
 40
0.0017396652781199
 50
40.2916145449240304
 51
122.3592624269923022
  0
LINE
  5
E533
  8
0
 10
840.0877932057336466
 20
160.6506152105538945
 30
0.0
 11
840.0491692402066519
 21
160.6131887260121971
 31
0.0
  0
ARC
  5
E534
  8
0
 10
840.0656120680794174
 20
160.5962198008058976
 30
0.0
 40
0.0236286057800747
 50
134.0979022870347137
 51
217.1228711686667054
  0
LINE
  5
E535
  8
0
 10
840.0467719628081795
 20
160.581959315383699
 30
0.0
 11
840.0983868447666509
 21
160.5105061241931139
 31
0.0
  0
ARC
  5
E536
  8
0
 10
840.1190329210137406
 20
160.5228721190613044
 30
0.0
 40
0.0240661233578888
 50
210.9195564946155912
 51
293.4405030867833943
  0
LINE
  5
E537
  8
0
 10
840.1286063421778181
 20
160.5007920850781034
 30
0.0
 11
840.1491368079780386
 21
160.5099709260335032
 31
0.0
  0
ARC
  5
E538
  8
0
 10
840.1444704466176745
 20
160.521555308781501
 30
0.0
 40
0.012488909159518
 50
291.9403078711250146
 51
296.5769623715734724
  0
ARC
  5
E539
  8
0
 10
840.1494042534535538
 20
160.5114718260713005
 30
0.0
 40
0.0012673854712654
 50
301.0513547183288097
 51
333.2592120312287989
  0
ARC
  5
E53A
  8
0
 10
840.102950871724488
 20
160.5130174693416052
 30
0.0
 40
0.0476322414240848
 50
357.4539809852954022
 51
20.2447897757958692
  0
ARC
  5
E53B
  8
0
 10
839.6031478957989975
 20
160.3534696182823041
 30
0.0
 40
0.5722401838258683
 50
17.9156057584365094
 51
29.5045702260095091
  0
ARC
  5
E53C
  8
0
 10
840.042895975737224
 20
160.6036205255979894
 30
0.0
 40
0.0663324005626309
 50
28.5219024320054793
 51
44.6914352948900131
  0
ARC
  5
E53D
  8
0
 10
840.0887250328806886
 20
160.649146332781612
 30
0.0
 40
0.0017396652781199
 50
40.2916145449240304
 51
122.3592624269923022
  0
LINE
  5
E53E
  8
0
 10
840.2675169019391888
 20
160.5980517544549002
 30
0.0
 11
840.2288929364119667
 21
160.5606252699132028
 31
0.0
  0
ARC
  5
E53F
  8
0
 10
840.2453357642848459
 20
160.5436563447069034
 30
0.0
 40
0.0236286057800747
 50
134.0979022870347137
 51
217.1228711686667054
  0
LINE
  5
E540
  8
0
 10
840.2264956590134943
 20
160.5293958592847048
 30
0.0
 11
840.2781105409721931
 21
160.4579426680940912
 31
0.0
  0
ARC
  5
E541
  8
0
 10
840.2987566172193965
 20
160.4703086629623101
 30
0.0
 40
0.0240661233578888
 50
210.9195564946155912
 51
293.4405030867833943
  0
LINE
  5
E542
  8
0
 10
840.3083300383832466
 20
160.4482286289791091
 30
0.0
 11
840.3288605041834671
 21
160.457407469934509
 31
0.0
  0
ARC
  5
E543
  8
0
 10
840.3241941428232167
 20
160.4689918526825068
 30
0.0
 40
0.012488909159518
 50
291.9403078711250146
 51
296.5769623715734724
  0
ARC
  5
E544
  8
0
 10
840.3291279496589823
 20
160.4589083699723062
 30
0.0
 40
0.0012673854712654
 50
301.0513547183288097
 51
333.2592120312287989
  0
ARC
  5
E545
  8
0
 10
840.2826745679298028
 20
160.4604540132426109
 30
0.0
 40
0.0476322414240848
 50
357.4539809852954022
 51
20.2447897757958692
  0
ARC
  5
E546
  8
0
 10
839.7828715920045397
 20
160.3009061621833098
 30
0.0
 40
0.5722401838258683
 50
17.9156057584365094
 51
29.5045702260095091
  0
ARC
  5
E547
  8
0
 10
840.2226196719426525
 20
160.5510570694989951
 30
0.0
 40
0.0663324005626309
 50
28.5219024320054793
 51
44.6914352948900131
  0
ARC
  5
E548
  8
0
 10
840.2684487290862307
 20
160.5965828766825894
 30
0.0
 40
0.0017396652781199
 50
40.2916145449240304
 51
122.3592624269923022
  0
LINE
  5
E549
  8
0
 10
840.2146960720494917
 20
160.4793493603413026
 30
0.0
 11
840.1760721065223834
 21
160.4419228757996052
 31
0.0
  0
ARC
  5
E54A
  8
0
 10
840.1925149343950352
 20
160.4249539505933058
 30
0.0
 40
0.0236286057800747
 50
134.0979022870347137
 51
217.1228711686667054
  0
LINE
  5
E54B
  8
0
 10
840.1736748291237973
 20
160.4106934651711072
 30
0.0
 11
840.2252897110824961
 21
160.3392402739804936
 31
0.0
  0
ARC
  5
E54C
  8
0
 10
840.2459357873296995
 20
160.3516062688485988
 30
0.0
 40
0.0240661233578888
 50
210.9195564946155912
 51
293.4405030867833943
  0
LINE
  5
E54D
  8
0
 10
840.2555092084934358
 20
160.3295262348655967
 30
0.0
 11
840.2760396742936564
 21
160.3387050758209114
 31
0.0
  0
ARC
  5
E54E
  8
0
 10
840.271373312933747
 20
160.3502894585687955
 30
0.0
 40
0.012488909159518
 50
291.9403078711250146
 51
296.5769623715734724
  0
ARC
  5
E54F
  8
0
 10
840.2763071197692852
 20
160.3402059758587086
 30
0.0
 40
0.0012673854712654
 50
301.0513547183288097
 51
333.2592120312287989
  0
ARC
  5
E550
  8
0
 10
840.2298537380401058
 20
160.3417516191290133
 30
0.0
 40
0.0476322414240848
 50
357.4539809852954022
 51
20.2447897757958692
  0
ARC
  5
E551
  8
0
 10
839.7300507621148427
 20
160.1822037680697122
 30
0.0
 40
0.5722401838258683
 50
17.9156057584365094
 51
29.5045702260095091
  0
ARC
  5
E552
  8
0
 10
840.1697988420530692
 20
160.4323546753853975
 30
0.0
 40
0.0663324005626309
 50
28.5219024320054793
 51
44.6914352948900131
  0
ARC
  5
E553
  8
0
 10
840.2156278991965337
 20
160.4778804825689917
 30
0.0
 40
0.0017396652781199
 50
40.2916145449240304
 51
122.3592624269923022
  0
LINE
  5
E554
  8
0
 10
840.520565484603253
 20
160.2483953236286993
 30
0.0
 11
840.4819415190761447
 21
160.2109688390870019
 31
0.0
  0
ARC
  5
E555
  8
0
 10
840.4983843469489102
 20
160.1939999138807025
 30
0.0
 40
0.0236286057800747
 50
134.0979022870347137
 51
217.1228711686667054
  0
LINE
  5
E556
  8
0
 10
840.4795442416774449
 20
160.1797394284585039
 30
0.0
 11
840.5311591236363711
 21
160.1082862372678903
 31
0.0
  0
ARC
  5
E557
  8
0
 10
840.5518051998833471
 20
160.1206522321359955
 30
0.0
 40
0.0240661233578888
 50
210.9195564946155912
 51
293.4405030867833943
  0
LINE
  5
E558
  8
0
 10
840.5613786210473108
 20
160.0985721981529935
 30
0.0
 11
840.5819090868474177
 21
160.1077510391083081
 31
0.0
  0
ARC
  5
E559
  8
0
 10
840.5772427254871673
 20
160.1193354218563059
 30
0.0
 40
0.012488909159518
 50
291.9403078711250146
 51
296.5769623715734724
  0
ARC
  5
E55A
  8
0
 10
840.5821765323230466
 20
160.1092519391461053
 30
0.0
 40
0.0012673854712654
 50
301.0513547183288097
 51
333.2592120312287989
  0
ARC
  5
E55B
  8
0
 10
840.5357231505937534
 20
160.11079758241641
 30
0.0
 40
0.0476322414240848
 50
357.4539809852954022
 51
20.2447897757958692
  0
ARC
  5
E55C
  8
0
 10
840.0359201746684903
 20
159.9512497313571089
 30
0.0
 40
0.5722401838258683
 50
17.9156057584365094
 51
29.5045702260095091
  0
ARC
  5
E55D
  8
0
 10
840.4756682546066031
 20
160.2014006386727942
 30
0.0
 40
0.0663324005626309
 50
28.5219024320054793
 51
44.6914352948900131
  0
ARC
  5
E55E
  8
0
 10
840.5214973117501813
 20
160.2469264458563885
 30
0.0
 40
0.0017396652781199
 50
40.2916145449240304
 51
122.3592624269923022
  0
LINE
  5
E55F
  8
0
 10
840.4095447871628721
 20
160.3069899889752037
 30
0.0
 11
840.3709208216356501
 21
160.2695635044335063
 31
0.0
  0
ARC
  5
E560
  8
0
 10
840.387363649508643
 20
160.2525945792272069
 30
0.0
 40
0.0236286057800747
 50
134.0979022870347137
 51
217.1228711686667054
  0
LINE
  5
E561
  8
0
 10
840.3685235442371777
 20
160.2383340938050083
 30
0.0
 11
840.4201384261958765
 21
160.1668809026143947
 31
0.0
  0
ARC
  5
E562
  8
0
 10
840.4407845024428525
 20
160.1792468974826136
 30
0.0
 40
0.0240661233578888
 50
210.9195564946155912
 51
293.4405030867833943
  0
LINE
  5
E563
  8
0
 10
840.4503579236070436
 20
160.1571668634994978
 30
0.0
 11
840.4708883894071505
 21
160.1663457044548124
 31
0.0
  0
ARC
  5
E564
  8
0
 10
840.4662220280469
 20
160.1779300872026965
 30
0.0
 40
0.012488909159518
 50
291.9403078711250146
 51
296.5769623715734724
  0
ARC
  5
E565
  8
0
 10
840.4711558348826657
 20
160.1678466044926097
 30
0.0
 40
0.0012673854712654
 50
301.0513547183288097
 51
333.2592120312287989
  0
ARC
  5
E566
  8
0
 10
840.4247024531537136
 20
160.169392247762886
 30
0.0
 40
0.0476322414240848
 50
357.4539809852954022
 51
20.2447897757958692
  0
ARC
  5
E567
  8
0
 10
839.9248994772282231
 20
160.0098443967036133
 30
0.0
 40
0.5722401838258683
 50
17.9156057584365094
 51
29.5045702260095091
  0
ARC
  5
E568
  8
0
 10
840.3646475571663359
 20
160.2599953040192986
 30
0.0
 40
0.0663324005626309
 50
28.5219024320054793
 51
44.6914352948900131
  0
ARC
  5
E569
  8
0
 10
840.4104766143096867
 20
160.3055211112028928
 30
0.0
 40
0.0017396652781199
 50
40.2916145449240304
 51
122.3592624269923022
  0
LINE
  5
E56A
  8
0
 10
840.7959595053921475
 20
159.8840460878467979
 30
0.0
 11
840.7573355398651529
 21
159.8466196033051006
 31
0.0
  0
ARC
  5
E56B
  8
0
 10
840.7737783677379184
 20
159.8296506780988011
 30
0.0
 40
0.0236286057800747
 50
134.0979022870347137
 51
217.1228711686667054
  0
LINE
  5
E56C
  8
0
 10
840.7549382624666805
 20
159.8153901926766025
 30
0.0
 11
840.8065531444253793
 21
159.743937001485989
 31
0.0
  0
ARC
  5
E56D
  8
0
 10
840.8271992206723553
 20
159.7563029963542078
 30
0.0
 40
0.0240661233578888
 50
210.9195564946155912
 51
293.4405030867833943
  0
LINE
  5
E56E
  8
0
 10
840.8367726418363191
 20
159.7342229623710068
 30
0.0
 11
840.8573031076366533
 21
159.7434018033264067
 31
0.0
  0
ARC
  5
E56F
  8
0
 10
840.8526367462764028
 20
159.7549861860744045
 30
0.0
 40
0.012488909159518
 50
291.9403078711250146
 51
296.5769623715734724
  0
ARC
  5
E570
  8
0
 10
840.8575705531121685
 20
159.7449027033642039
 30
0.0
 40
0.0012673854712654
 50
301.0513547183288097
 51
333.2592120312287989
  0
ARC
  5
E571
  8
0
 10
840.811117171382989
 20
159.7464483466345939
 30
0.0
 40
0.0476322414240848
 50
357.4539809852954022
 51
20.2447897757958692
  0
ARC
  5
E572
  8
0
 10
840.3113141954574985
 20
159.5869004955752075
 30
0.0
 40
0.5722401838258683
 50
17.9156057584365094
 51
29.5045702260095091
  0
ARC
  5
E573
  8
0
 10
840.7510622753958387
 20
159.8370514028908929
 30
0.0
 40
0.0663324005626309
 50
28.5219024320054793
 51
44.6914352948900131
  0
ARC
  5
E574
  8
0
 10
840.7968913325391895
 20
159.8825772100744871
 30
0.0
 40
0.0017396652781199
 50
40.2916145449240304
 51
122.3592624269923022
  0
LINE
  5
E575
  8
0
 10
840.638509314711655
 20
159.9913999096112889
 30
0.0
 11
840.5998853491845466
 21
159.9539734250695915
 31
0.0
  0
ARC
  5
E576
  8
0
 10
840.6163281770576532
 20
159.937004499863292
 30
0.0
 40
0.0236286057800747
 50
134.0979022870347137
 51
217.1228711686667054
  0
LINE
  5
E577
  8
0
 10
840.5974880717860742
 20
159.9227440144410934
 30
0.0
 11
840.649102953744773
 21
159.8512908232505083
 31
0.0
  0
ARC
  5
E578
  8
0
 10
840.6697490299918627
 20
159.8636568181186135
 30
0.0
 40
0.0240661233578888
 50
210.9195564946155912
 51
293.4405030867833943
  0
LINE
  5
E579
  8
0
 10
840.6793224511559401
 20
159.8415767841356114
 30
0.0
 11
840.699852916956047
 21
159.8507556250910113
 31
0.0
  0
ARC
  5
E57A
  8
0
 10
840.6951865555957966
 20
159.8623400078388954
 30
0.0
 40
0.012488909159518
 50
291.9403078711250146
 51
296.5769623715734724
  0
ARC
  5
E57B
  8
0
 10
840.7001203624314485
 20
159.8522565251286949
 30
0.0
 40
0.0012673854712654
 50
301.0513547183288097
 51
333.2592120312287989
  0
ARC
  5
E57C
  8
0
 10
840.6536669807026101
 20
159.8538021683991133
 30
0.0
 40
0.0476322414240848
 50
357.4539809852954022
 51
20.2447897757958692
  0
ARC
  5
E57D
  8
0
 10
840.1538640047768922
 20
159.6942543173396984
 30
0.0
 40
0.5722401838258683
 50
17.9156057584365094
 51
29.5045702260095091
  0
ARC
  5
E57E
  8
0
 10
840.5936120847153461
 20
159.9444052246554122
 30
0.0
 40
0.0663324005626309
 50
28.5219024320054793
 51
44.6914352948900131
  0
ARC
  5
E57F
  8
0
 10
840.6394411418585833
 20
159.9899310318390064
 30
0.0
 40
0.0017396652781199
 50
40.2916145449240304
 51
122.3592624269923022
  0
LINE
  5
E580
  8
0
 10
840.5495381537700723
 20
159.9903857904384097
 30
0.0
 11
840.510914188242964
 21
159.9529593058965986
 31
0.0
  0
ARC
  5
E581
  8
0
 10
840.5273570161156158
 20
159.9359903806902992
 30
0.0
 40
0.0236286057800747
 50
134.0979022870347137
 51
217.1228711686667054
  0
LINE
  5
E582
  8
0
 10
840.5085169108443779
 20
159.9217298952681006
 30
0.0
 11
840.5601317928030767
 21
159.850276704077487
 31
0.0
  0
ARC
  5
E583
  8
0
 10
840.5807778690502801
 20
159.8626426989455922
 30
0.0
 40
0.0240661233578888
 50
210.9195564946155912
 51
293.4405030867833943
  0
LINE
  5
E584
  8
0
 10
840.5903512902140164
 20
159.8405626649625901
 30
0.0
 11
840.6108817560143507
 21
159.8497415059179048
 31
0.0
  0
ARC
  5
E585
  8
0
 10
840.6062153946541002
 20
159.8613258886659025
 30
0.0
 40
0.012488909159518
 50
291.9403078711250146
 51
296.5769623715734724
  0
ARC
  5
E586
  8
0
 10
840.6111492014898658
 20
159.851242405955702
 30
0.0
 40
0.0012673854712654
 50
301.0513547183288097
 51
333.2592120312287989
  0
ARC
  5
E587
  8
0
 10
840.5646958197606864
 20
159.852788049226092
 30
0.0
 40
0.0476322414240848
 50
357.4539809852954022
 51
20.2447897757958692
  0
ARC
  5
E588
  8
0
 10
840.0648928438354233
 20
159.6932401981667908
 30
0.0
 40
0.5722401838258683
 50
17.9156057584365094
 51
29.5045702260095091
  0
ARC
  5
E589
  8
0
 10
840.5046409237736498
 20
159.9433911054823909
 30
0.0
 40
0.0663324005626309
 50
28.5219024320054793
 51
44.6914352948900131
  0
ARC
  5
E58A
  8
0
 10
840.5504699809171143
 20
159.9889169126660136
 30
0.0
 40
0.0017396652781199
 50
40.2916145449240304
 51
122.3592624269923022
  0
LINE
  5
E58B
  8
0
 10
840.757826967885876
 20
159.6998481205941971
 30
0.0
 11
840.7303193030014654
 21
159.673429692625291
 31
0.0
  0
ARC
  5
E58C
  8
0
 10
840.7477492298168045
 20
159.6552811265426044
 30
0.0
 40
0.0251629251010809
 50
133.8428571475423894
 51
212.7799452085224061
  0
LINE
  5
E58D
  8
0
 10
840.7265933454875722
 20
159.6416575676138905
 30
0.0
 11
840.7785479180203083
 21
159.5697342318723031
 31
0.0
  0
ARC
  5
E58E
  8
0
 10
840.7977708896961531
 20
159.5834635648722042
 30
0.0
 40
0.0236220472000039
 50
215.842857253796609
 51
289.842857253800787
  0
ARC
  5
E58F
  8
0
 10
840.1876007453449802
 20
160.7888155342911887
 30
0.0
 40
1.3744412561477499
 50
296.7292086802196991
 51
298.2197048928720733
  0
ARC
  5
E590
  8
0
 10
840.7594979332761795
 20
159.6979005493411989
 30
0.0
 40
0.0025650286230612
 50
81.1401200423599818
 51
130.635728355253093
  0
ARC
  5
E591
  8
0
 10
840.6867241252946314
 20
159.5827896776729915
 30
0.0
 40
0.1385427688276366
 50
34.6205159681482186
 51
58.1206715433542627
  0
ARC
  5
E592
  8
0
 10
840.4763733927790099
 20
159.406297660346695
 30
0.0
 40
0.4127222122109688
 50
31.1758879459567808
 51
38.1951616836190695
  0
LINE
  5
E593
  8
0
 10
840.8574630254928479
 20
159.6479190086168956
 30
0.0
 11
840.8307175878251201
 21
159.6212000525189865
 31
0.0
  0
ARC
  5
E594
  8
0
 10
840.8474701694326541
 20
159.6044308671690999
 30
0.0
 40
0.0237034716405323
 50
134.9716207001324904
 51
215.6057637214213116
  0
LINE
  5
E595
  8
0
 10
840.8281982467559601
 20
159.5906305931081874
 30
0.0
 11
840.8805408592963886
 21
159.5175347417419971
 31
0.0
  0
ARC
  5
E596
  8
0
 10
840.8995578437372842
 20
159.5311524591593013
 30
0.0
 40
0.0233899107499435
 50
215.6057637214132114
 51
298.3539948208788815
  0
LINE
  5
E597
  8
0
 10
840.9106661275041006
 20
159.5105686316084075
 30
0.0
 11
840.9459652665318572
 21
159.5284093480138097
 31
0.0
  0
ARC
  5
E598
  8
0
 10
840.9433621326271577
 20
159.5325119281613127
 30
0.0
 40
0.0048587518965045
 50
302.3955929619684753
 51
7.3525148172074051
  0
ARC
  5
E599
  8
0
 10
840.8046643243466178
 20
159.4963185896390883
 30
0.0
 40
0.1481633255455278
 50
14.3873881193040898
 51
37.470812458968517
  0
ARC
  5
E59A
  8
0
 10
840.6927214174459095
 20
159.4342715645418025
 30
0.0
 40
0.2754013876353666
 50
33.5446797626635416
 51
49.0582432180157184
  0
ARC
  5
E59B
  8
0
 10
840.8535578855035055
 20
159.6196996387475906
 30
0.0
 40
0.0299386870670494
 50
49.0249102826268128
 51
77.2848388555104719
  0
ARC
  5
E59C
  8
0
 10
840.8600281514510471
 20
159.6450791360520896
 30
0.0
 40
0.0038268456155674
 50
88.2125119185381976
 51
132.0900484892416955
  0
LINE
  5
E59D
  8
0
 10
841.0597089859213611
 20
159.4773217972002897
 30
0.0
 11
841.0329635482536332
 21
159.4506028411022953
 31
0.0
  0
ARC
  5
E59E
  8
0
 10
841.0497161298612809
 20
159.433833655752494
 30
0.0
 40
0.0237034716405323
 50
134.9716207001324904
 51
215.6057637214213116
  0
LINE
  5
E59F
  8
0
 10
841.0304442071843596
 20
159.42003338169161
 30
0.0
 11
841.0827868197247881
 21
159.3469375303253059
 31
0.0
  0
ARC
  5
E5A0
  8
0
 10
841.1018038041659111
 20
159.3605552477426954
 30
0.0
 40
0.0233899107499435
 50
215.6057637214132114
 51
298.3539948208788815
  0
LINE
  5
E5A1
  8
0
 10
841.1129120879326138
 20
159.3399714201918016
 30
0.0
 11
841.1482112269603704
 21
159.3578121365972038
 31
0.0
  0
ARC
  5
E5A2
  8
0
 10
841.1456080930556709
 20
159.3619147167445931
 30
0.0
 40
0.0048587518965045
 50
302.3955929619684753
 51
7.3525148172074051
  0
ARC
  5
E5A3
  8
0
 10
841.006910284775131
 20
159.3257213782225108
 30
0.0
 40
0.1481633255455278
 50
14.3873881193040898
 51
37.470812458968517
  0
ARC
  5
E5A4
  8
0
 10
840.8949673778746501
 20
159.2636743531251113
 30
0.0
 40
0.2754013876353666
 50
33.5446797626635416
 51
49.0582432180157184
  0
ARC
  5
E5A5
  8
0
 10
841.0558038459321324
 20
159.4491024273310131
 30
0.0
 40
0.0299386870670494
 50
49.0249102826268128
 51
77.2848388555104719
  0
ARC
  5
E5A6
  8
0
 10
841.0622741118795602
 20
159.4744819246355121
 30
0.0
 40
0.0038268456155674
 50
88.2125119185381976
 51
132.0900484892416955
  0
LINE
  5
E5A7
  8
0
 10
840.9555535951724323
 20
159.4179180754686058
 30
0.0
 11
840.9288081575044771
 21
159.3911991193706967
 31
0.0
  0
ARC
  5
E5A8
  8
0
 10
840.9455607391121248
 20
159.3744299340208954
 30
0.0
 40
0.0237034716405323
 50
134.9716207001324904
 51
215.6057637214213116
  0
LINE
  5
E5A9
  8
0
 10
840.9262888164355445
 20
159.3606296599598977
 30
0.0
 11
840.9786314289758593
 21
159.2875338085937074
 31
0.0
  0
ARC
  5
E5AA
  8
0
 10
840.9976484134168686
 20
159.3011515260110116
 30
0.0
 40
0.0233899107499435
 50
215.6057637214132114
 51
298.3539948208788815
  0
LINE
  5
E5AB
  8
0
 10
841.0087566971834576
 20
159.2805676984600893
 30
0.0
 11
841.0440558362113279
 21
159.2984084148654915
 31
0.0
  0
ARC
  5
E5AC
  8
0
 10
841.0414527023068558
 20
159.3025109950129945
 30
0.0
 40
0.0048587518965045
 50
302.3955929619684753
 51
7.3525148172074051
  0
ARC
  5
E5AD
  8
0
 10
840.9027548940259749
 20
159.2663176564907985
 30
0.0
 40
0.1481633255455278
 50
14.3873881193040898
 51
37.470812458968517
  0
ARC
  5
E5AE
  8
0
 10
840.7908119871252666
 20
159.2042706313935128
 30
0.0
 40
0.2754013876353666
 50
33.5446797626635416
 51
49.0582432180157184
  0
ARC
  5
E5AF
  8
0
 10
840.9516484551828626
 20
159.3896987055993009
 30
0.0
 40
0.0299386870670494
 50
49.0249102826268128
 51
77.2848388555104719
  0
ARC
  5
E5B0
  8
0
 10
840.9581187211305178
 20
159.4150782029037998
 30
0.0
 40
0.0038268456155674
 50
88.2125119185381976
 51
132.0900484892416955
  0
LINE
  5
E5B1
  8
0
 10
841.0910405601110824
 20
159.3228073499944912
 30
0.0
 11
841.0642951224433546
 21
159.2960883938964969
 31
0.0
  0
ARC
  5
E5B2
  8
0
 10
841.0810477040508886
 20
159.2793192085466956
 30
0.0
 40
0.0237034716405323
 50
134.9716207001324904
 51
215.6057637214213116
  0
LINE
  5
E5B3
  8
0
 10
841.0617757813741946
 20
159.2655189344858115
 30
0.0
 11
841.1141183939147368
 21
159.1924230831195075
 31
0.0
  0
ARC
  5
E5B4
  8
0
 10
841.1331353783557461
 20
159.2060408005368117
 30
0.0
 40
0.0233899107499435
 50
215.6057637214132114
 51
298.3539948208788815
  0
LINE
  5
E5B5
  8
0
 10
841.1442436621224488
 20
159.1854569729858895
 30
0.0
 11
841.1795428011500917
 21
159.2032976893914054
 31
0.0
  0
ARC
  5
E5B6
  8
0
 10
841.1769396672453922
 20
159.2074002695387946
 30
0.0
 40
0.0048587518965045
 50
302.3955929619684753
 51
7.3525148172074051
  0
ARC
  5
E5B7
  8
0
 10
841.038241858964966
 20
159.1712069310167124
 30
0.0
 40
0.1481633255455278
 50
14.3873881193040898
 51
37.470812458968517
  0
ARC
  5
E5B8
  8
0
 10
840.9262989520642577
 20
159.1091599059193129
 30
0.0
 40
0.2754013876353666
 50
33.5446797626635416
 51
49.0582432180157184
  0
ARC
  5
E5B9
  8
0
 10
841.08713542012174
 20
159.2945879801251863
 30
0.0
 40
0.0299386870670494
 50
49.0249102826268128
 51
77.2848388555104719
  0
ARC
  5
E5BA
  8
0
 10
841.0936056860692815
 20
159.3199674774296
 30
0.0
 40
0.0038268456155674
 50
88.2125119185381976
 51
132.0900484892416955
  0
LINE
  5
E5BB
  8
0
 10
841.3138205998385502
 20
159.1199964660806074
 30
0.0
 11
841.2870751621708223
 21
159.0932775099826983
 31
0.0
  0
ARC
  5
E5BC
  8
0
 10
841.3038277437783563
 20
159.0765083246328118
 30
0.0
 40
0.0237034716405323
 50
134.9716207001324904
 51
215.6057637214213116
  0
LINE
  5
E5BD
  8
0
 10
841.2845558211015486
 20
159.0627080505718993
 30
0.0
 11
841.3186996062909202
 21
159.0150266505395962
 31
0.0
  0
ARC
  5
E5BE
  8
0
 10
841.3559154180828727
 20
159.0032299166230985
 30
0.0
 40
0.0233899107499435
 50
256.9798792711193869
 51
298.3539948208788815
  0
LINE
  5
E5BF
  8
0
 10
841.3670237018498028
 20
158.9826460890720909
 30
0.0
 11
841.4023228408775594
 21
159.0004868054776068
 31
0.0
  0
ARC
  5
E5C0
  8
0
 10
841.3997197069727463
 20
159.0045893856249108
 30
0.0
 40
0.0048587518965045
 50
302.3955929619684753
 51
7.3525148172074051
  0
ARC
  5
E5C1
  8
0
 10
841.2610218986920927
 20
158.9683960471029138
 30
0.0
 40
0.1481633255455278
 50
14.3873881193040898
 51
37.470812458968517
  0
ARC
  5
E5C2
  8
0
 10
841.1490789917916118
 20
158.9063490220054859
 30
0.0
 40
0.2754013876353666
 50
33.5446797626635416
 51
49.0582432180157184
  0
ARC
  5
E5C3
  8
0
 10
841.3099154598493215
 20
159.0917770962113025
 30
0.0
 40
0.0299386870670494
 50
49.0249102826268128
 51
77.2848388555104719
  0
ARC
  5
E5C4
  8
0
 10
841.3163857257966356
 20
159.1171565935158014
 30
0.0
 40
0.0038268456155674
 50
88.2125119185381976
 51
132.0900484892416955
  0
LINE
  5
E5C5
  8
0
 10
841.2978510327403683
 20
159.0251987673483995
 30
0.0
 11
841.2711055950726404
 21
158.9984798112504905
 31
0.0
  0
ARC
  5
E5C6
  8
0
 10
841.2878581766800608
 20
158.9817106259006891
 30
0.0
 40
0.0237034716405323
 50
134.9716207001324904
 51
215.6057637214213116
  0
LINE
  5
E5C7
  8
0
 10
841.2685862540034805
 20
158.9679103518396914
 30
0.0
 11
841.3209288665437953
 21
158.8948145004735011
 31
0.0
  0
ARC
  5
E5C8
  8
0
 10
841.3399458509848046
 20
158.9084322178908906
 30
0.0
 40
0.0233899107499435
 50
215.6057637214132114
 51
298.3539948208788815
  0
LINE
  5
E5C9
  8
0
 10
841.3510541347516209
 20
158.8878483903399115
 30
0.0
 11
841.3863532737793776
 21
158.9056891067453137
 31
0.0
  0
ARC
  5
E5CA
  8
0
 10
841.3837501398746781
 20
158.9097916868927882
 30
0.0
 40
0.0048587518965045
 50
302.3955929619684753
 51
7.3525148172074051
  0
ARC
  5
E5CB
  8
0
 10
841.2450523315939108
 20
158.8735983483707059
 30
0.0
 40
0.1481633255455278
 50
14.3873881193040898
 51
37.470812458968517
  0
ARC
  5
E5CC
  8
0
 10
841.1331094246934299
 20
158.8115513232733065
 30
0.0
 40
0.2754013876353666
 50
33.5446797626635416
 51
49.0582432180157184
  0
ARC
  5
E5CD
  8
0
 10
841.2939458927510259
 20
158.9969793974790946
 30
0.0
 40
0.0299386870670494
 50
49.0249102826268128
 51
77.2848388555104719
  0
ARC
  5
E5CE
  8
0
 10
841.3004161586985674
 20
159.0223588947837072
 30
0.0
 40
0.0038268456155674
 50
88.2125119185381976
 51
132.0900484892416955
  0
LINE
  5
E5CF
  8
0
 10
841.5514238571342958
 20
158.7880440379443883
 30
0.0
 11
841.5246784194664542
 21
158.7613250818463939
 31
0.0
  0
ARC
  5
E5D0
  8
0
 10
841.5414310010739882
 20
158.7445558964965926
 30
0.0
 40
0.0237034716405323
 50
134.9716207001324904
 51
215.6057637214213116
  0
LINE
  5
E5D1
  8
0
 10
841.5221590783972943
 20
158.7307556224355949
 30
0.0
 11
841.5745016909378364
 21
158.6576597710694045
 31
0.0
  0
ARC
  5
E5D2
  8
0
 10
841.5935186753788457
 20
158.671277488486794
 30
0.0
 40
0.0233899107499435
 50
215.6057637214132114
 51
298.3539948208788815
  0
LINE
  5
E5D3
  8
0
 10
841.6046269591455484
 20
158.6506936609357865
 30
0.0
 11
841.6399260981731913
 21
158.6685343773413024
 31
0.0
  0
ARC
  5
E5D4
  8
0
 10
841.6373229642684919
 20
158.6726369574886917
 30
0.0
 40
0.0048587518965045
 50
302.3955929619684753
 51
7.3525148172074051
  0
ARC
  5
E5D5
  8
0
 10
841.498625155987952
 20
158.6364436189666094
 30
0.0
 40
0.1481633255455278
 50
14.3873881193040898
 51
37.470812458968517
  0
ARC
  5
E5D6
  8
0
 10
841.3866822490873574
 20
158.5743965938692099
 30
0.0
 40
0.2754013876353666
 50
33.5446797626635416
 51
49.0582432180157184
  0
ARC
  5
E5D7
  8
0
 10
841.5475187171448397
 20
158.7598246680751117
 30
0.0
 40
0.0299386870670494
 50
49.0249102826268128
 51
77.2848388555104719
  0
ARC
  5
E5D8
  8
0
 10
841.5539889830923812
 20
158.785204165379497
 30
0.0
 40
0.0038268456155674
 50
88.2125119185381976
 51
132.0900484892416955
  0
LINE
  5
E5D9
  8
0
 10
841.4784946164502344
 20
158.7627626455904135
 30
0.0
 11
841.4517491787823928
 21
158.7360436894923907
 31
0.0
  0
ARC
  5
E5DA
  8
0
 10
841.4685017603899269
 20
158.7192745041425894
 30
0.0
 40
0.0237034716405323
 50
134.9716207001324904
 51
215.6057637214213116
  0
LINE
  5
E5DB
  8
0
 10
841.4492298377133466
 20
158.7054742300817054
 30
0.0
 11
841.5015724502535477
 21
158.6323783787154866
 31
0.0
  0
ARC
  5
E5DC
  8
0
 10
841.5205894346947844
 20
158.6459960961327909
 30
0.0
 40
0.0233899107499435
 50
215.6057637214132114
 51
298.3539948208788815
  0
LINE
  5
E5DD
  8
0
 10
841.5316977184612597
 20
158.6254122685818118
 30
0.0
 11
841.5669968574890163
 21
158.6432529849872992
 31
0.0
  0
ARC
  5
E5DE
  8
0
 10
841.5643937235845442
 20
158.6473555651348022
 30
0.0
 40
0.0048587518965045
 50
302.3955929619684753
 51
7.3525148172074051
  0
ARC
  5
E5DF
  8
0
 10
841.4256959153038906
 20
158.6111622266126062
 30
0.0
 40
0.1481633255455278
 50
14.3873881193040898
 51
37.470812458968517
  0
ARC
  5
E5E0
  8
0
 10
841.3137530084031823
 20
158.549115201515292
 30
0.0
 40
0.2754013876353666
 50
33.5446797626635416
 51
49.0582432180157184
  0
ARC
  5
E5E1
  8
0
 10
841.4745894764606646
 20
158.7345432757211086
 30
0.0
 40
0.0299386870670494
 50
49.0249102826268128
 51
77.2848388555104719
  0
ARC
  5
E5E2
  8
0
 10
841.4810597424082061
 20
158.7599227730256075
 30
0.0
 40
0.0038268456155674
 50
88.2125119185381976
 51
132.0900484892416955
  0
LINE
  5
E5E3
  8
0
 10
841.5398332520451277
 20
158.606029498830992
 30
0.0
 11
841.5130878143773998
 21
158.5793105427329976
 31
0.0
  0
ARC
  5
E5E4
  8
0
 10
841.5298403959850475
 20
158.5625413573831963
 30
0.0
 40
0.0237034716405323
 50
134.9716207001324904
 51
215.6057637214213116
  0
LINE
  5
E5E5
  8
0
 10
841.5105684733083535
 20
158.5487410833223123
 30
0.0
 11
841.5629110858485546
 21
158.4756452319560935
 31
0.0
  0
ARC
  5
E5E6
  8
0
 10
841.5819280702895639
 20
158.4892629493733978
 30
0.0
 40
0.0233899107499435
 50
215.6057637214132114
 51
298.3539948208788815
  0
LINE
  5
E5E7
  8
0
 10
841.5930363540563803
 20
158.4686791218223902
 30
0.0
 11
841.6283354930842506
 21
158.4865198382279061
 31
0.0
  0
ARC
  5
E5E8
  8
0
 10
841.6257323591795512
 20
158.4906224183752954
 30
0.0
 40
0.0048587518965045
 50
302.3955929619684753
 51
7.3525148172074051
  0
ARC
  5
E5E9
  8
0
 10
841.4870345508988976
 20
158.4544290798532131
 30
0.0
 40
0.1481633255455278
 50
14.3873881193040898
 51
37.470812458968517
  0
ARC
  5
E5EA
  8
0
 10
841.375091643998303
 20
158.3923820547558137
 30
0.0
 40
0.2754013876353666
 50
33.5446797626635416
 51
49.0582432180157184
  0
ARC
  5
E5EB
  8
0
 10
841.5359281120557853
 20
158.577810128961687
 30
0.0
 40
0.0299386870670494
 50
49.0249102826268128
 51
77.2848388555104719
  0
ARC
  5
E5EC
  8
0
 10
841.5423983780033268
 20
158.6031896262661007
 30
0.0
 40
0.0038268456155674
 50
88.2125119185381976
 51
132.0900484892416955
  0
LINE
  5
E5ED
  8
0
 10
841.7417675555735741
 20
158.5197924519796118
 30
0.0
 11
841.7150221179058462
 21
158.4930734958817027
 31
0.0
  0
ARC
  5
E5EE
  8
0
 10
841.7317746995133803
 20
158.4763043105319014
 30
0.0
 40
0.0237034716405323
 50
134.9716207001324904
 51
215.6057637214213116
  0
LINE
  5
E5EF
  8
0
 10
841.7125027768366863
 20
158.4625040364709037
 30
0.0
 11
841.7648453893772285
 21
158.3894081851047133
 31
0.0
  0
ARC
  5
E5F0
  8
0
 10
841.7838623738182378
 20
158.4030259025221028
 30
0.0
 40
0.0233899107499435
 50
215.6057637214132114
 51
298.3539948208788815
  0
LINE
  5
E5F1
  8
0
 10
841.7949706575850541
 20
158.3824420749710953
 30
0.0
 11
841.8302697966125834
 21
158.4002827913764975
 31
0.0
  0
ARC
  5
E5F2
  8
0
 10
841.8276666627078839
 20
158.4043853715238868
 30
0.0
 40
0.0048587518965045
 50
302.3955929619684753
 51
7.3525148172074051
  0
ARC
  5
E5F3
  8
0
 10
841.688968854427344
 20
158.3681920330018897
 30
0.0
 40
0.1481633255455278
 50
14.3873881193040898
 51
37.470812458968517
  0
ARC
  5
E5F4
  8
0
 10
841.5770259475267494
 20
158.3061450079044903
 30
0.0
 40
0.2754013876353666
 50
33.5446797626635416
 51
49.0582432180157184
  0
ARC
  5
E5F5
  8
0
 10
841.7378624155842317
 20
158.4915730821103068
 30
0.0
 40
0.0299386870670494
 50
49.0249102826268128
 51
77.2848388555104719
  0
ARC
  5
E5F6
  8
0
 10
841.7443326815317732
 20
158.5169525794148058
 30
0.0
 40
0.0038268456155674
 50
88.2125119185381976
 51
132.0900484892416955
  0
LINE
  5
E5F7
  8
0
 10
841.7030057536035201
 20
158.4548857340728887
 30
0.0
 11
841.6762603159354512
 21
158.4281667779748943
 31
0.0
  0
ARC
  5
E5F8
  8
0
 10
841.6930128975430989
 20
158.4113975926252067
 30
0.0
 40
0.0237034716405323
 50
134.9716207001324904
 51
215.6057637214213116
  0
LINE
  5
E5F9
  8
0
 10
841.6737409748664049
 20
158.397597318564209
 30
0.0
 11
841.7260835874067197
 21
158.3245014671979902
 31
0.0
  0
ARC
  5
E5FA
  8
0
 10
841.745100571847729
 20
158.3381191846154081
 30
0.0
 40
0.0233899107499435
 50
215.6057637214132114
 51
298.3539948208788815
  0
LINE
  5
E5FB
  8
0
 10
841.7562088556146591
 20
158.3175353570644006
 30
0.0
 11
841.791507994642302
 21
158.3353760734698028
 31
0.0
  0
ARC
  5
E5FC
  8
0
 10
841.7889048607376026
 20
158.3394786536173058
 30
0.0
 40
0.0048587518965045
 50
302.3955929619684753
 51
7.3525148172074051
  0
ARC
  5
E5FD
  8
0
 10
841.650207052456949
 20
158.3032853150951951
 30
0.0
 40
0.1481633255455278
 50
14.3873881193040898
 51
31.5639416356618412
  0
ARC
  5
E5FE
  8
0
 10
841.5382641455564681
 20
158.2412382899977956
 30
0.0
 40
0.2754013876353666
 50
46.4478077412193784
 51
49.0582432180157184
  0
ARC
  5
E5FF
  8
0
 10
841.6991006136139504
 20
158.4266663642036121
 30
0.0
 40
0.0299386870670494
 50
49.0249102826268128
 51
77.2848388555104719
  0
ARC
  5
E600
  8
0
 10
841.7055708795614919
 20
158.4520458615081111
 30
0.0
 40
0.0038268456155674
 50
88.2125119185381976
 51
132.0900484892416955
  0
LINE
  5
E601
  8
0
 10
841.8802689116198508
 20
158.346588536389703
 30
0.0
 11
841.8535234739520092
 21
158.3198695802917086
 31
0.0
  0
ARC
  5
E602
  8
0
 10
841.8702760555595432
 20
158.3031003949419073
 30
0.0
 40
0.0237034716405323
 50
134.9716207001324904
 51
215.6057637214213116
  0
LINE
  5
E603
  8
0
 10
841.8510041328827356
 20
158.2893001208809949
 30
0.0
 11
841.9033467454231641
 21
158.2162042695148045
 31
0.0
  0
ARC
  5
E604
  8
0
 10
841.9223637298640597
 20
158.2298219869321088
 30
0.0
 40
0.0233899107499435
 50
215.6057637214132114
 51
298.3539948208788815
  0
LINE
  5
E605
  8
0
 10
841.9334720136309897
 20
158.2092381593811865
 30
0.0
 11
841.9687711526587464
 21
158.2270788757865887
 31
0.0
  0
ARC
  5
E606
  8
0
 10
841.9661680187540469
 20
158.2311814559340064
 30
0.0
 40
0.0048587518965045
 50
302.3955929619684753
 51
7.3525148172074051
  0
ARC
  5
E607
  8
0
 10
841.8274702104732796
 20
158.1949881174120094
 30
0.0
 40
0.1481633255455278
 50
14.3873881193040898
 51
37.470812458968517
  0
ARC
  5
E608
  8
0
 10
841.7155273035727987
 20
158.1329410923146099
 30
0.0
 40
0.2754013876353666
 50
33.5446797626635416
 51
49.0582432180157184
  0
ARC
  5
E609
  8
0
 10
841.8763637716303947
 20
158.318369166520398
 30
0.0
 40
0.0299386870670494
 50
49.0249102826268128
 51
77.2848388555104719
  0
ARC
  5
E60A
  8
0
 10
841.8828340375778225
 20
158.343748663824897
 30
0.0
 40
0.0038268456155674
 50
88.2125119185381976
 51
132.0900484892416955
  0
LINE
  5
E60B
  8
0
 10
839.8364556799441516
 20
161.1160656497171999
 30
0.0
 11
839.850816200872373
 21
161.0828157600253121
 31
0.0
  0
LINE
  5
E60C
  8
0
 10
839.9014091820189378
 20
160.980298920894711
 30
0.0
 11
839.9181614059681351
 21
160.9434880289356045
 31
0.0
  0
LINE
  5
E60D
  8
0
 10
839.9765431320040534
 20
160.8076976477157132
 30
0.0
 11
840.0010574432761814
 21
160.7576625994875883
 31
0.0
  0
LINE
  5
E60E
  8
0
 10
839.8643030414418718
 20
161.0317695109019098
 30
0.0
 11
839.8335788516474167
 21
161.0022537741106987
 31
0.0
  0
ARC
  5
E60F
  8
0
 10
839.8499440646106677
 20
160.9852185256713142
 30
0.0
 40
0.0236224445120433
 50
133.8507626918558913
 51
215.9022765558302126
  0
LINE
  5
E610
  8
0
 10
839.830809451290861
 20
160.971366216916806
 30
0.0
 11
839.8844593593014451
 21
160.8972579752787908
 31
0.0
  0
LINE
  5
E611
  8
0
 10
839.9833041693866562
 20
160.7938980011437025
 30
0.0
 11
839.9455474597195916
 21
160.7576113543908036
 31
0.0
  0
ARC
  5
E612
  8
0
 10
839.9619159148400058
 20
160.7405797721702925
 30
0.0
 40
0.0236220472431485
 50
133.8625942946173097
 51
215.8428570507066979
  0
LINE
  5
E613
  8
0
 10
839.9427672680905061
 20
160.7267475473448997
 30
0.0
 11
839.9694754938626602
 21
160.689774002809088
 31
0.0
  0
LINE
  5
E614
  8
0
 10
839.9889068518135673
 20
160.7366296323145889
 30
0.0
 11
839.9722615535233672
 21
160.7206434474838943
 31
0.0
  0
ARC
  5
E615
  8
0
 10
839.9886241410958974
 20
160.7036062272945003
 30
0.0
 40
0.0236220478335929
 50
133.8428572254196069
 51
215.8550740132453996
  0
LINE
  5
E616
  8
0
 10
839.9694784436962891
 20
160.6897699194441032
 30
0.0
 11
840.0215197472152795
 21
160.6177588699480907
 31
0.0
  0
ARC
  5
E617
  8
0
 10
840.0406825306868086
 20
160.6316075256459897
 30
0.0
 40
0.0236431287062091
 50
215.8550740132307908
 51
281.477665411504006
  0
ARC
  5
E618
  8
0
 10
840.1470736547687466
 20
160.5006545782248111
 30
0.0
 40
0.0931334732684237
 50
34.5098218835813384
 51
48.9126526678233091
  0
ARC
  5
E619
  8
0
 10
840.2052407825178761
 20
160.5673625403804863
 30
0.0
 40
0.0046271629534667
 50
48.9126526677941627
 51
111.5656521792741955
  0
LINE
  5
E61A
  8
0
 10
840.2035399896417402
 20
160.571665788059903
 30
0.0
 11
840.1688278082497163
 21
160.5379026385182897
 31
0.0
  0
ARC
  5
E61B
  8
0
 10
840.1852981931664317
 20
160.5209683475023894
 30
0.0
 40
0.0236209487298125
 50
134.2040745262983137
 51
215.8367367562501045
  0
LINE
  5
E61C
  8
0
 10
840.1661489595301191
 20
160.5071388113555884
 30
0.0
 11
840.1979421316279968
 21
160.4631160130433898
 31
0.0
  0
LINE
  5
E61D
  8
0
 10
840.1317457556518775
 20
160.502195666334103
 30
0.0
 11
840.1756114497285353
 21
160.4414640449973888
 31
0.0
  0
LINE
  5
E61E
  8
0
 10
840.2561682678359603
 20
160.3298208896941901
 30
0.0
 11
840.3385124655925438
 21
160.2158276628020133
 31
0.0
  0
LINE
  5
E61F
  8
0
 10
840.3663058598690441
 20
160.2418763467885015
 30
0.0
 11
840.3374663662627881
 21
160.215072002133212
 31
0.0
  0
ARC
  5
E620
  8
0
 10
840.3532530352654248
 20
160.1980867131580055
 30
0.0
 40
0.0231887679656734
 50
132.9053656866408915
 51
216.7896927753683087
  0
LINE
  5
E621
  8
0
 10
840.3346825627489807
 20
160.1841994344366071
 30
0.0
 11
840.3866672497752006
 21
160.1122344097300925
 31
0.0
  0
ARC
  5
E622
  8
0
 10
840.405857851071687
 20
160.1260085547488927
 30
0.0
 40
0.0236220471999921
 50
215.8428572538238939
 51
297.8428572538409753
  0
LINE
  5
E623
  8
0
 10
840.4168904851426305
 20
160.1051211877683897
 30
0.0
 11
840.4463167409729749
 21
160.1206640330183006
 31
0.0
  0
ARC
  5
E624
  8
0
 10
840.4419760287033796
 20
160.1241953573344006
 30
0.0
 40
0.0055957157212276
 50
320.8704154823607269
 51
16.9175689514210887
  0
ARC
  5
E625
  8
0
 10
839.8531947948695233
 20
159.9475512682045064
 30
0.0
 40
0.6203041233734501
 50
16.7020735750312213
 51
19.5758040853994117
  0
LINE
  5
E626
  8
0
 10
840.4142308179459633
 20
160.1039202198265912
 30
0.0
 11
840.518187681915947
 21
159.9600072952680989
 31
0.0
  0
LINE
  5
E627
  8
0
 10
840.6006165231142404
 20
159.8451520854403043
 30
0.0
 11
840.7274933792605225
 21
159.6702100688320911
 31
0.0
  0
LINE
  5
E628
  8
0
 10
840.8061439667292234
 20
159.5613752717077887
 30
0.0
 11
840.9288081575044771
 21
159.3911991193706967
 31
0.0
  0
LINE
  5
E629
  8
0
 10
841.0089068537070034
 20
159.2806435898280881
 30
0.0
 11
841.1193166623587558
 21
159.1278345761988078
 31
0.0
  0
LINE
  5
E62A
  8
0
 10
841.1452939480752775
 20
159.1530321483255079
 30
0.0
 11
841.1193166623587558
 21
159.1278345761988078
 31
0.0
  0
ARC
  5
E62B
  8
0
 10
841.1336499192476595
 20
159.1130577910554109
 30
0.0
 40
0.0205862971954535
 50
134.1270939806404101
 51
222.6410127584522058
  0
LINE
  5
E62C
  8
0
 10
841.1185063840578096
 20
159.0991125777487127
 30
0.0
 11
841.1701694831640452
 21
159.0275927434850871
 31
0.0
  0
ARC
  5
E62D
  8
0
 10
841.1896823289563372
 20
159.0409357527192924
 30
0.0
 40
0.0236386769159605
 50
214.364571121120008
 51
290.7496797563035216
  0
LINE
  5
E62E
  8
0
 10
841.198057176783891
 20
159.0188303468148092
 30
0.0
 11
841.2408499363276633
 21
159.0412295155171876
 31
0.0
  0
ARC
  5
E62F
  8
0
 10
841.2294693962963947
 20
159.0456461098829095
 30
0.0
 40
0.0122074975806387
 50
338.7896125917400809
 51
44.7976868940054871
  0
ARC
  5
E630
  8
0
 10
840.94217757437616
 20
158.8765268317663129
 30
0.0
 40
0.3452152719320098
 50
30.9848478648008587
 51
53.2443763258123397
  0
ARC
  5
E631
  8
0
 10
841.1470971510151458
 20
159.1499170321916949
 30
0.0
 40
0.0035993734691628
 50
62.5653831409200265
 51
120.0646518442522961
  0
LINE
  5
E632
  8
0
 10
841.1980261823156297
 20
159.0188732539922114
 30
0.0
 11
841.2816834740436889
 21
158.9030623221877931
 31
0.0
  0
LINE
  5
E633
  8
0
 10
841.3013005761429213
 20
158.922225180378291
 30
0.0
 11
841.2816834740436889
 21
158.9030623221877931
 31
0.0
  0
ARC
  5
E634
  8
0
 10
841.2998522981338283
 20
158.8881773147159038
 30
0.0
 40
0.0234876481634366
 50
140.6735772743161874
 51
215.9756840210901032
  0
LINE
  5
E635
  8
0
 10
841.2808445342711821
 20
158.874379687050606
 30
0.0
 11
841.3313247514214481
 21
158.8044973759861875
 31
0.0
  0
ARC
  5
E636
  8
0
 10
841.3525754376420309
 20
158.8171680519537006
 30
0.0
 40
0.0247414165787765
 50
210.805419560469403
 51
246.3765490594826986
  0
ARC
  5
E637
  8
0
 10
841.3520745629491557
 20
158.8160228729362018
 30
0.0
 40
0.023491492404998
 50
246.3765490594900029
 51
301.2724417445704717
  0
LINE
  5
E638
  8
0
 10
841.3642691862853553
 20
158.7959444920975898
 30
0.0
 11
841.4059111886398341
 21
158.8179421202353865
 31
0.0
  0
ARC
  5
E639
  8
0
 10
841.4053063250597688
 20
158.8189110949699909
 30
0.0
 40
0.0011422661628202
 50
301.9736675933625065
 51
350.273415317880108
  0
ARC
  5
E63A
  8
0
 10
841.3909830193338166
 20
158.8174752270616921
 30
0.0
 40
0.015499066532141
 50
4.5995450382460277
 51
34.484172974113271
  0
ARC
  5
E63B
  8
0
 10
841.0411120040494097
 20
158.5804549837191928
 30
0.0
 40
0.4380958741017789
 50
34.1287265697655471
 51
44.6969420681423415
  0
LINE
  5
E63C
  8
0
 10
841.4091843277145699
 20
158.7337638859295055
 30
0.0
 11
841.36426918630616
 21
158.7959444921085037
 31
0.0
  0
LINE
  5
E63D
  8
0
 10
841.4290068639902529
 20
158.7528014979241107
 30
0.0
 11
841.4081927000565884
 21
158.7328115242968067
 31
0.0
  0
ARC
  5
E63E
  8
0
 10
841.4246061191153103
 20
158.7157213769376938
 30
0.0
 40
0.0236954312463012
 50
133.8428574067372097
 51
220.0275188424990063
  0
LINE
  5
E63F
  8
0
 10
841.4064616832016554
 20
158.7004815308978891
 30
0.0
 11
841.4574355382343356
 21
158.6299158521466097
 31
0.0
  0
ARC
  5
E640
  8
0
 10
841.476584184918579
 20
158.6437480770960917
 30
0.0
 40
0.0236220472628135
 50
215.8428573872392917
 51
297.8428569537775275
  0
LINE
  5
E641
  8
0
 10
841.4876168189096006
 20
158.6228607100022998
 30
0.0
 11
841.5027585259498437
 21
158.6308585065185071
 31
0.0
  0
ARC
  5
E642
  8
0
 10
841.5028598435009144
 20
158.6073733572393962
 30
0.0
 40
0.023622047199985
 50
144.074628976625803
 51
215.842857253851605
  0
LINE
  5
E643
  8
0
 10
841.4837111968354293
 20
158.593541132371314
 30
0.0
 11
841.5061369677653147
 21
158.5624960063825881
 31
0.0
  0
LINE
  5
E644
  8
0
 10
841.626451873656265
 20
158.4855678286050988
 30
0.0
 11
841.6500148635294636
 21
158.4529484809330029
 31
0.0
  0
ARC
  5
E645
  8
0
 10
841.6691647435118284
 20
158.4667816339633077
 30
0.0
 40
0.023623590457207
 50
215.8429305150403081
 51
297.7145558863978181
  0
LINE
  5
E646
  8
0
 10
841.6801512949886046
 20
158.4458682479931042
 30
0.0
 11
841.7123559562327273
 21
158.4627865112078098
 31
0.0
  0
ARC
  5
E647
  8
0
 10
841.0832933560047877
 20
157.85836663831941
 30
0.0
 40
0.8955076904469894
 50
45.1347340482377604
 51
53.0821768289707592
  0
ARC
  5
E648
  8
0
 10
841.6192456313649473
 20
158.5717257766845023
 30
0.0
 40
0.0032487023987422
 50
53.0821768289797902
 51
128.4806554957499998
  0
LINE
  5
E649
  8
0
 10
841.6172241250859543
 20
158.574268920337488
 30
0.0
 11
841.5978711428144834
 21
158.5542932008164883
 31
0.0
  0
LINE
  5
E64A
  8
0
 10
841.7495503200564144
 20
158.3151564394447064
 30
0.0
 11
841.7634242145926464
 21
158.2959501073835042
 31
0.0
  0
ARC
  5
E64B
  8
0
 10
841.7889423093016603
 20
158.3143833695820035
 30
0.0
 40
0.0314794903526417
 50
215.8428572931611029
 51
285.1081635034703936
  0
LINE
  5
E64C
  8
0
 10
841.7971471887210555
 20
158.2839919519354055
 30
0.0
 11
841.8449798996686013
 21
158.3092570222229938
 31
0.0
  0
LINE
  5
E64D
  8
0
 10
841.846970884236157
 20
158.3074274675560957
 30
0.0
 11
841.8057406352629641
 21
158.3453147498854037
 31
0.0
  0
LINE
  5
E64E
  8
0
 10
841.7937383274955891
 20
158.3389836090829021
 30
0.0
 11
841.8148386616455809
 21
158.3501139007794905
 31
0.0
  0
ARC
  5
E64F
  8
0
 10
841.813622171693055
 20
158.3504567450106038
 30
0.0
 40
0.001263878938507
 50
344.2605333860840915
 51
39.8518114355360211
  0
LINE
  5
E650
  8
0
 10
841.8145924570787884
 20
158.35126664391899
 30
0.0
 11
841.7892642732028889
 21
158.38026832339051
 31
0.0
  0
ARC
  5
E651
  8
0
 10
841.9343970358319211
 20
158.2024368948177084
 30
0.0
 40
0.02128138083175
 50
164.7597321409216988
 51
213.222901226994793
  0
LINE
  5
E652
  8
0
 10
841.9165941949189573
 20
158.1907768765701121
 30
0.0
 11
841.9708182450993945
 21
158.115614249126196
 31
0.0
  0
ARC
  5
E653
  8
0
 10
841.9900259905977009
 20
158.1293738196823142
 30
0.0
 40
0.0236275954978673
 50
215.6161197008675003
 51
297.8143582152521276
  0
LINE
  5
E654
  8
0
 10
842.0010508227669561
 20
158.1084760603609993
 30
0.0
 11
842.0505313417255593
 21
158.1345800272395081
 31
0.0
  0
LINE
  5
E655
  8
0
 10
842.0505313417255593
 20
158.1345800272395081
 30
0.0
 11
841.9542430295440454
 21
158.219736143597288
 31
0.0
  0
ARC
  5
E656
  8
0
 10
840.145255559974089
 20
160.4894392420532938
 30
0.0
 40
0.007874015596134
 50
152.7123457776922919
 51
204.0456522376705095
  0
LINE
  5
E657
  8
0
 10
840.1380648428898894
 20
160.4862308609314141
 30
0.0
 11
840.1679918331566341
 21
160.4203801267339884
 31
0.0
  0
ARC
  5
E658
  8
0
 10
840.1911748051564928
 20
160.4228925903138929
 30
0.0
 40
0.0232805254521727
 50
152.1248353310481036
 51
186.4658525298384859
  0
ARC
  5
E659
  8
0
 10
840.1943179563171498
 20
160.423248809690989
 30
0.0
 40
0.0264437977237574
 50
186.4658525298401912
 51
223.3891218073935931
  0
LINE
  5
E65A
  8
0
 10
840.1751011134233522
 20
160.4050832547243886
 30
0.0
 11
840.2737261217737341
 21
160.1953390969713951
 31
0.0
  0
ARC
  5
E65B
  8
0
 10
840.1843877901554833
 20
160.3760807536440041
 30
0.0
 40
0.0039373309490733
 50
308.3445631141947842
 51
25.6317868254541885
  0
LINE
  5
E65C
  8
0
 10
840.1868304678405366
 20
160.3729927282668939
 30
0.0
 11
840.1528984068468162
 21
160.3461543945356027
 31
0.0
  0
ARC
  5
E65D
  8
0
 10
840.1626679560597495
 20
160.333803020271489
 30
0.0
 40
0.0157480328337694
 50
128.3405438849625
 51
215.8611008959244089
  0
LINE
  5
E65E
  8
0
 10
840.1499051273826808
 20
160.3245774719250107
 30
0.0
 11
840.3908558084006017
 21
159.9912409431960043
 31
0.0
  0
ARC
  5
E65F
  8
0
 10
840.4036282889463791
 20
160.0004734683487868
 30
0.0
 40
0.0157599422585956
 50
215.861100895931088
 51
302.8246902235587754
  0
LINE
  5
E660
  8
0
 10
840.4121712868626446
 20
159.9872298673807904
 30
0.0
 11
840.4178211587741316
 21
159.9908744081731129
 31
0.0
  0
ARC
  5
E661
  8
0
 10
840.4122517191009365
 20
159.9942627901081096
 30
0.0
 40
0.0065191863304762
 50
328.6841580994474725
 51
12.9029206072551101
  0
ARC
  5
E662
  8
0
 10
840.1448546885270616
 20
159.9242514760107952
 30
0.0
 40
0.282926634903496
 50
14.6313740693466805
 51
26.9556900234823402
  0
ARC
  5
E663
  8
0
 10
839.4023965138957237
 20
159.5812823205621953
 30
0.0
 40
1.100622970619199
 50
25.349545872284331
 51
32.8023135965430725
  0
ARC
  5
E664
  8
0
 10
840.1646095097758007
 20
160.0773703712864062
 30
0.0
 40
0.1912401754891543
 50
31.5854556570931813
 51
44.6996282962490028
  0
ARC
  5
E665
  8
0
 10
840.2973508462181371
 20
160.2089554834525984
 30
0.0
 40
0.0043344727702268
 50
42.5539000625627324
 51
104.8925657691630988
  0
LINE
  5
E666
  8
0
 10
840.2962368546326388
 20
160.2131443588318973
 30
0.0
 11
840.2661785609114986
 21
160.1893692203618969
 31
0.0
  0
ARC
  5
E667
  8
0
 10
840.2759573386420016
 20
160.1769860198112099
 30
0.0
 40
0.0157787245929043
 50
128.2974786642882918
 51
209.9680390841461133
  0
LINE
  5
E668
  8
0
 10
840.3232498313093402
 20
160.0847685548621939
 30
0.0
 11
840.3070168072263186
 21
160.0716476080204984
 31
0.0
  0
ARC
  5
E669
  8
0
 10
840.311966548255441
 20
160.0655238681488015
 30
0.0
 40
0.0078740158923089
 50
128.9481681570871956
 51
174.6499397980674928
  0
LINE
  5
E66A
  8
0
 10
840.3041268346271409
 20
160.0662580455797865
 30
0.0
 11
840.300736355005597
 21
160.0300537328733981
 31
0.0
  0
ARC
  5
E66B
  8
0
 10
840.3203700936202267
 20
160.028215062679493
 30
0.0
 40
0.0197196450289507
 50
174.6499397980659012
 51
210.7369150235140012
  0
LINE
  5
E66C
  8
0
 10
840.3034206020873853
 20
160.0181364151092112
 30
0.0
 11
840.3053906338604975
 21
160.0148233677363976
 31
0.0
  0
LINE
  5
E66D
  8
0
 10
840.305700998979205
 20
160.0150843704633132
 30
0.0
 11
840.3001855540585439
 21
160.0107596404739922
 31
0.0
  0
ARC
  5
E66E
  8
0
 10
840.3038298792888554
 20
160.0061119341129938
 30
0.0
 40
0.0059061223152415
 50
128.1004423045874887
 51
209.5548016361194925
  0
LINE
  5
E66F
  8
0
 10
840.2986922361537836
 20
160.0031987050080033
 30
0.0
 11
840.3899961055402628
 21
159.8496213989168098
 31
0.0
  0
LINE
  5
E670
  8
0
 10
840.3383406718685364
 20
159.934718625354293
 30
0.0
 11
840.3153795511054795
 21
159.9153389529766969
 31
0.0
  0
ARC
  5
E671
  8
0
 10
840.3229975666866949
 20
159.9063130947305069
 30
0.0
 40
0.0118110235999955
 50
130.1650746921382904
 51
215.8428572538416859
  0
LINE
  5
E672
  8
0
 10
840.3134232433542365
 20
159.8993969822963948
 30
0.0
 11
840.4499712008052938
 21
159.7103667564979048
 31
0.0
  0
ARC
  5
E673
  8
0
 10
840.4595455241836817
 20
159.7172828689649862
 30
0.0
 40
0.0118110236565034
 50
215.8428572538570904
 51
301.842549696311778
  0
LINE
  5
E674
  8
0
 10
840.4657768644525504
 20
159.707249391089988
 30
0.0
 11
840.4784535246548103
 21
159.7151222926081005
 31
0.0
  0
LINE
  5
E675
  8
0
 10
840.3041268346271409
 20
160.0662580455797865
 30
0.0
 11
841.0489642021957479
 21
159.035142103601089
 31
0.0
  0
LINE
  5
E676
  8
0
 10
841.3294785930334001
 20
158.8070564567684073
 30
0.0
 11
841.269489500939244
 21
158.8647811410550901
 31
0.0
  0
LINE
  5
E677
  8
0
 10
841.2730511303336698
 20
158.8671245501097928
 30
0.0
 11
841.2379661477419859
 21
158.844040398069609
 31
0.0
  0
ARC
  5
E678
  8
0
 10
841.2293102728183385
 20
158.8571962298491087
 30
0.0
 40
0.015748018304024
 50
215.8428114582800106
 51
303.342903183870078
  0
LINE
  5
E679
  8
0
 10
841.2165445116741012
 20
158.8479747645147029
 30
0.0
 11
841.088961591002203
 21
159.02459453505179
 31
0.0
  0
ARC
  5
E67A
  8
0
 10
841.1017283858410565
 20
159.0338167470850124
 30
0.0
 40
0.0157492934838549
 50
129.317108185262498
 51
215.8428114582980868
  0
ARC
  5
E67B
  8
0
 10
841.1482286343009491
 20
158.9770391429626102
 30
0.0
 40
0.0891384577840235
 50
127.142350660970294
 51
129.3171081852613895
  0
ARC
  5
E67C
  8
0
 10
841.0924162789277716
 20
159.0507230364910072
 30
0.0
 40
0.0032971153346884
 50
307.1423506610121876
 51
2.5604934051385291
  0
ARC
  5
E67D
  8
0
 10
841.1010711400710989
 20
159.0544932351191108
 30
0.0
 40
0.0064704055973307
 50
188.3265270935237083
 51
214.0501931944889122
  0
ARC
  5
E67E
  8
0
 10
841.0951416950481416
 20
159.0534966973442863
 30
0.0
 40
0.0004764884056148
 50
76.2339420758941912
 51
172.8229613663297073
  0
ARC
  5
E67F
  8
0
 10
841.0709148172426239
 20
159.0059624087438976
 30
0.0
 40
0.0538160665063634
 50
47.5987081382640866
 51
63.1095434955602386
  0
ARC
  5
E680
  8
0
 10
840.5757845266228969
 20
158.426267507189209
 30
0.0
 40
0.8161532946383291
 50
45.7790141888757418
 51
49.3733692366082906
  0
ARC
  5
E681
  8
0
 10
839.8309812021719836
 20
157.6376333097269935
 30
0.0
 40
1.900847968397025
 50
40.8476696353319184
 51
46.2687741506244024
  0
ARC
  5
E682
  8
0
 10
841.2078309917392289
 20
158.8283571300939911
 30
0.0
 40
0.0805354521046878
 50
29.4828247188040287
 51
40.7085568296211022
  0
ARC
  5
E683
  8
0
 10
841.2763945458425496
 20
158.8672131526535054
 30
0.0
 40
0.0017290176741689
 50
345.1031014075609846
 51
26.8349989717341693
  0
ARC
  5
E684
  8
0
 10
841.2776609468634206
 20
158.8670652800796006
 30
0.0
 40
0.0005016070686655
 50
266.2752514553936862
 51
323.7473051687837824
  0
ARC
  5
E685
  8
0
 10
841.2749847703006481
 20
158.8639422606728999
 30
0.0
 40
0.0037236983741564
 50
44.7702269627590397
 51
121.2839294460145965
  0
ARC
  5
E686
  8
0
 10
841.0739747228526539
 20
159.0322855087468952
 30
0.0
 40
0.0224513049079065
 50
37.6552314707747016
 51
61.7231645947558505
  0
ARC
  5
E687
  8
0
 10
841.0823850546803442
 20
159.0445047331434125
 30
0.0
 40
0.0078740158447604
 50
73.5816959984520338
 51
122.8428547506921973
  0
LINE
  5
E688
  8
0
 10
841.0781146863920412
 20
159.0511201756989124
 30
0.0
 11
841.0554943398972227
 21
159.036518398317213
 31
0.0
  0
ARC
  5
E689
  8
0
 10
841.0507336181486835
 20
159.0429267102148003
 30
0.0
 40
0.0079831655966697
 50
257.1944239564256804
 51
306.6085813009239018
  0
LINE
  5
E68A
  8
0
 10
841.0489642021957479
 20
159.035142103601089
 30
0.0
 11
841.0135282086597499
 21
159.0432998056033114
 31
0.0
  0
ARC
  5
E68B
  8
0
 10
841.0180846930262533
 20
159.0629214761142123
 30
0.0
 40
0.0201437703053035
 50
217.9568673910951873
 51
256.927446730751285
  0
LINE
  5
E68C
  8
0
 10
841.0022018537989652
 20
159.0505316859548088
 30
0.0
 11
840.9965741293259498
 21
159.0467581536547073
 31
0.0
  0
ARC
  5
E68D
  8
0
 10
840.9932406258592437
 20
159.0518495632115048
 30
0.0
 40
0.006085613919236
 50
212.559840996543187
 51
303.2140104998794072
  0
LINE
  5
E68E
  8
0
 10
840.9881114889863056
 20
159.048574406465292
 30
0.0
 11
840.9780744730569495
 21
159.0596412717962096
 31
0.0
  0
ARC
  5
E68F
  8
0
 10
840.9760960929100975
 20
159.0541224387602028
 30
0.0
 40
0.005862721729902
 50
70.2783609836174463
 51
122.0228864517303009
  0
LINE
  5
E690
  8
0
 10
840.9729873379892524
 20
159.0590930673847936
 30
0.0
 11
840.9460584778081511
 21
159.0423713254828044
 31
0.0
  0
ARC
  5
E691
  8
0
 10
840.9398259843410415
 20
159.0523989544784911
 30
0.0
 40
0.0118066641390946
 50
215.8345235803811875
 51
301.8622785754615734
  0
LINE
  5
E692
  8
0
 10
840.9302541894245451
 20
159.0454867869335089
 30
0.0
 11
840.800426966179316
 21
159.2252682443968013
 31
0.0
  0
ARC
  5
E693
  8
0
 10
840.8111277143727875
 20
159.2307099310793888
 30
0.0
 40
0.0120049142375981
 50
130.1708016566190054
 51
206.9548518248807056
  0
LINE
  5
E694
  8
0
 10
840.8033837239380546
 20
159.239883184482693
 30
0.0
 11
840.8146608791206518
 21
159.2492932558172924
 31
0.0
  0
ARC
  5
E695
  8
0
 10
840.8585985266377065
 20
159.2877755736795109
 30
0.0
 40
0.0584072397685339
 50
198.6839258073825931
 51
221.2632696705115052
  0
ARC
  5
E696
  8
0
 10
840.8111984530858081
 20
159.270197600327208
 30
0.0
 40
0.0080096013408094
 50
120.5806850589612935
 51
188.1293511629700106
  0
LINE
  5
E697
  8
0
 10
840.807123445334355
 20
159.2770930868956896
 30
0.0
 11
840.6926062640955024
 21
159.4282345743050087
 31
0.0
  0
LINE
  5
E698
  8
0
 10
840.6942346284854466
 20
159.4292562832254987
 30
0.0
 11
840.675155211265178
 21
159.4173963831611047
 31
0.0
  0
ARC
  5
E699
  8
0
 10
840.6689225365346374
 20
159.4274230951012044
 30
0.0
 40
0.0118059809685094
 50
215.8200321898447953
 51
301.8653750834304788
  0
LINE
  5
E69A
  8
0
 10
840.6593495476367934
 20
159.4205137485189141
 30
0.0
 11
840.586994494933947
 21
159.5207626082284094
 31
0.0
  0
ARC
  5
E69B
  8
0
 10
840.596586228246224
 20
159.5276854836739915
 30
0.0
 40
0.0118290976989699
 50
130.164001038441711
 51
215.8200321898594893
  0
LINE
  5
E69C
  8
0
 10
840.5889567244097407
 20
159.5367252969230947
 30
0.0
 11
840.6053566929350609
 21
159.5504100312963942
 31
0.0
  0
ARC
  5
E69D
  8
0
 10
840.6038740004432839
 20
159.5531670097957999
 30
0.0
 40
0.003130384556517
 50
298.2711938677966828
 51
30.8714633946699486
  0
ARC
  5
E69E
  8
0
 10
840.6100957740576405
 20
159.5568864569868026
 30
0.0
 40
0.0041183914999408
 50
165.9812101882914135
 51
210.8714633946918013
  0
ARC
  5
E69F
  8
0
 10
840.6070211488104178
 20
159.5576541182327048
 30
0.0
 40
0.0009493815284798
 50
49.6375351844738191
 51
165.9812101884133995
  0
ARC
  5
E6A0
  8
0
 10
840.4651736755190541
 20
159.390762509261009
 30
0.0
 40
0.2199779523230794
 50
35.8733240044199277
 51
49.6375351844792974
  0
ARC
  5
E6A1
  8
0
 10
839.0222484607329534
 20
158.3472823319852978
 30
0.0
 40
2.00067558410485
 50
33.1567476986458516
 51
35.8733240044199277
  0
ARC
  5
E6A2
  8
0
 10
840.6727170702382637
 20
159.4255401474339067
 30
0.0
 40
0.0292074642665514
 50
4.2309894512850441
 51
33.1567476986458516
  0
ARC
  5
E6A3
  8
0
 10
840.7018349421313133
 20
159.4319047409865107
 30
0.0
 40
0.0042097487459807
 50
227.6236906332223953
 51
270.136018772489706
  0
ARC
  5
E6A4
  8
0
 10
840.6964055266660125
 20
159.4268519187941138
 30
0.0
 40
0.0032394084692387
 50
36.8542508275926011
 51
132.0788477506000902
  0
LINE
  5
E6A5
  8
0
 10
840.4722177658790088
 20
159.7241990434123124
 30
0.0
 11
840.4797560495105699
 21
159.7132468600403001
 31
0.0
  0
LINE
  5
E6A6
  8
0
 10
840.5082459357081461
 20
159.7370249254144881
 30
0.0
 11
840.4683304573268288
 21
159.7037129275132088
 31
0.0
  0
ARC
  5
E6A7
  8
0
 10
840.4758982733540051
 20
159.694644933515292
 30
0.0
 40
0.0118110268210463
 50
129.8471397586866942
 51
215.8840966081797035
  0
LINE
  5
E6A8
  8
0
 10
840.466328927849645
 20
159.6877219297462887
 30
0.0
 11
840.5628116050515928
 21
159.5543584210537915
 31
0.0
  0
ARC
  5
E6A9
  8
0
 10
840.5713899392488884
 20
159.5624251172887114
 30
0.0
 40
0.0117753728495616
 50
223.2393863018438083
 51
301.9046580932301822
  0
LINE
  5
E6AA
  8
0
 10
840.577613310390916
 20
159.5524286650494048
 30
0.0
 11
840.6224269181649333
 21
159.5802607075646904
 31
0.0
  0
LINE
  5
E6AB
  8
0
 10
840.3031697849530701
 20
160.0185832171812876
 30
0.0
 11
841.013528480139712
 21
159.0432997431059903
 31
0.0
  0
ARC
  5
E6AC
  8
0
 10
840.3808044902393704
 20
159.8264079803533093
 30
0.0
 40
0.0119872152824748
 50
130.1207935280571917
 51
208.2188258691234921
  0
LINE
  5
E6AD
  8
0
 10
840.3730799144560706
 20
159.8355744550954114
 30
0.0
 11
840.3941179628841383
 21
159.8530441255967958
 31
0.0
  0
ARC
  5
E6AE
  8
0
 10
840.3915178015448646
 20
159.8563734965877927
 30
0.0
 40
0.004224399387568
 50
307.9890090403093268
 51
29.3197199971839915
  0
ARC
  5
E6AF
  8
0
 10
840.3967849726403756
 20
159.8593316793582915
 30
0.0
 40
0.0018166217722856
 50
134.6322828250081045
 51
209.3197199973429008
  0
ARC
  5
E6B0
  8
0
 10
840.3944923853728142
 20
159.8573173275966042
 30
0.0
 40
0.0034597542099515
 50
47.8147742804312088
 51
72.9172410480734214
  0
ARC
  5
E6B1
  8
0
 10
840.3230834706596397
 20
159.7862971254909041
 30
0.0
 40
0.1041682272652865
 50
35.2744767123347529
 51
44.9422675762885007
  0
ARC
  5
E6B2
  8
0
 10
839.9453278391141566
 20
159.5033389136198139
 30
0.0
 40
0.5761160934157598
 50
32.9818211018199676
 51
36.5529396611644515
  0
ARC
  5
E6B3
  8
0
 10
839.8564708955937022
 20
159.4210091715409021
 30
0.0
 40
0.6957789341143398
 50
26.5086214428835909
 51
34.6858821496834011
  0
ARC
  5
E6B4
  8
0
 10
840.4486338328810007
 20
159.7163619835305894
 30
0.0
 40
0.0340461875716027
 50
13.4759440443024907
 51
26.508621442882859
  0
ARC
  5
E6B5
  8
0
 10
840.4805271237438546
 20
159.7240047242690935
 30
0.0
 40
0.0012499455908728
 50
324.1575797395504992
 51
13.4759440442687097
  0
ARC
  5
E6B6
  8
0
 10
840.4812630433106051
 20
159.7237739138923018
 30
0.0
 40
0.0005727262431794
 50
245.0393945533517126
 51
298.9612630424534814
  0
ARC
  5
E6B7
  8
0
 10
840.4760355421678923
 20
159.7190943033978954
 30
0.0
 40
0.0064936184901871
 50
39.8430778554631715
 51
113.260434102571395
  0
LINE
  5
E6B8
  8
0
 10
840.4734711396897637
 20
159.7250601160857002
 30
0.0
 11
840.4592784013066193
 21
159.7162455413298119
 31
0.0
  0
ARC
  5
E6B9
  8
0
 10
840.4530325167270348
 20
159.7263388988235135
 30
0.0
 40
0.0118695804353161
 50
220.26174847771901
 51
301.7499996523025061
  0
LINE
  5
E6BA
  8
0
 10
840.4038028813707797
 20
159.9846040232322935
 30
0.0
 11
840.5478843747830524
 21
159.785144743588603
 31
0.0
  0
LINE
  5
E6BB
  8
0
 10
840.5724564279814786
 20
159.8078630981690083
 30
0.0
 11
840.5529159029183575
 21
159.7922975285439975
 31
0.0
  0
ARC
  5
E6BC
  8
0
 10
840.5626020055470917
 20
159.7801379008691924
 30
0.0
 40
0.0155459682659683
 50
128.5400869409739926
 51
161.2120280642814976
  0
ARC
  5
E6BD
  8
0
 10
840.5630369440450522
 20
159.7799899376076098
 30
0.0
 40
0.0160053859666962
 50
161.212028064285505
 51
215.2243023553288879
  0
LINE
  5
E6BE
  8
0
 10
840.5499621390065386
 20
159.770758369314791
 30
0.0
 11
840.6775377659785136
 21
159.5941489932135084
 31
0.0
  0
ARC
  5
E6BF
  8
0
 10
840.6903109673253311
 20
159.6033602005958016
 30
0.0
 40
0.0157480479452264
 50
215.7967069005565008
 51
270.9517004723101081
  0
ARC
  5
E6C0
  8
0
 10
840.690310967722553
 20
159.6033601766814911
 30
0.0
 40
0.0157480240277058
 50
270.9517004723101081
 51
303.3428648632947784
  0
LINE
  5
E6C1
  8
0
 10
840.698966836993236
 20
159.5902043343313039
 30
0.0
 11
840.7147440100710583
 21
159.6005849047265031
 31
0.0
  0
ARC
  5
E6C2
  8
0
 10
840.7055280869341232
 20
159.6070830236292863
 30
0.0
 40
0.0112764705710751
 50
324.8124546014058183
 51
18.3662185728308884
  0
ARC
  5
E6C3
  8
0
 10
840.2806958463133924
 20
159.4512769808698067
 30
0.0
 40
0.463773081027845
 50
20.0972406758420092
 51
37.2794470095807498
  0
ARC
  5
E6C4
  8
0
 10
840.2940303466848491
 20
159.4872514505065908
 30
0.0
 40
0.4318622017243443
 50
34.5523101771686001
 51
46.4333974425170197
  0
ARC
  5
E6C5
  8
0
 10
840.566205913640033
 20
159.7741884002145127
 30
0.0
 40
0.0363766431759486
 50
45.5750898356966587
 51
74.3564167993423411
  0
ARC
  5
E6C6
  8
0
 10
840.5758547724165055
 20
159.8042866151558883
 30
0.0
 40
0.0049335560847859
 50
88.1393080205512973
 51
133.5369716501809023
  0
LINE
  5
E6C7
  8
0
 10
840.6905725229864856
 20
159.587614324858805
 30
0.0
 11
840.8740162330889234
 21
159.3336639601384945
 31
0.0
  0
LINE
  5
E6C8
  8
0
 10
840.8883064686503985
 20
159.3481682733302023
 30
0.0
 11
840.8790671588735677
 21
159.3408321720388017
 31
0.0
  0
ARC
  5
E6C9
  8
0
 10
840.8887347843622138
 20
159.3286564695576999
 30
0.0
 40
0.0155470483853508
 50
128.4499149294767051
 51
161.2108602767040963
  0
ARC
  5
E6CA
  8
0
 10
840.8891680912907987
 20
159.3285090514916078
 30
0.0
 40
0.0160047458627493
 50
161.2108602766930119
 51
215.2254699839836007
  0
ARC
  5
E6CB
  8
0
 10
849.1345704308653239
 20
165.150491624687902
 30
0.0
 40
10.1096730990462795
 50
215.2254699839836007
 51
216.4602445335659127
  0
ARC
  5
E6CC
  8
0
 10
841.0164910602569535
 20
159.1521414751894099
 30
0.0
 40
0.015941520314496
 50
216.4602445335742971
 51
302.6802823278829919
  0
LINE
  5
E6CD
  8
0
 10
841.0250986951886034
 20
159.1387235509527898
 30
0.0
 11
841.0524801833583979
 21
159.1567391600447081
 31
0.0
  0
ARC
  5
E6CE
  8
0
 10
841.0448152504567361
 20
159.1615490613893087
 30
0.0
 40
0.0090491075433278
 50
327.8908924748251934
 51
30.5212457710279104
  0
ARC
  5
E6CF
  8
0
 10
840.729012115195701
 20
159.0070644003365032
 30
0.0
 40
0.3605862966697415
 50
26.1786378602885783
 51
40.3414305190833886
  0
ARC
  5
E6D0
  8
0
 10
840.6136989672563686
 20
158.9570368259063002
 30
0.0
 40
0.4822474173846717
 50
35.9988226083457619
 51
53.8370041557523322
  0
ARC
  5
E6D1
  8
0
 10
840.891444372224214
 20
159.3370425080564985
 30
0.0
 40
0.0115598050054611
 50
53.8370041557604679
 51
105.7505402310222991
  0
LINE
  5
E6D2
  8
0
 10
841.0166113988358347
 20
159.1362004090844096
 30
0.0
 11
841.0781146863744198
 21
159.0511201757232129
 31
0.0
  0
ARC
  5
E6D3
  8
0
 10
840.850843330814655
 20
159.1755895756938912
 30
0.0
 40
0.0118110235752964
 50
129.8428572448885916
 51
212.3286922308020905
  0
LINE
  5
E6D4
  8
0
 10
840.8432761946659184
 20
159.1846581328229036
 30
0.0
 11
840.8546232386082693
 21
159.1941265218042076
 31
0.0
  0
ARC
  5
E6D5
  8
0
 10
840.8509920023843733
 20
159.1984782438426009
 30
0.0
 40
0.0056677474549111
 50
309.8428572448643195
 51
25.8585540136798784
  0
ARC
  5
E6D6
  8
0
 10
840.8599728184118476
 20
159.2043135129439122
 30
0.0
 40
0.0051352088896023
 50
205.015279936962088
 51
220.9154237415613977
  0
ARC
  5
E6D7
  8
0
 10
840.8554252368689959
 20
159.2022311431906019
 30
0.0
 40
0.0001384142251728
 50
80.52048647247193
 51
220.0721496647616959
  0
ARC
  5
E6D8
  8
0
 10
840.8503268140957516
 20
159.1951725817129102
 30
0.0
 40
0.0088315423169088
 50
47.8928227380939191
 51
54.5580233963516221
  0
ARC
  5
E6D9
  8
0
 10
839.7006940090216176
 20
158.1059883175340133
 30
0.0
 40
1.5924648609539309
 50
40.5369854091950899
 51
43.4779732206003118
  0
ARC
  5
E6DA
  8
0
 10
839.2681101219556012
 20
157.7074701250454893
 30
0.0
 40
2.1803433734575082
 50
39.2685313821553592
 51
41.1076402701851933
  0
ARC
  5
E6DB
  8
0
 10
840.8719076950527551
 20
159.01840547810869
 30
0.0
 40
0.1089387379013332
 50
34.6297785234077793
 51
39.3855742837801799
  0
ARC
  5
E6DC
  8
0
 10
840.9605721967570844
 20
159.07959310843259
 30
0.0
 40
0.0012113440867552
 50
2.8335369085691182
 51
36.4183955966546975
  0
ARC
  5
E6DD
  8
0
 10
840.9617608453968387
 20
159.0797807820302978
 30
0.0
 40
0.0001295404543052
 50
244.9690196753209932
 51
279.4256026019888282
  0
ARC
  5
E6DE
  8
0
 10
840.728491766754928
 20
158.779557912537399
 30
0.0
 40
0.3800686829395182
 50
52.1489483486523326
 51
52.4725169035454329
  0
ARC
  5
E6DF
  8
0
 10
840.9573598669397825
 20
159.0757845047664887
 30
0.0
 40
0.0058273627567068
 50
62.9768809050310807
 51
121.8569691373669031
  0
LINE
  5
E6E0
  8
0
 10
840.9542841814833309
 20
159.0807340820888953
 30
0.0
 11
840.9294746867482218
 21
159.0653292118279865
 31
0.0
  0
ARC
  5
E6E1
  8
0
 10
840.9231479574774539
 20
159.0756718309089024
 30
0.0
 40
0.0121242431812028
 50
226.5085032368124018
 51
301.4547269356465904
  0
LINE
  5
E6E2
  8
0
 10
840.9584012308598631
 20
159.0815180654302026
 30
0.0
 11
840.9780744730570632
 21
159.0596412717960106
 31
0.0
  0
LINE
  5
E6E3
  8
0
 10
840.5842280567991338
 20
159.556536834696999
 30
0.0
 11
840.5959147584128459
 21
159.542531335327908
 31
0.0
  0
ARC
  5
E6E4
  8
0
 10
841.3845462055905955
 20
158.6686505714914972
 30
0.0
 40
0.095173903774526
 50
45.080942081733248
 51
62.1506365610165332
  0
LINE
  5
E6E5
  8
0
 10
842.0479566331526939
 20
158.1332349468117116
 30
0.0
 11
842.2461923540674888
 21
157.9821261705386064
 31
0.0
  0
ARC
  5
E6E6
  8
0
 10
847.2454133944590922
 20
164.2957536709342037
 30
0.0
 40
8.0624389101908402
 50
226.4567111253803944
 51
226.4999151138715092
  0
ARC
  5
E6E7
  8
0
 10
840.6221244864813116
 20
157.6571196795474066
 30
0.0
 40
1.326094180553766
 50
45.5563076997530274
 51
46.8322017149372911
  0
ARC
  5
E6E8
  8
0
 10
841.4005601642481906
 20
158.7505661285825909
 30
0.0
 40
0.0071602241817814
 50
225.0358084183361882
 51
282.4232195324639179
  0
ARC
  5
E6E9
  8
0
 10
840.8527855217535034
 20
158.2021063671213881
 30
0.0
 40
0.7679947080105777
 50
45.0358084183370977
 51
50.6645695697086325
  0
ARC
  5
E6EA
  8
0
 10
841.4661881317945245
 20
159.3400997319446049
 30
0.0
 40
0.4480566984905578
 50
215.1835535755245985
 51
236.3663297329102022
  0
ARC
  5
E6EB
  8
0
 10
840.8747680743838373
 20
158.7324610766733883
 30
0.0
 40
0.4157551207245494
 50
34.3500027666705634
 51
57.1998805417650402
  0
ARC
  5
E6EC
  8
0
 10
911.2495601838951416
 20
209.7828915383041988
 30
0.0
 40
86.6513917288417161
 50
215.4164620062801134
 51
215.8366648280338893
  0
ARC
  5
E6ED
  8
0
 10
844.3033997351367361
 20
162.1045319965926126
 30
0.0
 40
4.5081782876971497
 50
219.2980827821801029
 51
220.1326617744230134
  0
ARC
  5
E6EE
  8
0
 10
841.8149411178204673
 20
160.112196682779711
 30
0.0
 40
1.3088522076725999
 50
219.6460178864330999
 51
227.8083659648399077
  0
ARC
  5
E6EF
  8
0
 10
840.8216255627642113
 20
159.1601635255539122
 30
0.0
 40
0.0839654083669976
 50
46.7028953605590829
 51
75.4187982963422741
  0
ARC
  5
E6F0
  8
0
 10
840.994499786955771
 20
159.3872958308548107
 30
0.0
 40
0.2104808152087461
 50
215.2715171514502117
 51
223.8711018118397078
  0
ARC
  5
E6F1
  8
0
 10
840.8250534246488996
 20
159.2628505280264903
 30
0.0
 40
0.0037635015301529
 50
58.9710610939671582
 51
129.5296803356154953
  0
ARC
  5
E6F2
  8
0
 10
840.7649599575971706
 20
159.1434511199919939
 30
0.0
 40
0.1374222920675361
 50
54.5910933905180329
 51
63.1659813273104902
  0
ARC
  5
E6F3
  8
0
 10
840.8627201053861882
 20
159.3038323058331969
 30
0.0
 40
0.0516648211052936
 50
249.4488586736036098
 51
255.6367948671955901
  0
ARC
  5
E6F4
  8
0
 10
843.3515984537211807
 20
161.4794145075871086
 30
0.0
 40
3.3484197523446979
 50
219.9326360603932926
 51
222.4067874069004063
  0
LINE
  5
E6F5
  8
0
 10
840.8014769649659002
 20
159.3296333746926905
 30
0.0
 11
840.7949933020720437
 21
159.3255750704171021
 31
0.0
  0
ARC
  5
E6F6
  8
0
 10
840.7918281026551313
 20
159.3305361657419894
 30
0.0
 40
0.0058848070632557
 50
224.3045728012486109
 51
302.5380446495206002
  0
ARC
  5
E6F7
  8
0
 10
842.1728088397582042
 20
160.6783940134480986
 30
0.0
 40
1.9356072155647781
 50
220.1919340317471097
 51
224.3045728012486109
  0
ARC
  5
E6F8
  8
0
 10
840.9404436534886145
 20
159.5523357853948028
 30
0.0
 40
0.1474541309966837
 50
192.9980360932680981
 51
245.1963155879602141
  0
ARC
  5
E6F9
  8
0
 10
840.7446023564658617
 20
159.3931959084902985
 30
0.0
 40
0.1363483606242898
 50
10.6884436075981295
 51
67.5059080736322841
  0
ARC
  5
E6FA
  8
0
 10
840.6588888377989406
 20
160.0700871433342058
 30
0.0
 40
0.2214397108694296
 50
188.1718852441474041
 51
226.3955994927771087
  0
ARC
  5
E6FB
  8
0
 10
840.2944321583941019
 20
159.8821079686186124
 30
0.0
 40
0.2135304287610845
 50
7.4348296316607607
 51
47.1326551052627778
  0
ARC
  5
E6FC
  8
0
 10
840.7059389704176056
 20
160.1592833775524127
 30
0.0
 40
0.2893917985005149
 50
205.8885719512039998
 51
222.0368595025090883
  0
ARC
  5
E6FD
  8
0
 10
841.0352344775303663
 20
160.6870994961338965
 30
0.0
 40
0.8914746839787092
 50
200.635118051765204
 51
211.345648890798202
  0
ARC
  5
E6FE
  8
0
 10
838.667018180144737
 20
159.6031915614302079
 30
0.0
 40
1.7223797526979669
 50
21.1039880248250817
 51
25.4605016906926416
  0
ARC
  5
E6FF
  8
0
 10
842.6951013138848339
 20
158.5115246652466112
 30
0.0
 40
0.4386420866147252
 50
293.3523540974363755
 51
299.8335309652796923
  0
ARC
  5
E700
  8
0
 10
842.2512687145565451
 20
158.5987895431736945
 30
0.0
 40
0.7884374300891932
 50
307.3190829682076242
 51
321.5778116179142785
  0
ARC
  5
E701
  8
0
 10
842.4094596592256039
 20
158.3882778209946025
 30
0.0
 40
0.5251228006098496
 50
275.9991966465825044
 51
307.5175162148489107
  0
LINE
  5
E702
  8
0
 10
845.0974905138042459
 20
154.0651034147319081
 30
0.0
 11
844.1462954894542463
 21
153.7188967388175911
 31
0.0
  0
LINE
  5
E703
  8
0
 10
844.1914040145693434
 20
153.7033895660987923
 30
0.0
 11
844.3795150934573712
 21
153.1865586246318003
 31
0.0
  0
LINE
  5
E704
  8
0
 10
845.1359418967282409
 20
154.0471732404126897
 30
0.0
 11
845.2051549343136685
 21
153.8570119825978111
 31
0.0
  0
ARC
  5
E705
  8
0
 10
845.10775111810608
 20
154.0369126361090082
 30
0.0
 40
0.03
 50
20.00000000803891
 51
110.0000000036843062
  0
ARC
  5
E706
  8
0
 10
844.2195947931920728
 20
153.7136501704007969
 30
0.0
 40
0.03
 50
110.000000003663402
 51
200.0000000045208992
  0
LINE
  5
E707
  8
0
 10
844.4179664763812525
 20
153.1686284503107061
 30
0.0
 11
845.322049202927019
 21
153.4976876521290876
 31
0.0
  0
ARC
  5
E708
  8
0
 10
844.4077058720804416
 20
153.1968192289338049
 30
0.0
 40
0.03
 50
200.0000000045355932
 51
290.000000002325578
  0
LINE
  5
E709
  8
0
 10
844.3187244809995491
 20
153.3535794596338064
 30
0.0
 11
844.1715549439900315
 21
153.7061545420091875
 31
0.0
  0
ARC
  5
E70A
  8
0
 10
844.1897347364996449
 20
153.7137430296257889
 30
0.0
 40
0.0197
 50
110.0000000036703938
 51
202.6563071362664914
  0
LINE
  5
E70B
  8
0
 10
846.3042887663560805
 20
153.5306931182356891
 30
0.0
 11
845.3667959040938058
 21
153.5306931182356891
 31
0.0
  0
LINE
  5
E70C
  8
0
 10
846.3042887663560805
 20
153.8306931182358142
 30
0.0
 11
845.2429018959871883
 21
153.8306931182358142
 31
0.0
  0
ARC
  5
E70D
  8
0
 10
845.3121936728472292
 20
153.5263661089188929
 30
0.0
 40
0.0303246658174885
 50
288.9656023376493863
 51
334.9774602196147271
  0
ARC
  5
E70E
  8
0
 10
845.3666104329566906
 20
153.5009650901307054
 30
0.0
 40
0.0297286066688312
 50
89.6425406408715162
 51
154.9774602196102933
  0
ARC
  5
E70F
  8
0
 10
845.2427366484968161
 20
153.8706842160005124
 30
0.0
 40
0.0399914391726761
 50
199.9913945764797063
 51
270.236750937499778
  0
ARC
  5
E710
  8
0
 10
845.4083838832115134
 20
153.6589550258673
 30
0.0
 40
0.1616641291288314
 50
234.6920180004686074
 51
244.6992346102398983
  0
ARC
  5
E711
  8
0
 10
845.897779274152299
 20
153.9042037956681099
 30
0.0
 40
0.6942301803846187
 50
183.8978116137444943
 51
212.9086338211934049
  0
LINE
  5
E712
  8
0
 10
845.2911673829897836
 20
152.8708796458840879
 30
0.0
 11
844.692492709582325
 21
152.6529798847728898
 31
0.0
  0
LINE
  5
E713
  8
0
 10
845.1891481931486396
 20
153.4493156404597016
 30
0.0
 11
845.3393722037214957
 21
152.9682941512494949
 31
0.0
  0
LINE
  5
E714
  8
0
 10
844.3956194468737522
 20
153.1693616557394932
 30
0.0
 11
844.5929488374816856
 21
152.6966182637926011
 31
0.0
  0
ARC
  5
E715
  8
0
 10
845.2642503977122033
 20
152.9448334551406958
 30
0.0
 40
0.0787
 50
289.9999999984647161
 51
17.3436928565758492
  0
ARC
  5
E716
  8
0
 10
844.6655757243044036
 20
152.7269336940294124
 30
0.0
 40
0.0787
 50
202.6563071455420868
 51
289.9999999984715942
  0
LINE
  5
E717
  8
0
 10
845.1313089543200476
 20
134.8197472137628949
 30
0.0
 11
844.9203141038381091
 21
135.0335497529439124
 31
0.0
  0
LINE
  5
E718
  8
0
 10
844.4037532124172003
 20
135.5569844717309138
 30
0.0
 11
843.6141928441184064
 21
136.3570514458465937
 31
0.0
  0
LINE
  5
E719
  8
0
 10
843.610368844704908
 20
134.8256319736719036
 30
0.0
 11
844.4124513185067826
 21
135.6223145064440132
 31
0.0
  0
LINE
  5
E71A
  8
0
 10
845.095314299528809
 20
136.3005801798958885
 30
0.0
 11
845.142961639811233
 21
136.3479067391660919
 31
0.0
  0
LINE
  5
E71B
  8
0
 10
846.4959958163614147
 20
136.4028615332098866
 30
0.0
 11
846.4391312860560674
 21
136.3178480744471983
 31
0.0
  0
LINE
  5
E71C
  8
0
 10
847.4543028970699652
 20
136.7474575719913901
 30
0.0
 11
847.6792887663560805
 21
136.7539452520811096
 31
0.0
  0
ARC
  5
E71D
  8
0
 10
847.4559735526587474
 20
136.6880294589875007
 30
0.0
 40
0.0594515912773312
 50
91.6102868701181166
 51
145.0255201261352056
  0
ARC
  5
E71E
  8
0
 10
846.8213934408491923
 20
137.2136156256503057
 30
0.0
 40
0.7647338010830164
 50
296.2981914552127023
 51
320.0052403961810796
  0
ARC
  5
E71F
  8
0
 10
846.7567563795191745
 20
137.3377564438810055
 30
0.0
 40
0.9046678883132157
 50
271.5448407056525753
 51
296.4848637858574989
  0
ARC
  5
E720
  8
0
 10
847.180760161651051
 20
119.0509111523240051
 30
0.0
 40
17.3870990774097791
 50
91.3169675349711554
 51
92.1072286298071106
  0
ARC
  5
E721
  8
0
 10
846.5434673545319129
 20
136.3664733556688873
 30
0.0
 40
0.0598134299387598
 50
91.9421705523523514
 51
142.5288897610257948
  0
LINE
  5
E722
  8
0
 10
846.4959958163614147
 20
134.7764308266615956
 30
0.0
 11
846.4391312860560674
 21
134.8614442854243123
 31
0.0
  0
LINE
  5
E723
  8
0
 10
847.4543028970699652
 20
134.4318347878802058
 30
0.0
 11
847.6792887663560805
 21
134.425347107790401
 31
0.0
  0
ARC
  5
E724
  8
0
 10
847.4559735526587474
 20
134.4912629008840099
 30
0.0
 40
0.0594515912773312
 50
214.9744798738647091
 51
268.389713129881784
  0
ARC
  5
E725
  8
0
 10
846.8213934408491923
 20
133.9656767342212049
 30
0.0
 40
0.7647338010830164
 50
39.9947596038185935
 51
63.7018085447873617
  0
ARC
  5
E726
  8
0
 10
846.7567563795191745
 20
133.8415359159905051
 30
0.0
 40
0.9046678883132157
 50
63.5151362141424798
 51
88.4551592943474247
  0
ARC
  5
E727
  8
0
 10
847.180760161651051
 20
152.1283812075473918
 30
0.0
 40
17.3870990774097791
 50
267.8927713701863809
 51
268.683032465028873
  0
ARC
  5
E728
  8
0
 10
846.5434673545319129
 20
134.8128190042025949
 30
0.0
 40
0.0598134299387598
 50
217.4711102389738926
 51
268.0578294476475776
  0
ARC
  5
E729
  8
0
 10
844.6644332892331022
 20
142.5603587629121876
 30
0.0
 40
7.9038946470259663
 50
243.4756710998125868
 51
250.1829578186093954
  0
ARC
  5
E72A
  8
0
 10
833.3040607576290313
 20
120.378974792332798
 30
0.0
 40
17.018043419666121
 50
62.6039100884713235
 51
64.9073494596921705
  0
ARC
  5
E72B
  8
0
 10
839.3322772816341057
 20
133.181485687234499
 30
0.0
 40
2.8674833026901729
 50
65.5060415221364281
 51
77.3403054102722933
  0
ARC
  5
E72C
  8
0
 10
839.5543825071235915
 20
134.1472757433569996
 30
0.0
 40
1.8765028292789441
 50
77.4942899462173642
 51
99.6942088178886365
  0
ARC
  5
E72D
  8
0
 10
839.3264108344120586
 20
135.0761764758642016
 30
0.0
 40
0.9250031725146932
 50
95.4598359948434592
 51
156.2535796599977971
  0
ARC
  5
E72E
  8
0
 10
838.5324919651703794
 20
135.4294224417311909
 30
0.0
 40
0.0561695191653382
 50
159.9652648508244113
 51
187.9900474689908947
  0
LINE
  5
E730
  8
0
 10
847.5192958705234787
 20
152.5656931182357994
 30
0.0
 11
847.5192958705234787
 21
154.7956931182357039
 31
0.0
  0
LINE
  5
E731
  8
0
 10
838.9142015209836245
 20
135.0515541911356934
 30
0.0
 11
837.8439288907993614
 21
135.2986460973046121
 31
0.0
  0
LINE
  5
E732
  8
0
 10
838.1652466858593016
 20
135.2244640391745918
 30
0.0
 11
838.209528389478578
 21
135.4162691700452115
 31
0.0
  0
LINE
  5
E733
  8
0
 10
838.209528389478578
 20
135.4162691700452115
 30
0.0
 11
838.5974345598676791
 21
135.3267139742004019
 31
0.0
  0
LINE
  5
E734
  8
0
 10
838.5974345598676791
 20
135.3267139742004019
 30
0.0
 11
838.5531528562622725
 21
135.1349088432772874
 31
0.0
  0
ENDSEC
  0
EOF
