  0
SECTION
  2
HEADER
  9
$ACADVER
  1
AC1009
  9
$INSBASE
 10
811.4448792975357492
 20
135.2767946781262935
 30
0.0
  9
$EXTMIN
 10
805.6447940351453099
 20
123.2176519081222068
 30
-0.0015258207003583
  9
$EXTMAX
 10
821.7386689133927575
 20
160.8262225045293974
 30
0.0000000349246037
  9
$LIMMIN
 10
0.0
 20
0.0
  9
$LIMMAX
 10
11.6929133858000007
 20
8.2677165353999982
  9
$ORTHOMODE
 70
     0
  9
$REGENMODE
 70
     1
  9
$FILLMODE
 70
     1
  9
$QTEXTMODE
 70
     0
  9
$MIRRTEXT
 70
     0
  9
$DRAGMODE
 70
     2
  9
$LTSCALE
 40
0.6431102362
  9
$OSMODE
 70
  4095
  9
$ATTMODE
 70
     1
  9
$TEXTSIZE
 40
0.2
  9
$TRACEWID
 40
0.05
  9
$TEXTSTYLE
  7
STANDARD
  9
$CLAYER
  8
0
  9
$CELTYPE
  6
BYLAYER
  9
$CECOLOR
 62
   256
  9
$DIMSCALE
 40
1.0
  9
$DIMASZ
 40
0.1875
  9
$DIMEXO
 40
0.0625
  9
$DIMDLI
 40
0.4443307087
  9
$DIMRND
 40
0.0
  9
$DIMDLE
 40
0.0
  9
$DIMEXE
 40
0.125
  9
$DIMTP
 40
0.01
  9
$DIMTM
 40
0.01
  9
$DIMTXT
 40
1.0
  9
$DIMCEN
 40
0.1052362205
  9
$DIMTSZ
 40
0.0
  9
$DIMTOL
 70
     1
  9
$DIMLIM
 70
     0
  9
$DIMTIH
 70
     0
  9
$DIMTOH
 70
     1
  9
$DIMSE1
 70
     0
  9
$DIMSE2
 70
     0
  9
$DIMTAD
 70
     0
  9
$DIMZIN
 70
     0
  9
$DIMBLK
  1

  9
$DIMASO
 70
     1
  9
$DIMSHO
 70
     1
  9
$DIMPOST
  1
\X
  9
$DIMAPOST
  1

  9
$DIMALT
 70
     1
  9
$DIMALTD
 70
     2
  9
$DIMALTF
 40
25.3999999999999986
  9
$DIMLFAC
 40
1.0
  9
$DIMTOFL
 70
     0
  9
$DIMTVP
 40
0.0
  9
$DIMTIX
 70
     0
  9
$DIMSOXD
 70
     0
  9
$DIMSAH
 70
     0
  9
$DIMBLK1
  1

  9
$DIMBLK2
  1

  9
$DIMSTYLE
  2
STANDARD
  9
$DIMCLRD
 70
     0
  9
$DIMCLRE
 70
     0
  9
$DIMCLRT
 70
     0
  9
$DIMTFAC
 40
1.0
  9
$DIMGAP
 40
0.09
  9
$LUNITS
 70
     2
  9
$LUPREC
 70
     4
  9
$SKETCHINC
 40
0.1
  9
$FILLETRAD
 40
0.0
  9
$AUNITS
 70
     0
  9
$AUPREC
 70
     0
  9
$MENU
  1
.
  9
$ELEVATION
 40
0.0
  9
$PELEVATION
 40
0.0
  9
$THICKNESS
 40
0.0
  9
$LIMCHECK
 70
     0
  9
$BLIPMODE
 70
     0
  9
$CHAMFERA
 40
0.0
  9
$CHAMFERB
 40
0.0
  9
$SKPOLY
 70
     0
  9
$TDCREATE
 40
2458172.5207638889551163
  9
$TDUPDATE
 40
2459117.5257638888433576
  9
$TDINDWG
 40
0.4100122917
  9
$TDUSRTIMER
 40
0.4100122917
  9
$USRTIMER
 70
     1
  9
$ANGBASE
 50
0.0
  9
$ANGDIR
 70
     0
  9
$PDMODE
 70
     0
  9
$PDSIZE
 40
0.3125
  9
$PLINEWID
 40
0.0
  9
$COORDS
 70
     1
  9
$SPLFRAME
 70
     0
  9
$SPLINETYPE
 70
     6
  9
$SPLINESEGS
 70
     8
  9
$ATTDIA
 70
     1
  9
$ATTREQ
 70
     1
  9
$HANDLING
 70
     1
  9
$HANDSEED
  5
DED6
  9
$SURFTAB1
 70
     6
  9
$SURFTAB2
 70
     6
  9
$SURFTYPE
 70
     6
  9
$SURFU
 70
     6
  9
$SURFV
 70
     6
  9
$UCSNAME
  2

  9
$UCSORG
 10
0.0
 20
0.0
 30
0.0
  9
$UCSXDIR
 10
1.0
 20
0.0
 30
0.0
  9
$UCSYDIR
 10
0.0
 20
1.0
 30
0.0
  9
$PUCSNAME
  2

  9
$PUCSORG
 10
0.0
 20
0.0
 30
0.0
  9
$PUCSXDIR
 10
1.0
 20
0.0
 30
0.0
  9
$PUCSYDIR
 10
0.0
 20
1.0
 30
0.0
  9
$USERI1
 70
     0
  9
$USERI2
 70
     0
  9
$USERI3
 70
     0
  9
$USERI4
 70
     0
  9
$USERI5
 70
     0
  9
$USERR1
 40
0.0
  9
$USERR2
 40
0.0
  9
$USERR3
 40
0.0
  9
$USERR4
 40
0.0
  9
$USERR5
 40
0.0
  9
$WORLDVIEW
 70
     1
  9
$SHADEDGE
 70
     3
  9
$SHADEDIF
 70
    70
  9
$TILEMODE
 70
     1
  9
$MAXACTVP
 70
    64
  9
$PLIMCHECK
 70
     0
  9
$PEXTMIN
 10
1.0000000000000000E+20
 20
1.0000000000000000E+20
 30
1.0000000000000000E+20
  9
$PEXTMAX
 10
-1.0000000000000000E+20
 20
-1.0000000000000000E+20
 30
-1.0000000000000000E+20
  9
$PLIMMIN
 10
0.0
 20
0.0
  9
$PLIMMAX
 10
12.0
 20
9.0
  9
$UNITMODE
 70
     0
  9
$VISRETAIN
 70
     1
  9
$PLINEGEN
 70
     0
  9
$PSLTSCALE
 70
     1
  0
ENDSEC
  0
SECTION
  2
TABLES
  0
TABLE
  2
VPORT
 70
     1
  0
VPORT
  2
*ACTIVE
 70
     0
 10
0.0
 20
0.0
 11
1.0
 21
1.0
 12
346.9495297664390137
 22
52.8887900863960567
 13
0.0
 23
0.0
 14
1.0
 24
1.0
 15
0.0
 25
0.0
 16
0.0
 26
0.0
 36
24.1179433675886514
 17
466.74220170783002
 27
89.133147119929788
 37
0.0
 40
38.0527663121127588
 41
2.6528599605522678
 42
50.0
 43
0.0
 44
0.0
 50
0.0
 51
0.0
 71
     0
 72
   100
 73
     1
 74
     1
 75
     0
 76
     0
 77
     0
 78
     0
  0
ENDTAB
  0
TABLE
  2
LTYPE
 70
     2
  0
LTYPE
  2
CONTINUOUS
 70
     0
  3
Solid line
 72
    65
 73
     0
 40
0.0
  0
LTYPE
  2
PHANTOM2
 70
     0
  3
___ _ _ ___ _ _ ___ _ _ ___ _ _
 72
    65
 73
     6
 40
1.25
 49
0.625
 49
-0.125
 49
0.125
 49
-0.125
 49
0.125
 49
-0.125
  0
ENDTAB
  0
TABLE
  2
LAYER
 70
     2
  0
LAYER
  2
0
 70
     0
 62
   255
  6
CONTINUOUS
  0
LAYER
  2
DEFPOINTS
 70
     0
 62
     7
  6
CONTINUOUS
  0
ENDTAB
  0
TABLE
  2
STYLE
 70
     1
  0
STYLE
  2
STANDARD
 70
     0
 40
0.0
 41
0.8
 50
0.0
 71
     0
 42
0.2
  3
txt
  4

  0
ENDTAB
  0
TABLE
  2
VIEW
 70
     0
  0
ENDTAB
  0
TABLE
  2
UCS
 70
     0
  0
ENDTAB
  0
TABLE
  2
APPID
 70
    11
  0
APPID
  2
ACAD
 70
     0
  0
APPID
  2
ACAD_MLEADERVER
 70
     0
  0
APPID
  2
ACAD_EXEMPT_FROM_CAD_STANDARDS
 70
     0
  0
APPID
  2
ACAD_DSTYLE_DIMJAG
 70
     0
  0
APPID
  2
ACAD_DSTYLE_DIMTALN
 70
     0
  0
APPID
  2
ACAD_NAV_VCDISPLAY
 70
     0
  0
APPID
  2
ACAECLAYERSTANDARD
 70
     0
  0
APPID
  2
ACCMTRANSPARENCY
 70
     0
  0
APPID
  2
DCO15
 70
     0
  0
APPID
  2
ACDBATTR
 70
     0
  0
APPID
  2
ACADANNOTATIVE
 70
     0
  0
ENDTAB
  0
TABLE
  2
DIMSTYLE
 70
     1
  0
DIMSTYLE
  2
STANDARD
 70
     0
  3

  4

  5

  6

  7

 40
1.0
 41
0.1875
 42
0.0625
 43
0.38
 44
0.125
 45
0.0
 46
0.0
 47
0.01
 48
0.01
140
0.15625
141
0.09
142
0.0
143
25.3999999999999986
144
1.0
145
0.0
146
1.0
147
0.09
 71
     1
 72
     0
 73
     1
 74
     1
 75
     0
 76
     0
 77
     0
 78
     4
170
     0
171
     2
172
     0
173
     0
174
     0
175
     0
176
     0
177
     0
178
     0
  0
ENDTAB
  0
ENDSEC
  0
SECTION
  2
BLOCKS
  0
BLOCK
  8
0
  2
$MODEL_SPACE
 70
     0
 10
0.0
 20
0.0
 30
0.0
  3
$MODEL_SPACE
  1

  0
ENDBLK
  5
21
  8
0
  0
BLOCK
 67
     1
  8
0
  2
$PAPER_SPACE
 70
     0
 10
0.0
 20
0.0
 30
0.0
  3
$PAPER_SPACE
  1

  0
ENDBLK
  5
1D
 67
     1
  8
0
  0
ENDSEC
  0
SECTION
  2
ENTITIES
  0
ATTDEF
  5
829
  8
DEFPOINTS
 10
811.4415940867585277
 20
135.2817924520408042
 30
0.0
 40
0.001
  1
K-72628T-9
  3

  2
MODELNUMBER
 70
     0
1001
ACDBATTR
1070
     0
1070
     1
  0
ATTDEF
  5
82A
  8
DEFPOINTS
 10
811.4415940867585277
 20
135.2801257853741106
 30
0.0
 40
0.001
  1
MARGAUX
  3

  2
TRADENAME
 70
     0
1001
ACDBATTR
1070
     0
1070
     1
  0
ATTDEF
  5
82B
  8
DEFPOINTS
 10
811.4415940867585277
 20
135.2784591187075023
 30
0.0
 40
0.001
  1
BATH AND SHOWER COLUMN
  3

  2
PRODUCT
 70
     0
1001
ACDBATTR
1070
     0
1070
     1
  0
LINE
  5
D857
  8
0
 10
806.9291722109358034
 20
136.182306492554801
 30
0.0
 11
815.9605863841358087
 21
136.182306492554801
 31
0.0
  0
LINE
  5
D858
  8
0
 10
806.9291722109358034
 20
134.371282870554694
 30
0.0
 11
810.9822814526776256
 21
134.371282870554694
 31
0.0
  0
LINE
  5
D859
  8
0
 10
811.9074783030774825
 20
134.371282870554694
 30
0.0
 11
815.9605863841358087
 21
134.371282870554694
 31
0.0
  0
LINE
  5
D85A
  8
0
 10
806.8425170928358057
 20
136.182306492554801
 30
0.0
 11
806.8425170928358057
 21
134.371282870554694
 31
0.0
  0
LINE
  5
D85B
  8
0
 10
806.901572210935683
 20
136.154706492554709
 30
0.0
 11
806.901572210935683
 21
134.3988828705547007
 31
0.0
  0
ARC
  5
D85C
  8
0
 10
806.9291722109358034
 20
136.154706492554709
 30
0.0
 40
0.0276
 50
90.0
 51
180.0000000000007958
  0
ARC
  5
D85D
  8
0
 10
806.9291722109358034
 20
134.3988828705547007
 30
0.0
 40
0.0276
 50
180.0
 51
270.0
  0
LINE
  5
D85E
  8
0
 10
805.7253696544577224
 20
134.4383117162115013
 30
0.0
 11
806.8425170928358057
 21
134.371282870554694
 31
0.0
  0
ARC
  5
D85F
  8
0
 10
805.7289212672638996
 20
134.4975052635496127
 30
0.0
 40
0.0593
 50
180.0
 51
266.5663696705562984
  0
LINE
  5
D860
  8
0
 10
805.7253696544577224
 20
136.1152776468979937
 30
0.0
 11
806.8425170928358057
 21
136.182306492554801
 31
0.0
  0
ARC
  5
D861
  8
0
 10
808.4921228116941165
 20
131.8515975519761128
 30
0.0
 40
4.724409721121706
 50
76.2742750921306367
 51
103.7257073479735965
  0
ARC
  5
D862
  8
0
 10
809.5991047892136976
 20
136.3837757002160913
 30
0.0
 40
0.059
 50
13.7256292358836394
 51
76.2742750921306367
  0
ARC
  5
D863
  8
0
 10
811.9173202424359488
 20
135.2767946815546907
 30
0.0
 40
4.724409448800083
 50
166.2742821081544946
 51
168.949935040916813
  0
ARC
  5
D864
  8
0
 10
811.9173202424359488
 20
135.2767946815546907
 30
0.0
 40
4.724409448800083
 50
191.050064959083187
 51
193.7257140815287926
  0
ARC
  5
D865
  8
0
 10
807.3851422231879269
 20
136.383776039481603
 30
0.0
 40
0.059
 50
103.7257073479735965
 51
166.2742821081544946
  0
ARC
  5
D866
  8
0
 10
805.0668989532537125
 20
135.2767949793010018
 30
0.0
 40
4.7244363200013701
 50
346.2743589503234034
 51
348.9499950022816961
  0
ARC
  5
D867
  8
0
 10
805.0668989532537125
 20
135.2767949793010018
 30
0.0
 40
4.7244363200013701
 50
11.0499976394387893
 51
13.7256292358836394
  0
ARC
  5
D868
  8
0
 10
808.492123971722549
 20
138.7019915681462976
 30
0.0
 40
4.7244094849915861
 50
256.2742763479855057
 51
283.7257080655908226
  0
ARC
  5
D869
  8
0
 10
807.3851421495706973
 20
134.1698136250294056
 30
0.0
 40
0.059
 50
193.7257140815264052
 51
256.2742763479855057
  0
ARC
  5
D86A
  8
0
 10
809.5991045609656567
 20
134.1698133238924129
 30
0.0
 40
0.059
 50
283.7257080655908226
 51
346.2743589503218118
  0
ARC
  5
D86B
  8
0
 10
808.4921233920357508
 20
131.8515978311546917
 30
0.0
 40
4.3426520639000001
 50
85.7496594110207297
 51
94.2503405889792845
  0
ARC
  5
D86C
  8
0
 10
808.4921233920357508
 20
138.7019915319544907
 30
0.0
 40
4.3426520638998234
 50
265.7496594110206729
 51
274.2503405889793271
  0
ARC
  5
D86D
  8
0
 10
808.4500889736136742
 20
134.2119118607550945
 30
0.0
 40
0.1476291466450024
 50
89.0098025570788707
 51
108.3717526256896946
  0
ARC
  5
D86E
  8
0
 10
808.4924185067644657
 20
134.5401249311472895
 30
0.0
 40
0.2080402811365041
 50
244.7146779019963105
 51
295.1112474380544768
  0
ARC
  5
D86F
  8
0
 10
808.515442953328602
 20
134.0807839982277017
 30
0.0
 40
0.2787121744009558
 50
76.4579169929294693
 51
88.8172011707558653
  0
LINE
  5
D870
  8
0
 10
806.8425170928358057
 20
136.0937238153547071
 30
0.0
 11
806.901572210935683
 21
136.0937238153547071
 31
0.0
  0
LINE
  5
D871
  8
0
 10
806.8425170928358057
 20
134.4598655476546867
 30
0.0
 11
806.901572210935683
 21
134.4598655476546867
 31
0.0
  0
LINE
  5
D872
  8
0
 10
806.901572210935683
 20
134.4378963581883966
 30
0.0
 11
815.9881863841359291
 21
134.4378963581883966
 31
0.0
  0
LINE
  5
D873
  8
0
 10
806.901572210935683
 20
136.115693010262504
 30
0.0
 11
815.9881863841359291
 21
136.115693010262504
 31
0.0
  0
LINE
  5
D874
  8
0
 10
817.2201272165349337
 20
136.0560847062361916
 30
0.0
 11
817.2201272165349337
 21
134.4975046774922873
 31
0.0
  0
ARC
  5
D875
  8
0
 10
817.1608272165348126
 20
134.4975046774922873
 30
0.0
 40
0.0593
 50
273.3858922611418052
 51
0.0
  0
LINE
  5
D876
  8
0
 10
816.031493470835585
 20
136.1823041187547005
 30
0.0
 11
816.031493470835585
 21
134.3712852443547092
 31
0.0
  0
LINE
  5
D877
  8
0
 10
815.9881863841359291
 20
136.154706492554709
 30
0.0
 11
815.9881863841359291
 21
134.3988828705547007
 31
0.0
  0
ARC
  5
D878
  8
0
 10
815.9605863841358087
 20
136.154706492554709
 30
0.0
 40
0.0276
 50
359.9999999999992042
 51
90.0
  0
ARC
  5
D879
  8
0
 10
815.9605863841358087
 20
134.3988828705547007
 30
0.0
 40
0.0276
 50
270.0
 51
0.0
  0
LINE
  5
D87A
  8
0
 10
817.1643295088510968
 20
134.4383081915447917
 30
0.0
 11
816.031493470835585
 21
134.3712852443547092
 31
0.0
  0
LINE
  5
D87B
  8
0
 10
817.1643788293409898
 20
136.1152782535743881
 30
0.0
 11
816.031493470835585
 21
136.1823041187547005
 31
0.0
  0
ARC
  5
D87C
  8
0
 10
817.1608272165348126
 20
136.0560847062361916
 30
0.0
 40
0.0593
 50
0.0
 51
86.5663696705563552
  0
ARC
  5
D87D
  8
0
 10
814.3976357833774955
 20
131.8515975519761128
 30
0.0
 40
4.724409721121706
 50
76.2742926520263609
 51
103.7257249078693064
  0
ARC
  5
D87E
  8
0
 10
813.2906538058579144
 20
136.3837757002160913
 30
0.0
 40
0.059
 50
103.7257249078693064
 51
166.2743707641164121
  0
ARC
  5
D87F
  8
0
 10
810.9724383526356633
 20
135.2767946815546907
 30
0.0
 40
4.724409448800083
 50
11.0500649590831994
 51
13.7257178918454592
  0
ARC
  5
D880
  8
0
 10
810.9724383526356633
 20
135.2767946815546907
 30
0.0
 40
4.724409448800083
 50
346.2742859184710937
 51
348.9499350409167846
  0
ARC
  5
D881
  8
0
 10
815.5046163718837988
 20
136.383776039481603
 30
0.0
 40
0.059
 50
13.7257178918454592
 51
76.2742926520263609
  0
ARC
  5
D882
  8
0
 10
817.8228596418178995
 20
135.2767949793010018
 30
0.0
 40
4.7244363200013701
 50
191.0500049977183039
 51
193.7256410496765966
  0
ARC
  5
D883
  8
0
 10
817.8228596418178995
 20
135.2767949793010018
 30
0.0
 40
4.7244363200013701
 50
166.2743707641164121
 51
168.9500023605612
  0
ARC
  5
D884
  8
0
 10
814.3976346233492905
 20
138.7019915681462976
 30
0.0
 40
4.7244094849915861
 50
256.2742919344091774
 51
283.7257236520144943
  0
ARC
  5
D885
  8
0
 10
815.5046164455010285
 20
134.1698136250294056
 30
0.0
 40
0.059
 50
283.7257236520144943
 51
346.2742859184735948
  0
ARC
  5
D886
  8
0
 10
813.2906540341059554
 20
134.1698133238924129
 30
0.0
 40
0.059
 50
193.7256410496781029
 51
256.2742919344091774
  0
ARC
  5
D887
  8
0
 10
814.3976352030357475
 20
131.8515978311546917
 30
0.0
 40
4.3426520639000001
 50
85.7496594110207297
 51
94.2503405889792845
  0
ARC
  5
D888
  8
0
 10
814.3976352030357475
 20
138.7019915319544907
 30
0.0
 40
4.3426520638998234
 50
265.7496594110206729
 51
274.2503405889793271
  0
ARC
  5
D889
  8
0
 10
814.4396696214579379
 20
134.2119118607550945
 30
0.0
 40
0.1476291466450024
 50
71.6282473743102628
 51
90.9901974429211151
  0
ARC
  5
D88A
  8
0
 10
814.39734008830726
 20
134.5401249311472895
 30
0.0
 40
0.2080402811365041
 50
244.8887525619454948
 51
295.2853220979966977
  0
ARC
  5
D88B
  8
0
 10
814.37431564174301
 20
134.0807839982277017
 30
0.0
 40
0.2787121744009558
 50
91.1827988292441347
 51
103.5420830070705023
  0
LINE
  5
D88C
  8
0
 10
816.031493470835585
 20
136.0937238153547071
 30
0.0
 11
815.9881863841359291
 21
136.0937238153547071
 31
0.0
  0
LINE
  5
D88D
  8
0
 10
816.031493470835585
 20
134.4598655476546867
 30
0.0
 11
815.9881863841359291
 21
134.4598655476546867
 31
0.0
  0
LINE
  5
D88E
  8
0
 10
805.7258422462278986
 20
136.0574705183744868
 30
0.0
 11
806.8425170928358057
 21
136.1155297000750863
 31
0.0
  0
LINE
  5
D88F
  8
0
 10
805.7258423726369756
 20
134.4961188427531056
 30
0.0
 11
806.8425170928358057
 21
134.4380620576827141
 31
0.0
  0
LINE
  5
D890
  8
0
 10
817.1639062375704725
 20
134.4969371050968903
 30
0.0
 11
816.031493470835585
 21
134.4380596630396099
 31
0.0
  0
LINE
  5
D891
  8
0
 10
817.1639061111617366
 20
136.056652293678809
 30
0.0
 11
816.031493470835585
 21
136.1155273054216082
 31
0.0
  0
ARC
  5
D892
  8
0
 10
817.1608272165348126
 20
135.9974322767261015
 30
0.0
 40
0.0593
 50
359.9999999999992042
 51
87.023827612292223
  0
ARC
  5
D893
  8
0
 10
817.1608272165348126
 20
134.5561571154773901
 30
0.0
 40
0.0593
 50
272.9762946892623745
 51
0.0
  0
LINE
  5
D894
  8
0
 10
820.4777416894356747
 20
153.7182351108978082
 30
0.0
 11
819.8750491218952448
 21
153.7182351108978082
 31
0.0
  0
LINE
  5
D895
  8
0
 10
818.7422491484411466
 20
153.7182351108978082
 30
0.0
 11
818.137741689435984
 21
153.7182351108978082
 31
0.0
  0
LINE
  5
D896
  8
0
 10
818.0877416894356884
 20
151.3282351108979071
 30
0.0
 11
818.0877416894356884
 21
153.6682351108977969
 31
0.0
  0
LINE
  5
D897
  8
0
 10
820.527741689435743
 20
151.3282351108979071
 30
0.0
 11
820.527741689435743
 21
153.6682351108977969
 31
0.0
  0
LINE
  5
D898
  8
0
 10
820.4777416894356747
 20
151.2782351108978105
 30
0.0
 11
819.6061849399829953
 21
151.2782351108978105
 31
0.0
  0
LINE
  5
D899
  8
0
 10
819.0112557455396427
 20
151.2782351108978105
 30
0.0
 11
818.137741689435984
 21
151.2782351108978105
 31
0.0
  0
ARC
  5
D89A
  8
0
 10
820.4777416894356747
 20
151.3282351108979071
 30
0.0
 40
0.05
 50
270.0
 51
0.0
  0
ARC
  5
D89B
  8
0
 10
818.137741689435984
 20
151.3282351108979071
 30
0.0
 40
0.05
 50
179.9999999999959073
 51
270.0000000000064801
  0
ARC
  5
D89C
  8
0
 10
818.137741689435984
 20
153.6682351108977969
 30
0.0
 40
0.05
 50
89.9999999999934914
 51
180.0000000000040075
  0
ARC
  5
D89D
  8
0
 10
820.4777416894356747
 20
153.6682351108977969
 30
0.0
 40
0.05
 50
0.0
 51
89.9999999999934914
  0
ARC
  5
D89E
  8
0
 10
819.3599798370900089
 20
157.7838688178158009
 30
0.0
 40
3.0348959787038829
 50
90.9862523764679167
 51
114.9312419308669035
  0
ARC
  5
D89F
  8
0
 10
819.1122727879064769
 20
158.4368150987340869
 30
0.0
 40
2.3389265864739301
 50
116.1711704205226994
 51
141.8776557903364051
  0
ARC
  5
D8A0
  8
0
 10
818.5807056316258468
 20
158.8539518441027951
 30
0.0
 40
1.6632293865587831
 50
141.8776557903364051
 51
172.5303065457125911
  0
ARC
  5
D8A1
  8
0
 10
818.7909546478030052
 20
158.7640816512574133
 30
0.0
 40
1.884390296877297
 50
170.6516781098690956
 51
203.5438243386728914
  0
ARC
  5
D8A2
  8
0
 10
818.8093237241744191
 20
158.7727695647961923
 30
0.0
 40
1.904700729741432
 50
203.5626898486084997
 51
228.6498121648469066
  0
ARC
  5
D8A3
  8
0
 10
819.2640954644732574
 20
159.3482769389636076
 30
0.0
 40
2.6374609199534329
 50
229.4932435684752932
 51
269.2022180711982742
  0
ARC
  5
D8A4
  8
0
 10
819.3044933546914308
 20
157.664458721735798
 30
0.0
 40
2.8239420018039731
 50
89.9340936387930583
 51
106.6763135263332032
  0
ARC
  5
D8A5
  8
0
 10
819.2142395543227167
 20
157.9657427733785084
 30
0.0
 40
2.50942995393416
 50
106.6763135263332032
 51
127.6469326560053048
  0
ARC
  5
D8A6
  8
0
 10
818.8111773965831617
 20
158.4882437283696959
 30
0.0
 40
1.8495312109680639
 50
127.6469326560053048
 51
166.7515465673583037
  0
ARC
  5
D8A7
  8
0
 10
818.504688087405043
 20
158.5604036492773901
 30
0.0
 40
1.5346617922787149
 50
166.7515465673583037
 51
210.8288092994098974
  0
ARC
  5
D8A8
  8
0
 10
819.3045465197420754
 20
157.6924490608334963
 30
0.0
 40
2.6764246188904899
 50
89.9315991903039986
 51
106.9886873580896065
  0
ARC
  5
D8A9
  8
0
 10
819.2187727522402838
 20
157.9732006594782945
 30
0.0
 40
2.3828627015152208
 50
106.9886873580896065
 51
125.7852454135209967
  0
ARC
  5
D8AA
  8
0
 10
818.870143749182489
 20
158.4568491602396989
 30
0.0
 40
1.786659670608862
 50
125.7852454135209967
 51
159.0090392729302096
  0
ARC
  5
D8AB
  8
0
 10
818.554321877125858
 20
158.5780246543093028
 30
0.0
 40
1.4483891350425231
 50
159.0090392729302096
 51
204.3999541906690922
  0
ARC
  5
D8AC
  8
0
 10
818.8691027576381885
 20
158.7208152910606884
 30
0.0
 40
1.7940423842386599
 50
204.3999541906690922
 51
240.520602043096801
  0
ARC
  5
D8AD
  8
0
 10
819.3604013110591495
 20
159.5899115512839046
 30
0.0
 40
2.79239231193311
 50
240.520602043096801
 51
266.8471142540101937
  0
ARC
  5
D8AE
  8
0
 10
819.2054471262648576
 20
156.7798494042179129
 30
0.0
 40
0.0219394969735549
 50
2.030128319842432
 51
86.4164741764422217
  0
ARC
  5
D8AF
  8
0
 10
819.3060479364396542
 20
157.6822054256869023
 30
0.0
 40
2.664426627794882
 50
89.9635776294199303
 51
107.4321996164374013
  0
ARC
  5
D8B0
  8
0
 10
819.2096760807122564
 20
157.9891238313848874
 30
0.0
 40
2.3427335406254701
 50
107.4321996164374013
 51
126.5277695208636999
  0
ARC
  5
D8B1
  8
0
 10
818.8662589053669763
 20
158.4527553882518021
 30
0.0
 40
1.765767703816379
 50
126.5277695208636999
 51
168.7065314970002134
  0
ARC
  5
D8B2
  8
0
 10
818.4186883203369689
 20
158.5421357589227114
 30
0.0
 40
1.3093596854321929
 50
168.7065314970002134
 51
202.9437711481870963
  0
LINE
  5
D8B3
  8
0
 10
819.2273728526358809
 20
156.3549291212403887
 30
0.0
 11
819.2273728526358809
 21
157.023516206966093
 31
0.0
  0
LINE
  5
D8B4
  8
0
 10
819.2657072520714792
 20
157.07169313007239
 30
0.0
 11
819.3497761208401471
 21
157.07169313007239
 31
0.0
  0
ARC
  5
D8B5
  8
0
 10
819.3124432014909644
 20
157.0167039281093082
 30
0.0
 40
0.0853426704384647
 50
162.7786248119195136
 51
175.4216277683696035
  0
ARC
  5
D8B6
  8
0
 10
819.2760954002113749
 20
157.0279703133961107
 30
0.0
 40
0.047288838893044
 50
125.738169920191595
 51
162.7786248119207926
  0
ARC
  5
D8B7
  8
0
 10
819.2650574495762612
 20
157.0433096725907092
 30
0.0
 40
0.0283908947001462
 50
88.6885164345651731
 51
125.738169920191595
  0
ARC
  5
D8B8
  8
0
 10
819.3074227965882983
 20
157.9848068058151114
 30
0.0
 40
1.330602442264295
 50
89.9862685929767139
 51
103.3908655903534992
  0
ARC
  5
D8B9
  8
0
 10
819.2750561469774766
 20
158.120763922626395
 30
0.0
 40
1.1908457335928451
 50
103.3908655903534992
 51
129.2887720797222926
  0
ARC
  5
D8BA
  8
0
 10
819.0393907848467734
 20
158.4088058765725009
 30
0.0
 40
0.8186813476807226
 50
129.2887720797222926
 51
174.3929837532018894
  0
ARC
  5
D8BB
  8
0
 10
819.0320407531978617
 20
158.4577731530141875
 30
0.0
 40
0.8080100153568121
 50
177.7997116735485008
 51
236.4119561113020893
  0
ARC
  5
D8BC
  8
0
 10
819.2962989982016779
 20
158.8063019033239982
 30
0.0
 40
1.2448395279208491
 50
235.1541986834951956
 51
270.5266758980602049
  0
ARC
  5
D8BD
  8
0
 10
819.0708251624804461
 20
156.9987378587215119
 30
0.0
 40
0.0725996426393495
 50
202.4069016784507085
 51
337.0003670967366247
  0
ARC
  5
D8BE
  8
0
 10
819.0705499822363436
 20
156.9642185681454976
 30
0.0
 40
0.0260981086981234
 50
31.5925942495332599
 51
144.4926578059184124
  0
ARC
  5
D8BF
  8
0
 10
819.0780092771483396
 20
156.9711343485880946
 30
0.0
 40
0.0162428223976449
 50
314.9412406789306829
 51
24.5798761657789413
  0
ARC
  5
D8C0
  8
0
 10
819.0711484144087535
 20
156.977609253179395
 30
0.0
 40
0.0256739042679807
 50
202.170765419084006
 51
315.5718890823919764
  0
ARC
  5
D8C1
  8
0
 10
819.062869654510223
 20
156.9711976800473963
 30
0.0
 40
0.015839578922429
 50
148.9118737732829061
 51
191.9397704005810965
  0
ARC
  5
D8C2
  8
0
 10
819.0288418480524797
 20
157.0059366326723875
 30
0.0
 40
0.0337650044807902
 50
156.9559171827405066
 51
196.2050084981848102
  0
ARC
  5
D8C3
  8
0
 10
819.0692037089178257
 20
156.9649354860698907
 30
0.0
 40
0.0896783762910285
 50
33.270499938060901
 51
142.8011009840224972
  0
ARC
  5
D8C4
  8
0
 10
819.1122942692935567
 20
157.0031175527261951
 30
0.0
 40
0.0337373762459863
 50
343.1234145535555058
 51
19.0556801675913192
  0
LINE
  5
D8C5
  8
0
 10
819.1376536676358455
 20
156.9703713465978012
 30
0.0
 11
819.1445786544358043
 21
156.9933232159978047
 31
0.0
  0
LINE
  5
D8C6
  8
0
 10
819.0037067838356961
 20
156.9710642004978922
 30
0.0
 11
818.9964183510357998
 21
156.9965136623978879
 31
0.0
  0
ARC
  5
D8C7
  8
0
 10
818.9055004797831998
 20
157.2146673306359048
 30
0.0
 40
0.0725996426393495
 50
202.4069016784507085
 51
337.0003670967366247
  0
ARC
  5
D8C8
  8
0
 10
818.9052252995390973
 20
157.1801480400598905
 30
0.0
 40
0.0260981086981234
 50
31.5925942495332599
 51
144.4926578059184124
  0
ARC
  5
D8C9
  8
0
 10
818.9126845944509796
 20
157.1870638205026012
 30
0.0
 40
0.0162428223976449
 50
314.9412406789306829
 51
24.5798761657789413
  0
ARC
  5
D8CA
  8
0
 10
818.9058237317118483
 20
157.1935387250939016
 30
0.0
 40
0.0256739042679807
 50
202.170765419084006
 51
315.5718890823919764
  0
ARC
  5
D8CB
  8
0
 10
818.8975449718133177
 20
157.1871271519619029
 30
0.0
 40
0.015839578922429
 50
148.9118737732829061
 51
191.9397704005810965
  0
ARC
  5
D8CC
  8
0
 10
818.8635171653553471
 20
157.2218661045868089
 30
0.0
 40
0.0337650044807902
 50
156.9559171827405066
 51
196.2050084981848102
  0
ARC
  5
D8CD
  8
0
 10
818.9038790262204657
 20
157.1808649579843973
 30
0.0
 40
0.0896783762910285
 50
33.270499938060901
 51
142.8011009840224972
  0
ARC
  5
D8CE
  8
0
 10
818.9469695865961967
 20
157.2190470246407017
 30
0.0
 40
0.0337373762459863
 50
343.1234145535555058
 51
19.0556801675913192
  0
LINE
  5
D8CF
  8
0
 10
818.9723289849385992
 20
157.1863008185123078
 30
0.0
 11
818.979253971738558
 21
157.2092526879123113
 31
0.0
  0
LINE
  5
D8D0
  8
0
 10
818.8383821011387909
 20
157.1869936724123988
 30
0.0
 11
818.8310936683385535
 21
157.2124431343123092
 31
0.0
  0
ARC
  5
D8D1
  8
0
 10
818.9609851015878803
 20
157.4033904144538099
 30
0.0
 40
0.0725996426393495
 50
202.4069016784507085
 51
337.0003670967366247
  0
ARC
  5
D8D2
  8
0
 10
818.9607099213435504
 20
157.3688711238777955
 30
0.0
 40
0.0260981086981234
 50
31.5925942495332599
 51
144.4926578059184124
  0
ARC
  5
D8D3
  8
0
 10
818.9681692162555464
 20
157.3757869043205062
 30
0.0
 40
0.0162428223976449
 50
314.9412406789306829
 51
24.5798761657789413
  0
ARC
  5
D8D4
  8
0
 10
818.9613083535161877
 20
157.3822618089116929
 30
0.0
 40
0.0256739042679807
 50
202.170765419084006
 51
315.5718890823919764
  0
ARC
  5
D8D5
  8
0
 10
818.9530295936177708
 20
157.3758502357796942
 30
0.0
 40
0.015839578922429
 50
148.9118737732829061
 51
191.9397704005810965
  0
ARC
  5
D8D6
  8
0
 10
818.9190017871596865
 20
157.4105891884047139
 30
0.0
 40
0.0337650044807902
 50
156.9559171827405066
 51
196.2050084981848102
  0
ARC
  5
D8D7
  8
0
 10
818.9593636480251462
 20
157.3695880418021886
 30
0.0
 40
0.0896783762910285
 50
33.270499938060901
 51
142.8011009840224972
  0
ARC
  5
D8D8
  8
0
 10
819.0024542084009909
 20
157.4077701084586067
 30
0.0
 40
0.0337373762459863
 50
343.1234145535555058
 51
19.0556801675913192
  0
LINE
  5
D8D9
  8
0
 10
819.0278136067430523
 20
157.3750239023302129
 30
0.0
 11
819.0347385935432385
 21
157.3979757717301879
 31
0.0
  0
LINE
  5
D8DA
  8
0
 10
818.8938667229431303
 20
157.3757167562301902
 30
0.0
 11
818.8865782901430066
 21
157.4011662181301858
 31
0.0
  0
ARC
  5
D8DB
  8
0
 10
818.6109681128598368
 20
157.0937594511499924
 30
0.0
 40
0.0725996426393495
 50
202.4069016784507085
 51
337.0003670967366247
  0
ARC
  5
D8DC
  8
0
 10
818.6106929326158479
 20
157.0592401605740065
 30
0.0
 40
0.0260981086981234
 50
31.5925942495332599
 51
144.4926578059184124
  0
ARC
  5
D8DD
  8
0
 10
818.6181522275276166
 20
157.0661559410166888
 30
0.0
 40
0.0162428223976449
 50
314.9412406789306829
 51
24.5798761657789413
  0
ARC
  5
D8DE
  8
0
 10
818.6112913647883715
 20
157.0726308456079892
 30
0.0
 40
0.0256739042679807
 50
202.170765419084006
 51
315.5718890823919764
  0
ARC
  5
D8DF
  8
0
 10
818.603012604889841
 20
157.0662192724759052
 30
0.0
 40
0.015839578922429
 50
148.9118737732829061
 51
191.9397704005810965
  0
ARC
  5
D8E0
  8
0
 10
818.568984798431984
 20
157.1009582251008965
 30
0.0
 40
0.0337650044807902
 50
156.9559171827405066
 51
196.2050084981848102
  0
ARC
  5
D8E1
  8
0
 10
818.60934665929733
 20
157.0599570784983996
 30
0.0
 40
0.0896783762910285
 50
33.270499938060901
 51
142.8011009840224972
  0
ARC
  5
D8E2
  8
0
 10
818.6524372196729473
 20
157.0981391451547893
 30
0.0
 40
0.0337373762459863
 50
343.1234145535555058
 51
19.0556801675913192
  0
LINE
  5
D8E3
  8
0
 10
818.6777966180153498
 20
157.0653929390263954
 30
0.0
 11
818.6847216048153086
 21
157.0883448084263989
 31
0.0
  0
LINE
  5
D8E4
  8
0
 10
818.5438497342152004
 20
157.0660857929264012
 30
0.0
 11
818.5365613014154178
 21
157.0915352548263968
 31
0.0
  0
ARC
  5
D8E5
  8
0
 10
818.5294304051476502
 20
157.334480514444806
 30
0.0
 40
0.0725996426393495
 50
202.4069016784507085
 51
337.0003670967366247
  0
ARC
  5
D8E6
  8
0
 10
818.5291552249035476
 20
157.2999612238689053
 30
0.0
 40
0.0260981086981234
 50
31.5925942495332599
 51
144.4926578059184124
  0
ARC
  5
D8E7
  8
0
 10
818.53661451981543
 20
157.3068770043115023
 30
0.0
 40
0.0162428223976449
 50
314.9412406789306829
 51
24.5798761657789413
  0
ARC
  5
D8E8
  8
0
 10
818.5297536570758439
 20
157.3133519089028027
 30
0.0
 40
0.0256739042679807
 50
202.170765419084006
 51
315.5718890823919764
  0
ARC
  5
D8E9
  8
0
 10
818.5214748971773133
 20
157.3069403357706904
 30
0.0
 40
0.015839578922429
 50
148.9118737732829061
 51
191.9397704005810965
  0
ARC
  5
D8EA
  8
0
 10
818.48744709071957
 20
157.34167928839571
 30
0.0
 40
0.0337650044807902
 50
156.9559171827405066
 51
196.2050084981848102
  0
ARC
  5
D8EB
  8
0
 10
818.527808951584916
 20
157.3006781417932132
 30
0.0
 40
0.0896783762910285
 50
33.270499938060901
 51
142.8011009840224972
  0
ARC
  5
D8EC
  8
0
 10
818.570899511960647
 20
157.3388602084496029
 30
0.0
 40
0.0337373762459863
 50
343.1234145535555058
 51
19.0556801675913192
  0
LINE
  5
D8ED
  8
0
 10
818.5962589103029359
 20
157.306114002321209
 30
0.0
 11
818.6031838971028947
 21
157.3290658717212125
 31
0.0
  0
LINE
  5
D8EE
  8
0
 10
818.4623120265027865
 20
157.3068068562211863
 30
0.0
 11
818.4550235937028901
 21
157.3322563181212104
 31
0.0
  0
ARC
  5
D8EF
  8
0
 10
818.6374670441789476
 20
157.5126256843770136
 30
0.0
 40
0.0725996426393495
 50
202.4069016784507085
 51
337.0003670967366247
  0
ARC
  5
D8F0
  8
0
 10
818.6371918639348451
 20
157.4781063938009993
 30
0.0
 40
0.0260981086981234
 50
31.5925942495332599
 51
144.4926578059184124
  0
ARC
  5
D8F1
  8
0
 10
818.6446511588467274
 20
157.48502217424371
 30
0.0
 40
0.0162428223976449
 50
314.9412406789306829
 51
24.5798761657789413
  0
ARC
  5
D8F2
  8
0
 10
818.6377902961074824
 20
157.4914970788350104
 30
0.0
 40
0.0256739042679807
 50
202.170765419084006
 51
315.5718890823919764
  0
ARC
  5
D8F3
  8
0
 10
818.6295115362089518
 20
157.485085505702898
 30
0.0
 40
0.015839578922429
 50
148.9118737732829061
 51
191.9397704005810965
  0
ARC
  5
D8F4
  8
0
 10
818.5954837297510949
 20
157.5198244583278893
 30
0.0
 40
0.0337650044807902
 50
156.9559171827405066
 51
196.2050084981848102
  0
ARC
  5
D8F5
  8
0
 10
818.6358455906164409
 20
157.4788233117253924
 30
0.0
 40
0.0896783762910285
 50
33.270499938060901
 51
142.8011009840224972
  0
ARC
  5
D8F6
  8
0
 10
818.6789361509920582
 20
157.5170053783818105
 30
0.0
 40
0.0337373762459863
 50
343.1234145535555058
 51
19.0556801675913192
  0
LINE
  5
D8F7
  8
0
 10
818.704295549334347
 20
157.4842591722533882
 30
0.0
 11
818.7112205361344195
 21
157.5072110416533917
 31
0.0
  0
LINE
  5
D8F8
  8
0
 10
818.5703486655340839
 20
157.4849520261533939
 30
0.0
 11
818.5630602327343013
 21
157.5104014880533896
 31
0.0
  0
ARC
  5
D8F9
  8
0
 10
818.2014272563659461
 20
157.5276070204234884
 30
0.0
 40
0.0725996426393495
 50
202.4069016784507085
 51
337.0003670967366247
  0
ARC
  5
D8FA
  8
0
 10
818.2011520761219572
 20
157.4930877298475025
 30
0.0
 40
0.0260981086981234
 50
31.5925942495332599
 51
144.4926578059184124
  0
ARC
  5
D8FB
  8
0
 10
818.2086113710337258
 20
157.5000035102902132
 30
0.0
 40
0.0162428223976449
 50
314.9412406789306829
 51
24.5798761657789413
  0
ARC
  5
D8FC
  8
0
 10
818.2017505082945945
 20
157.5064784148815136
 30
0.0
 40
0.0256739042679807
 50
202.170765419084006
 51
315.5718890823919764
  0
ARC
  5
D8FD
  8
0
 10
818.1934717483959503
 20
157.5000668417494012
 30
0.0
 40
0.015839578922429
 50
148.9118737732829061
 51
191.9397704005810965
  0
ARC
  5
D8FE
  8
0
 10
818.1594439419380933
 20
157.5348057943743925
 30
0.0
 40
0.0337650044807902
 50
156.9559171827405066
 51
196.2050084981848102
  0
ARC
  5
D8FF
  8
0
 10
818.1998058028034393
 20
157.4938046477718956
 30
0.0
 40
0.0896783762910285
 50
33.270499938060901
 51
142.8011009840224972
  0
ARC
  5
D900
  8
0
 10
818.2428963631790566
 20
157.5319867144283137
 30
0.0
 40
0.0337373762459863
 50
343.1234145535555058
 51
19.0556801675913192
  0
LINE
  5
D901
  8
0
 10
818.2682557615213454
 20
157.4992405082998914
 30
0.0
 11
818.2751807483211905
 21
157.5221923776998949
 31
0.0
  0
LINE
  5
D902
  8
0
 10
818.1343088777214234
 20
157.4999333621998971
 30
0.0
 11
818.1270204449214134
 21
157.5253828240998928
 31
0.0
  0
ARC
  5
D903
  8
0
 10
818.1981761806140412
 20
157.2806047218759886
 30
0.0
 40
0.0725996426393495
 50
202.4069016784507085
 51
337.0003670967366247
  0
ARC
  5
D904
  8
0
 10
818.1979010003700523
 20
157.2460854313000027
 30
0.0
 40
0.0260981086981234
 50
31.5925942495332599
 51
144.4926578059184124
  0
ARC
  5
D905
  8
0
 10
818.205360295281821
 20
157.2530012117427134
 30
0.0
 40
0.0162428223976449
 50
314.9412406789306829
 51
24.5798761657789413
  0
ARC
  5
D906
  8
0
 10
818.1984994325424623
 20
157.2594761163340138
 30
0.0
 40
0.0256739042679807
 50
202.170765419084006
 51
315.5718890823919764
  0
ARC
  5
D907
  8
0
 10
818.1902206726439317
 20
157.2530645432019014
 30
0.0
 40
0.015839578922429
 50
148.9118737732829061
 51
191.9397704005810965
  0
ARC
  5
D908
  8
0
 10
818.1561928661861884
 20
157.2878034958268927
 30
0.0
 40
0.0337650044807902
 50
156.9559171827405066
 51
196.2050084981848102
  0
ARC
  5
D909
  8
0
 10
818.1965547270515344
 20
157.2468023492243958
 30
0.0
 40
0.0896783762910285
 50
33.270499938060901
 51
142.8011009840224972
  0
ARC
  5
D90A
  8
0
 10
818.2396452874271517
 20
157.2849844158808139
 30
0.0
 40
0.0337373762459863
 50
343.1234145535555058
 51
19.0556801675913192
  0
LINE
  5
D90B
  8
0
 10
818.2650046857695543
 20
157.2522382097523916
 30
0.0
 11
818.2719296725692857
 21
157.2751900791523951
 31
0.0
  0
LINE
  5
D90C
  8
0
 10
818.1310578019694049
 20
157.2529310636523974
 30
0.0
 11
818.1237693691695085
 21
157.278380525552393
 31
0.0
  0
ARC
  5
D90D
  8
0
 10
818.3605571031773707
 20
157.6841020914235116
 30
0.0
 40
0.0725996426393495
 50
202.4069016784507085
 51
337.0003670967366247
  0
ARC
  5
D90E
  8
0
 10
818.3602819229334955
 20
157.6495828008474973
 30
0.0
 40
0.0260981086981234
 50
31.5925942495332599
 51
144.4926578059184124
  0
ARC
  5
D90F
  8
0
 10
818.3677412178451505
 20
157.6564985812900943
 30
0.0
 40
0.0162428223976449
 50
314.9412406789306829
 51
24.5798761657789413
  0
ARC
  5
D910
  8
0
 10
818.3608803551061328
 20
157.6629734858813947
 30
0.0
 40
0.0256739042679807
 50
202.170765419084006
 51
315.5718890823919764
  0
ARC
  5
D911
  8
0
 10
818.3526015952074886
 20
157.656561912749396
 30
0.0
 40
0.015839578922429
 50
148.9118737732829061
 51
191.9397704005810965
  0
ARC
  5
D912
  8
0
 10
818.3185737887496316
 20
157.6913008653743873
 30
0.0
 40
0.0337650044807902
 50
156.9559171827405066
 51
196.2050084981848102
  0
ARC
  5
D913
  8
0
 10
818.3589356496150913
 20
157.6502997187718904
 30
0.0
 40
0.0896783762910285
 50
33.270499938060901
 51
142.8011009840224972
  0
ARC
  5
D914
  8
0
 10
818.4020262099905949
 20
157.6884817854281948
 30
0.0
 40
0.0337373762459863
 50
343.1234145535555058
 51
19.0556801675913192
  0
LINE
  5
D915
  8
0
 10
818.4273856083331111
 20
157.655735579299801
 30
0.0
 11
818.4343105951327288
 21
157.6786874486998045
 31
0.0
  0
LINE
  5
D916
  8
0
 10
818.2934387245329617
 20
157.656428433199892
 30
0.0
 11
818.2861502917329517
 21
157.6818778950998876
 31
0.0
  0
ARC
  5
D917
  8
0
 10
818.1477777670808109
 20
157.9082848673660067
 30
0.0
 40
0.0725996426393495
 50
202.4069016784507085
 51
337.0003670967366247
  0
ARC
  5
D918
  8
0
 10
818.147502586836481
 20
157.8737655767899923
 30
0.0
 40
0.0260981086981234
 50
31.5925942495332599
 51
144.4926578059184124
  0
ARC
  5
D919
  8
0
 10
818.1549618817482497
 20
157.8806813572325893
 30
0.0
 40
0.0162428223976449
 50
314.9412406789306829
 51
24.5798761657789413
  0
ARC
  5
D91A
  8
0
 10
818.1481010190093457
 20
157.8871562618238897
 30
0.0
 40
0.0256739042679807
 50
202.170765419084006
 51
315.5718890823919764
  0
ARC
  5
D91B
  8
0
 10
818.1398222591109288
 20
157.880744688691891
 30
0.0
 40
0.015839578922429
 50
148.9118737732829061
 51
191.9397704005810965
  0
ARC
  5
D91C
  8
0
 10
818.1057944526527308
 20
157.9154836413169107
 30
0.0
 40
0.0337650044807902
 50
156.9559171827405066
 51
196.2050084981848102
  0
ARC
  5
D91D
  8
0
 10
818.1461563135180768
 20
157.8744824947144139
 30
0.0
 40
0.0896783762910285
 50
33.270499938060901
 51
142.8011009840224972
  0
ARC
  5
D91E
  8
0
 10
818.1892468738938078
 20
157.9126645613708035
 30
0.0
 40
0.0337373762459863
 50
343.1234145535555058
 51
19.0556801675913192
  0
LINE
  5
D91F
  8
0
 10
818.2146062722360966
 20
157.8799183552424097
 30
0.0
 11
818.2215312590360554
 21
157.9028702246424132
 31
0.0
  0
LINE
  5
D920
  8
0
 10
818.0806593884361746
 20
157.880611209142387
 30
0.0
 11
818.0733709556360509
 21
157.9060606710424111
 31
0.0
  0
ARC
  5
D921
  8
0
 10
817.9440362733082566
 20
157.7805250038273073
 30
0.0
 40
0.0725996426393495
 50
202.4069016784507085
 51
337.0003670967366247
  0
ARC
  5
D922
  8
0
 10
817.9437610930639266
 20
157.7460057132512929
 30
0.0
 40
0.0260981086981234
 50
31.5925942495332599
 51
144.4926578059184124
  0
ARC
  5
D923
  8
0
 10
817.9512203879760364
 20
157.7529214936938899
 30
0.0
 40
0.0162428223976449
 50
314.9412406789306829
 51
24.5798761657789413
  0
ARC
  5
D924
  8
0
 10
817.9443595252366777
 20
157.759396398285304
 30
0.0
 40
0.0256739042679807
 50
202.170765419084006
 51
315.5718890823919764
  0
ARC
  5
D925
  8
0
 10
817.9360807653382608
 20
157.7529848251531917
 30
0.0
 40
0.015839578922429
 50
148.9118737732829061
 51
191.9397704005810965
  0
ARC
  5
D926
  8
0
 10
817.9020529588801764
 20
157.7877237777782113
 30
0.0
 40
0.0337650044807902
 50
156.9559171827405066
 51
196.2050084981848102
  0
ARC
  5
D927
  8
0
 10
817.9424148197457498
 20
157.746722631175686
 30
0.0
 40
0.0896783762910285
 50
33.270499938060901
 51
142.8011009840224972
  0
ARC
  5
D928
  8
0
 10
817.9855053801212534
 20
157.7849046978321041
 30
0.0
 40
0.0337373762459863
 50
343.1234145535555058
 51
19.0556801675913192
  0
LINE
  5
D929
  8
0
 10
818.0108647784635423
 20
157.7521584917037103
 30
0.0
 11
818.0177897652635011
 21
157.7751103611037138
 31
0.0
  0
LINE
  5
D92A
  8
0
 10
817.8769178946633929
 20
157.7528513456036876
 30
0.0
 11
817.8696294618632692
 21
157.7783008075037117
 31
0.0
  0
ARC
  5
D92B
  8
0
 10
817.8499768020235479
 20
157.5417101737336907
 30
0.0
 40
0.0725996426393495
 50
202.4069016784507085
 51
337.0003670967366247
  0
ARC
  5
D92C
  8
0
 10
817.8497016217796727
 20
157.5071908831577048
 30
0.0
 40
0.0260981086981234
 50
31.5925942495332599
 51
144.4926578059184124
  0
ARC
  5
D92D
  8
0
 10
817.8571609166914413
 20
157.5141066636003018
 30
0.0
 40
0.0162428223976449
 50
314.9412406789306829
 51
24.5798761657789413
  0
ARC
  5
D92E
  8
0
 10
817.85030005395231
 20
157.5205815681916022
 30
0.0
 40
0.0256739042679807
 50
202.170765419084006
 51
315.5718890823919764
  0
ARC
  5
D92F
  8
0
 10
817.8420212940536658
 20
157.5141699950594898
 30
0.0
 40
0.015839578922429
 50
148.9118737732829061
 51
191.9397704005810965
  0
ARC
  5
D930
  8
0
 10
817.8079934875958088
 20
157.5489089476845095
 30
0.0
 40
0.0337650044807902
 50
156.9559171827405066
 51
196.2050084981848102
  0
ARC
  5
D931
  8
0
 10
817.8483553484610411
 20
157.5079078010820979
 30
0.0
 40
0.0896783762910285
 50
33.270499938060901
 51
142.8011009840224972
  0
ARC
  5
D932
  8
0
 10
817.8914459088367721
 20
157.5460898677384023
 30
0.0
 40
0.0337373762459863
 50
343.1234145535555058
 51
19.0556801675913192
  0
LINE
  5
D933
  8
0
 10
817.9168053071790609
 20
157.5133436616100084
 30
0.0
 11
817.9237302939791334
 21
157.5362955310100119
 31
0.0
  0
LINE
  5
D934
  8
0
 10
817.7828584233791389
 20
157.5140365155100142
 30
0.0
 11
817.7755699905791289
 21
157.5394859774100098
 31
0.0
  0
ARC
  5
D935
  8
0
 10
817.5953856933878114
 20
157.8667775585016102
 30
0.0
 40
0.0725996426393495
 50
202.4069016784507085
 51
337.0003670967366247
  0
ARC
  5
D936
  8
0
 10
817.5951105131439363
 20
157.8322582679257096
 30
0.0
 40
0.0260981086981234
 50
31.5925942495332599
 51
144.4926578059184124
  0
ARC
  5
D937
  8
0
 10
817.6025698080555912
 20
157.8391740483683066
 30
0.0
 40
0.0162428223976449
 50
314.9412406789306829
 51
24.5798761657789413
  0
ARC
  5
D938
  8
0
 10
817.5957089453164599
 20
157.845648952959607
 30
0.0
 40
0.0256739042679807
 50
202.170765419084006
 51
315.5718890823919764
  0
ARC
  5
D939
  8
0
 10
817.5874301854179294
 20
157.8392373798274946
 30
0.0
 40
0.015839578922429
 50
148.9118737732829061
 51
191.9397704005810965
  0
ARC
  5
D93A
  8
0
 10
817.5534023789599587
 20
157.8739763324524858
 30
0.0
 40
0.0337650044807902
 50
156.9559171827405066
 51
196.2050084981848102
  0
ARC
  5
D93B
  8
0
 10
817.5937642398250773
 20
157.832975185849989
 30
0.0
 40
0.0896783762910285
 50
33.270499938060901
 51
142.8011009840224972
  0
ARC
  5
D93C
  8
0
 10
817.6368548002010357
 20
157.8711572525064071
 30
0.0
 40
0.0337373762459863
 50
343.1234145535555058
 51
19.0556801675913192
  0
LINE
  5
D93D
  8
0
 10
817.6622141985430972
 20
157.8384110463780132
 30
0.0
 11
817.6691391853430559
 21
157.8613629157779883
 31
0.0
  0
LINE
  5
D93E
  8
0
 10
817.5282673147432888
 20
157.8391039002779905
 30
0.0
 11
817.5209788819432788
 21
157.8645533621779862
 31
0.0
  0
ARC
  5
D93F
  8
0
 10
817.7685459134462462
 20
158.0759815028129083
 30
0.0
 40
0.0725996426393495
 50
202.4069016784507085
 51
337.0003670967366247
  0
ARC
  5
D940
  8
0
 10
817.7682707332022574
 20
158.0414622122368939
 30
0.0
 40
0.0260981086981234
 50
31.5925942495332599
 51
144.4926578059184124
  0
ARC
  5
D941
  8
0
 10
817.775730028114026
 20
158.0483779926794909
 30
0.0
 40
0.0162428223976449
 50
314.9412406789306829
 51
24.5798761657789413
  0
ARC
  5
D942
  8
0
 10
817.7688691653746673
 20
158.0548528972707913
 30
0.0
 40
0.0256739042679807
 50
202.170765419084006
 51
315.5718890823919764
  0
ARC
  5
D943
  8
0
 10
817.7605904054761368
 20
158.0484413241387074
 30
0.0
 40
0.015839578922429
 50
148.9118737732829061
 51
191.9397704005810965
  0
ARC
  5
D944
  8
0
 10
817.7265625990183935
 20
158.0831802767636987
 30
0.0
 40
0.0337650044807902
 50
156.9559171827405066
 51
196.2050084981848102
  0
ARC
  5
D945
  8
0
 10
817.7669244598837395
 20
158.042179130161287
 30
0.0
 40
0.0896783762910285
 50
33.270499938060901
 51
142.8011009840224972
  0
ARC
  5
D946
  8
0
 10
817.8100150202593568
 20
158.0803611968175915
 30
0.0
 40
0.0337373762459863
 50
343.1234145535555058
 51
19.0556801675913192
  0
LINE
  5
D947
  8
0
 10
817.8353744186016456
 20
158.0476149906893113
 30
0.0
 11
817.8422994054014907
 21
158.0705668600892864
 31
0.0
  0
LINE
  5
D948
  8
0
 10
817.7014275348016099
 20
158.0483078445892033
 30
0.0
 11
817.6941391020017136
 21
158.073757306489199
 31
0.0
  0
ARC
  5
D949
  8
0
 10
818.0142390218428545
 20
158.1697888525908979
 30
0.0
 40
0.0725996426393495
 50
202.4069016784507085
 51
337.0003670967366247
  0
ARC
  5
D94A
  8
0
 10
818.0139638415988657
 20
158.135269562014912
 30
0.0
 40
0.0260981086981234
 50
31.5925942495332599
 51
144.4926578059184124
  0
ARC
  5
D94B
  8
0
 10
818.0214231365106343
 20
158.1421853424575943
 30
0.0
 40
0.0162428223976449
 50
314.9412406789306829
 51
24.5798761657789413
  0
ARC
  5
D94C
  8
0
 10
818.014562273771503
 20
158.1486602470488947
 30
0.0
 40
0.0256739042679807
 50
202.170765419084006
 51
315.5718890823919764
  0
ARC
  5
D94D
  8
0
 10
818.0062835138728587
 20
158.1422486739168107
 30
0.0
 40
0.015839578922429
 50
148.9118737732829061
 51
191.9397704005810965
  0
ARC
  5
D94E
  8
0
 10
817.9722557074150018
 20
158.176987626541802
 30
0.0
 40
0.0337650044807902
 50
156.9559171827405066
 51
196.2050084981848102
  0
ARC
  5
D94F
  8
0
 10
818.0126175682803478
 20
158.1359864799393051
 30
0.0
 40
0.0896783762910285
 50
33.270499938060901
 51
142.8011009840224972
  0
ARC
  5
D950
  8
0
 10
818.0557081286559651
 20
158.1741685465956948
 30
0.0
 40
0.0337373762459863
 50
343.1234145535555058
 51
19.0556801675913192
  0
LINE
  5
D951
  8
0
 10
818.0810675269983676
 20
158.141422340467301
 30
0.0
 11
818.0879925137983264
 21
158.1643742098673044
 31
0.0
  0
LINE
  5
D952
  8
0
 10
817.9471206431983319
 20
158.1421151943673067
 30
0.0
 11
817.9398322103983219
 21
158.1675646562673023
 31
0.0
  0
ARC
  5
D953
  8
0
 10
817.4514154025390553
 20
158.230389651293109
 30
0.0
 40
0.0725996426393495
 50
202.4069016784507085
 51
337.0003670967366247
  0
ARC
  5
D954
  8
0
 10
817.4511402222949528
 20
158.1958703607170946
 30
0.0
 40
0.0260981086981234
 50
31.5925942495332599
 51
144.4926578059184124
  0
ARC
  5
D955
  8
0
 10
817.4585995172067214
 20
158.2027861411596916
 30
0.0
 40
0.0162428223976449
 50
314.9412406789306829
 51
24.5798761657789413
  0
ARC
  5
D956
  8
0
 10
817.4517386544675901
 20
158.209261045750992
 30
0.0
 40
0.0256739042679807
 50
202.170765419084006
 51
315.5718890823919764
  0
ARC
  5
D957
  8
0
 10
817.4434598945690595
 20
158.2028494726189933
 30
0.0
 40
0.015839578922429
 50
148.9118737732829061
 51
191.9397704005810965
  0
ARC
  5
D958
  8
0
 10
817.4094320881112026
 20
158.237588425244013
 30
0.0
 40
0.0337650044807902
 50
156.9559171827405066
 51
196.2050084981848102
  0
ARC
  5
D959
  8
0
 10
817.4497939489765486
 20
158.1965872786414877
 30
0.0
 40
0.0896783762910285
 50
33.270499938060901
 51
142.8011009840224972
  0
ARC
  5
D95A
  8
0
 10
817.4928845093520522
 20
158.2347693452977921
 30
0.0
 40
0.0337373762459863
 50
343.1234145535555058
 51
19.0556801675913192
  0
LINE
  5
D95B
  8
0
 10
817.5182439076945684
 20
158.2020231391693983
 30
0.0
 11
817.5251688944944135
 21
158.2249750085694018
 31
0.0
  0
LINE
  5
D95C
  8
0
 10
817.3842970238946464
 20
158.2027159930694893
 30
0.0
 11
817.3770085910945227
 21
158.2281654549695133
 31
0.0
  0
ARC
  5
D95D
  8
0
 10
817.6967627808652423
 20
158.3978909962642092
 30
0.0
 40
0.0725996426393495
 50
202.4069016784507085
 51
337.0003670967366247
  0
ARC
  5
D95E
  8
0
 10
817.6964876006212535
 20
158.3633717056883086
 30
0.0
 40
0.0260981086981234
 50
31.5925942495332599
 51
144.4926578059184124
  0
ARC
  5
D95F
  8
0
 10
817.7039468955330221
 20
158.3702874861309056
 30
0.0
 40
0.0162428223976449
 50
314.9412406789306829
 51
24.5798761657789413
  0
ARC
  5
D960
  8
0
 10
817.6970860327938908
 20
158.376762390722206
 30
0.0
 40
0.0256739042679807
 50
202.170765419084006
 51
315.5718890823919764
  0
ARC
  5
D961
  8
0
 10
817.6888072728952466
 20
158.3703508175900936
 30
0.0
 40
0.015839578922429
 50
148.9118737732829061
 51
191.9397704005810965
  0
ARC
  5
D962
  8
0
 10
817.6547794664373896
 20
158.4050897702151133
 30
0.0
 40
0.0337650044807902
 50
156.9559171827405066
 51
196.2050084981848102
  0
ARC
  5
D963
  8
0
 10
817.6951413273027356
 20
158.364088623612588
 30
0.0
 40
0.0896783762910285
 50
33.270499938060901
 51
142.8011009840224972
  0
ARC
  5
D964
  8
0
 10
817.7382318876783529
 20
158.4022706902690061
 30
0.0
 40
0.0337373762459863
 50
343.1234145535555058
 51
19.0556801675913192
  0
LINE
  5
D965
  8
0
 10
817.7635912860207554
 20
158.3695244841406122
 30
0.0
 11
817.7705162728204868
 21
158.3924763535405873
 31
0.0
  0
LINE
  5
D966
  8
0
 10
817.6296444022208334
 20
158.3702173380405895
 30
0.0
 11
817.6223559694207097
 21
158.3956667999406136
 31
0.0
  0
ARC
  5
D967
  8
0
 10
817.9696088415935264
 20
158.4493759797319967
 30
0.0
 40
0.0725996426393495
 50
202.4069016784507085
 51
337.0003670967366247
  0
ARC
  5
D968
  8
0
 10
817.9693336613494239
 20
158.4148566891560108
 30
0.0
 40
0.0260981086981234
 50
31.5925942495332599
 51
144.4926578059184124
  0
ARC
  5
D969
  8
0
 10
817.9767929562610789
 20
158.4217724695986078
 30
0.0
 40
0.0162428223976449
 50
314.9412406789306829
 51
24.5798761657789413
  0
ARC
  5
D96A
  8
0
 10
817.9699320935221749
 20
158.4282473741899082
 30
0.0
 40
0.0256739042679807
 50
202.170765419084006
 51
315.5718890823919764
  0
ARC
  5
D96B
  8
0
 10
817.961653333623758
 20
158.4218358010579095
 30
0.0
 40
0.015839578922429
 50
148.9118737732829061
 51
191.9397704005810965
  0
ARC
  5
D96C
  8
0
 10
817.92762552716556
 20
158.4565747536829008
 30
0.0
 40
0.0337650044807902
 50
156.9559171827405066
 51
196.2050084981848102
  0
ARC
  5
D96D
  8
0
 10
817.9679873880310197
 20
158.4155736070804039
 30
0.0
 40
0.0896783762910285
 50
33.270499938060901
 51
142.8011009840224972
  0
ARC
  5
D96E
  8
0
 10
818.0110779484067507
 20
158.4537556737367083
 30
0.0
 40
0.0337373762459863
 50
343.1234145535555058
 51
19.0556801675913192
  0
LINE
  5
D96F
  8
0
 10
818.0364373467490395
 20
158.4210094676082861
 30
0.0
 11
818.0433623335489983
 21
158.4439613370084032
 31
0.0
  0
LINE
  5
D970
  8
0
 10
817.9024904629488901
 20
158.4217023215084055
 30
0.0
 11
817.8952020301488801
 21
158.4471517834084011
 31
0.0
  0
ARC
  5
D971
  8
0
 10
818.0150844767623539
 20
158.7300087843800043
 30
0.0
 40
0.0725996426393495
 50
202.4069016784507085
 51
337.0003670967366247
  0
ARC
  5
D972
  8
0
 10
818.0148092965181377
 20
158.6954894938039899
 30
0.0
 40
0.0260981086981234
 50
31.5925942495332599
 51
144.4926578059184124
  0
ARC
  5
D973
  8
0
 10
818.0222685914297927
 20
158.7024052742467006
 30
0.0
 40
0.0162428223976449
 50
314.9412406789306829
 51
24.5798761657789413
  0
ARC
  5
D974
  8
0
 10
818.0154077286911161
 20
158.708880178838001
 30
0.0
 40
0.0256739042679807
 50
202.170765419084006
 51
315.5718890823919764
  0
ARC
  5
D975
  8
0
 10
818.0071289687924718
 20
158.7024686057058886
 30
0.0
 40
0.015839578922429
 50
148.9118737732829061
 51
191.9397704005810965
  0
ARC
  5
D976
  8
0
 10
817.9731011623341601
 20
158.7372075583309083
 30
0.0
 40
0.0337650044807902
 50
156.9559171827405066
 51
196.2050084981848102
  0
ARC
  5
D977
  8
0
 10
818.0134630231997335
 20
158.6962064117284115
 30
0.0
 40
0.0896783762910285
 50
33.270499938060901
 51
142.8011009840224972
  0
ARC
  5
D978
  8
0
 10
818.0565535835753508
 20
158.7343884783848011
 30
0.0
 40
0.0337373762459863
 50
343.1234145535555058
 51
19.0556801675913192
  0
LINE
  5
D979
  8
0
 10
818.0819129819177533
 20
158.7016422722564073
 30
0.0
 11
818.0888379687177121
 21
158.7245941416564108
 31
0.0
  0
LINE
  5
D97A
  8
0
 10
817.9479660981177176
 20
158.702335126156413
 30
0.0
 11
817.9406776653174802
 21
158.7277845880564087
 31
0.0
  0
ARC
  5
D97B
  8
0
 10
817.7209655706545846
 20
158.7262479434972988
 30
0.0
 40
0.0725996426393495
 50
202.4069016784507085
 51
337.0003670967366247
  0
ARC
  5
D97C
  8
0
 10
817.7206903904102546
 20
158.6917286529213982
 30
0.0
 40
0.0260981086981234
 50
31.5925942495332599
 51
144.4926578059184124
  0
ARC
  5
D97D
  8
0
 10
817.7281496853223643
 20
158.6986444333639952
 30
0.0
 40
0.0162428223976449
 50
314.9412406789306829
 51
24.5798761657789413
  0
ARC
  5
D97E
  8
0
 10
817.721288822582892
 20
158.7051193379552956
 30
0.0
 40
0.0256739042679807
 50
202.170765419084006
 51
315.5718890823919764
  0
ARC
  5
D97F
  8
0
 10
817.7130100626844751
 20
158.6987077648232116
 30
0.0
 40
0.015839578922429
 50
148.9118737732829061
 51
191.9397704005810965
  0
ARC
  5
D980
  8
0
 10
817.6789822562266181
 20
158.7334467174482029
 30
0.0
 40
0.0337650044807902
 50
156.9559171827405066
 51
196.2050084981848102
  0
ARC
  5
D981
  8
0
 10
817.7193441170918504
 20
158.692445570845706
 30
0.0
 40
0.0896783762910285
 50
33.270499938060901
 51
142.8011009840224972
  0
ARC
  5
D982
  8
0
 10
817.7624346774675814
 20
158.7306276375020957
 30
0.0
 40
0.0337373762459863
 50
343.1234145535555058
 51
19.0556801675913192
  0
LINE
  5
D983
  8
0
 10
817.7877940758097566
 20
158.6978814313737018
 30
0.0
 11
817.7947190626099427
 21
158.7208333007737053
 31
0.0
  0
LINE
  5
D984
  8
0
 10
817.6538471920096072
 20
158.6985742852737076
 30
0.0
 11
817.6465587592097108
 21
158.7240237471737032
 31
0.0
  0
ARC
  5
D985
  8
0
 10
817.4195725173390201
 20
158.6132907851329037
 30
0.0
 40
0.0725996426393495
 50
202.4069016784507085
 51
337.0003670967366247
  0
ARC
  5
D986
  8
0
 10
817.4192973370949176
 20
158.5787714945568894
 30
0.0
 40
0.0260981086981234
 50
31.5925942495332599
 51
144.4926578059184124
  0
ARC
  5
D987
  8
0
 10
817.4267566320065725
 20
158.5856872749994864
 30
0.0
 40
0.0162428223976449
 50
314.9412406789306829
 51
24.5798761657789413
  0
ARC
  5
D988
  8
0
 10
817.4198957692676686
 20
158.5921621795907868
 30
0.0
 40
0.0256739042679807
 50
202.170765419084006
 51
315.5718890823919764
  0
ARC
  5
D989
  8
0
 10
817.4116170093692517
 20
158.5857506064587028
 30
0.0
 40
0.015839578922429
 50
148.9118737732829061
 51
191.9397704005810965
  0
ARC
  5
D98A
  8
0
 10
817.3775892029110537
 20
158.6204895590836941
 30
0.0
 40
0.0337650044807902
 50
156.9559171827405066
 51
196.2050084981848102
  0
ARC
  5
D98B
  8
0
 10
817.4179510637765134
 20
158.5794884124813109
 30
0.0
 40
0.0896783762910285
 50
33.270499938060901
 51
142.8011009840224972
  0
ARC
  5
D98C
  8
0
 10
817.4610416241522444
 20
158.6176704791375869
 30
0.0
 40
0.0337373762459863
 50
343.1234145535555058
 51
19.0556801675913192
  0
LINE
  5
D98D
  8
0
 10
817.4864010224945332
 20
158.584924273009193
 30
0.0
 11
817.493326009294492
 21
158.6078761424093102
 31
0.0
  0
LINE
  5
D98E
  8
0
 10
817.3524541386943838
 20
158.5856171269091988
 30
0.0
 11
817.3451657058943738
 21
158.6110665888091944
 31
0.0
  0
ARC
  5
D98F
  8
0
 10
817.5097912173320083
 20
158.9917944937157017
 30
0.0
 40
0.0725996426393495
 50
202.4069016784507085
 51
337.0003670967366247
  0
ARC
  5
D990
  8
0
 10
817.509516037087792
 20
158.9572752031396874
 30
0.0
 40
0.0260981086981234
 50
31.5925942495332599
 51
144.4926578059184124
  0
ARC
  5
D991
  8
0
 10
817.5169753319997881
 20
158.9641909835823128
 30
0.0
 40
0.0162428223976449
 50
314.9412406789306829
 51
24.5798761657789413
  0
ARC
  5
D992
  8
0
 10
817.5101144692606567
 20
158.9706658881736132
 30
0.0
 40
0.0256739042679807
 50
202.170765419084006
 51
315.5718890823919764
  0
ARC
  5
D993
  8
0
 10
817.5018357093621262
 20
158.9642543150415008
 30
0.0
 40
0.015839578922429
 50
148.9118737732829061
 51
191.9397704005810965
  0
ARC
  5
D994
  8
0
 10
817.4678079029041555
 20
158.9989932676664921
 30
0.0
 40
0.0337650044807902
 50
156.9559171827405066
 51
196.2050084981848102
  0
ARC
  5
D995
  8
0
 10
817.5081697637695015
 20
158.9579921210639952
 30
0.0
 40
0.0896783762910285
 50
33.270499938060901
 51
142.8011009840224972
  0
ARC
  5
D996
  8
0
 10
817.5512603241450051
 20
158.9961741877204133
 30
0.0
 40
0.0337373762459863
 50
343.1234145535555058
 51
19.0556801675913192
  0
LINE
  5
D997
  8
0
 10
817.5766197224874077
 20
158.9634279815921047
 30
0.0
 11
817.5835447092873665
 21
158.9863798509921082
 31
0.0
  0
LINE
  5
D998
  8
0
 10
817.4426728386872583
 20
158.9641208354919968
 30
0.0
 11
817.4353844058872482
 21
158.9895702973919924
 31
0.0
  0
ARC
  5
D999
  8
0
 10
817.8480257522099919
 20
159.0363333678147058
 30
0.0
 40
0.0725996426393495
 50
202.4069016784507085
 51
337.0003670967366247
  0
ARC
  5
D99A
  8
0
 10
817.8477505719656619
 20
159.0018140772386914
 30
0.0
 40
0.0260981086981234
 50
31.5925942495332599
 51
144.4926578059184124
  0
ARC
  5
D99B
  8
0
 10
817.855209866877658
 20
159.0087298576812884
 30
0.0
 40
0.0162428223976449
 50
314.9412406789306829
 51
24.5798761657789413
  0
ARC
  5
D99C
  8
0
 10
817.8483490041382993
 20
159.0152047622725888
 30
0.0
 40
0.0256739042679807
 50
202.170765419084006
 51
315.5718890823919764
  0
ARC
  5
D99D
  8
0
 10
817.8400702442398824
 20
159.0087931891405049
 30
0.0
 40
0.015839578922429
 50
148.9118737732829061
 51
191.9397704005810965
  0
ARC
  5
D99E
  8
0
 10
817.8060424377822528
 20
159.0435321417654961
 30
0.0
 40
0.0337650044807902
 50
156.9559171827405066
 51
196.2050084981848102
  0
ARC
  5
D99F
  8
0
 10
817.8464042986472577
 20
159.0025309951629993
 30
0.0
 40
0.0896783762910285
 50
33.270499938060901
 51
142.8011009840224972
  0
ARC
  5
D9A0
  8
0
 10
817.8894948590231024
 20
159.0407130618193889
 30
0.0
 40
0.0337373762459863
 50
343.1234145535555058
 51
19.0556801675913192
  0
LINE
  5
D9A1
  8
0
 10
817.9148542573650502
 20
159.0079668556909951
 30
0.0
 11
817.9217792441653501
 21
159.0309187250909986
 31
0.0
  0
LINE
  5
D9A2
  8
0
 10
817.7809073735652419
 20
159.0086597095910008
 30
0.0
 11
817.7736189407651182
 21
159.0341091714909965
 31
0.0
  0
ARC
  5
D9A3
  8
0
 10
818.1478704335225984
 20
158.9908830947067031
 30
0.0
 40
0.0725996426393495
 50
202.4069016784507085
 51
337.0003670967366247
  0
ARC
  5
D9A4
  8
0
 10
818.1475952532784959
 20
158.9563638041306888
 30
0.0
 40
0.0260981086981234
 50
31.5925942495332599
 51
144.4926578059184124
  0
ARC
  5
D9A5
  8
0
 10
818.1550545481903782
 20
158.9632795845733142
 30
0.0
 40
0.0162428223976449
 50
314.9412406789306829
 51
24.5798761657789413
  0
ARC
  5
D9A6
  8
0
 10
818.1481936854511332
 20
158.9697544891645862
 30
0.0
 40
0.0256739042679807
 50
202.170765419084006
 51
315.5718890823919764
  0
ARC
  5
D9A7
  8
0
 10
818.1399149255527163
 20
158.9633429160325875
 30
0.0
 40
0.015839578922429
 50
148.9118737732829061
 51
191.9397704005810965
  0
ARC
  5
D9A8
  8
0
 10
818.1058871190947457
 20
158.9980818686576072
 30
0.0
 40
0.0337650044807902
 50
156.9559171827405066
 51
196.2050084981848102
  0
ARC
  5
D9A9
  8
0
 10
818.1462489799600917
 20
158.9570807220551103
 30
0.0
 40
0.0896783762910285
 50
33.270499938060901
 51
142.8011009840224972
  0
ARC
  5
D9AA
  8
0
 10
818.1893395403355953
 20
158.9952627887113863
 30
0.0
 40
0.0337373762459863
 50
343.1234145535555058
 51
19.0556801675913192
  0
LINE
  5
D9AB
  8
0
 10
818.2146989386781115
 20
158.9625165825831061
 30
0.0
 11
818.2216239254779566
 21
158.9854684519831096
 31
0.0
  0
LINE
  5
D9AC
  8
0
 10
818.0807520548781895
 20
158.9632094364831119
 30
0.0
 11
818.0734636220779521
 21
158.9886588983831075
 31
0.0
  0
ARC
  5
D9AD
  8
0
 10
818.3608101668063455
 20
159.2155926856106873
 30
0.0
 40
0.0725996426393495
 50
202.4069016784507085
 51
337.0003670967366247
  0
ARC
  5
D9AE
  8
0
 10
818.3605349865623566
 20
159.1810733950347014
 30
0.0
 40
0.0260981086981234
 50
31.5925942495332599
 51
144.4926578059184124
  0
ARC
  5
D9AF
  8
0
 10
818.3679942814741253
 20
159.1879891754772984
 30
0.0
 40
0.0162428223976449
 50
314.9412406789306829
 51
24.5798761657789413
  0
ARC
  5
D9B0
  8
0
 10
818.3611334187346529
 20
159.1944640800685988
 30
0.0
 40
0.0256739042679807
 50
202.170765419084006
 51
315.5718890823919764
  0
ARC
  5
D9B1
  8
0
 10
818.352854658836236
 20
159.1880525069364865
 30
0.0
 40
0.015839578922429
 50
148.9118737732829061
 51
191.9397704005810965
  0
ARC
  5
D9B2
  8
0
 10
818.3188268523784927
 20
159.2227914595615061
 30
0.0
 40
0.0337650044807902
 50
156.9559171827405066
 51
196.2050084981848102
  0
ARC
  5
D9B3
  8
0
 10
818.3591887132436113
 20
159.1817903129590945
 30
0.0
 40
0.0896783762910285
 50
33.270499938060901
 51
142.8011009840224972
  0
ARC
  5
D9B4
  8
0
 10
818.402279273619456
 20
159.2199723796153989
 30
0.0
 40
0.0337373762459863
 50
343.1234145535555058
 51
19.0556801675913192
  0
LINE
  5
D9B5
  8
0
 10
818.4276386719615175
 20
159.1872261734870904
 30
0.0
 11
818.43456365876159
 21
159.2101780428870939
 31
0.0
  0
LINE
  5
D9B6
  8
0
 10
818.2936917881617092
 20
159.1879190273870108
 30
0.0
 11
818.2864033553618128
 21
159.2133684892870065
 31
0.0
  0
ARC
  5
D9B7
  8
0
 10
818.0651021154616274
 20
159.3136434966592105
 30
0.0
 40
0.0725996426393495
 50
202.4069016784507085
 51
337.0003670967366247
  0
ARC
  5
D9B8
  8
0
 10
818.0648269352174111
 20
159.2791242060831962
 30
0.0
 40
0.0260981086981234
 50
31.5925942495332599
 51
144.4926578059184124
  0
ARC
  5
D9B9
  8
0
 10
818.0722862301290661
 20
159.2860399865259069
 30
0.0
 40
0.0162428223976449
 50
314.9412406789306829
 51
24.5798761657789413
  0
ARC
  5
D9BA
  8
0
 10
818.0654253673900485
 20
159.2925148911172073
 30
0.0
 40
0.0256739042679807
 50
202.170765419084006
 51
315.5718890823919764
  0
ARC
  5
D9BB
  8
0
 10
818.0571466074916316
 20
159.2861033179850949
 30
0.0
 40
0.015839578922429
 50
148.9118737732829061
 51
191.9397704005810965
  0
ARC
  5
D9BC
  8
0
 10
818.0231188010335472
 20
159.3208422706100862
 30
0.0
 40
0.0337650044807902
 50
156.9559171827405066
 51
196.2050084981848102
  0
ARC
  5
D9BD
  8
0
 10
818.0634806618988932
 20
159.2798411240075893
 30
0.0
 40
0.0896783762910285
 50
33.270499938060901
 51
142.8011009840224972
  0
ARC
  5
D9BE
  8
0
 10
818.1065712222746242
 20
159.3180231906640074
 30
0.0
 40
0.0337373762459863
 50
343.1234145535555058
 51
19.0556801675913192
  0
LINE
  5
D9BF
  8
0
 10
818.1319306206167994
 20
159.2852769845356136
 30
0.0
 11
818.1388556074168719
 21
159.3082288539355886
 31
0.0
  0
LINE
  5
D9C0
  8
0
 10
817.99798373681665
 20
159.2859698384355909
 30
0.0
 11
817.9906953040167537
 21
159.3114193003355865
 31
0.0
  0
ARC
  5
D9C1
  8
0
 10
817.7105501995497434
 20
159.3370809610898107
 30
0.0
 40
0.0725996426393495
 50
202.4069016784507085
 51
337.0003670967366247
  0
ARC
  5
D9C2
  8
0
 10
817.7102750193055272
 20
159.3025616705137963
 30
0.0
 40
0.0260981086981234
 50
31.5925942495332599
 51
144.4926578059184124
  0
ARC
  5
D9C3
  8
0
 10
817.7177343142174095
 20
159.3094774509563933
 30
0.0
 40
0.0162428223976449
 50
314.9412406789306829
 51
24.5798761657789413
  0
ARC
  5
D9C4
  8
0
 10
817.7108734514785056
 20
159.3159523555476937
 30
0.0
 40
0.0256739042679807
 50
202.170765419084006
 51
315.5718890823919764
  0
ARC
  5
D9C5
  8
0
 10
817.7025946915798613
 20
159.3095407824156098
 30
0.0
 40
0.015839578922429
 50
148.9118737732829061
 51
191.9397704005810965
  0
ARC
  5
D9C6
  8
0
 10
817.6685668851216633
 20
159.3442797350406011
 30
0.0
 40
0.0337650044807902
 50
156.9559171827405066
 51
196.2050084981848102
  0
ARC
  5
D9C7
  8
0
 10
817.7089287459873503
 20
159.3032785884381042
 30
0.0
 40
0.0896783762910285
 50
33.270499938060901
 51
142.8011009840224972
  0
ARC
  5
D9C8
  8
0
 10
817.7520193063629677
 20
159.3414606550944939
 30
0.0
 40
0.0337373762459863
 50
343.1234145535555058
 51
19.0556801675913192
  0
LINE
  5
D9C9
  8
0
 10
817.7773787047052565
 20
159.3087144489661
 30
0.0
 11
817.7843036915051016
 21
159.3316663183661035
 31
0.0
  0
LINE
  5
D9CA
  8
0
 10
817.6434318209052208
 20
159.3094073028661057
 30
0.0
 11
817.6361433881050971
 21
159.3348567647661014
 31
0.0
  0
ARC
  5
D9CB
  8
0
 10
818.0127152485686111
 20
159.633075356272002
 30
0.0
 40
0.0725996426393495
 50
202.4069016784507085
 51
337.0003670967366247
  0
ARC
  5
D9CC
  8
0
 10
818.0124400683247359
 20
159.5985560656959876
 30
0.0
 40
0.0260981086981234
 50
31.5925942495332599
 51
144.4926578059184124
  0
ARC
  5
D9CD
  8
0
 10
818.0198993632363909
 20
159.605471846138613
 30
0.0
 40
0.0162428223976449
 50
314.9412406789306829
 51
24.5798761657789413
  0
ARC
  5
D9CE
  8
0
 10
818.0130385004971458
 20
159.6119467507299134
 30
0.0
 40
0.0256739042679807
 50
202.170765419084006
 51
315.5718890823919764
  0
ARC
  5
D9CF
  8
0
 10
818.0047597405986153
 20
159.6055351775978863
 30
0.0
 40
0.015839578922429
 50
148.9118737732829061
 51
191.9397704005810965
  0
ARC
  5
D9D0
  8
0
 10
817.9707319341407583
 20
159.640274130222906
 30
0.0
 40
0.0337650044807902
 50
156.9559171827405066
 51
196.2050084981848102
  0
ARC
  5
D9D1
  8
0
 10
818.0121020301751287
 20
159.6286717217701892
 30
0.0
 40
0.0765745912406229
 50
14.9838696245559397
 51
161.0877312975283928
  0
ARC
  5
D9D2
  8
0
 10
818.0541843553818353
 20
159.6374550502767136
 30
0.0
 40
0.0337373762459863
 50
343.1234145535555058
 51
19.0556801675913192
  0
LINE
  5
D9D3
  8
0
 10
818.0795437537237831
 20
159.604708844148405
 30
0.0
 11
818.0864687405240829
 21
159.6276607135484085
 31
0.0
  0
LINE
  5
D9D4
  8
0
 10
817.9455968699239747
 20
159.6054016980484107
 30
0.0
 11
817.9383084371241921
 21
159.6308511599484063
 31
0.0
  0
ARC
  5
D9D5
  8
0
 10
818.357967160367707
 20
159.5373928007516042
 30
0.0
 40
0.0725996426393495
 50
202.4069016784507085
 51
337.0003670967366247
  0
ARC
  5
D9D6
  8
0
 10
818.3576919801236045
 20
159.5028735101755899
 30
0.0
 40
0.0260981086981234
 50
31.5925942495332599
 51
144.4926578059184124
  0
ARC
  5
D9D7
  8
0
 10
818.3651512750354868
 20
159.5097892906181869
 30
0.0
 40
0.0162428223976449
 50
314.9412406789306829
 51
24.5798761657789413
  0
ARC
  5
D9D8
  8
0
 10
818.3582904122962418
 20
159.5162641952094873
 30
0.0
 40
0.0256739042679807
 50
202.170765419084006
 51
315.5718890823919764
  0
ARC
  5
D9D9
  8
0
 10
818.3500116523975976
 20
159.5098526220774033
 30
0.0
 40
0.015839578922429
 50
148.9118737732829061
 51
191.9397704005810965
  0
ARC
  5
D9DA
  8
0
 10
818.3159838459398543
 20
159.5445915747023946
 30
0.0
 40
0.0337650044807902
 50
156.9559171827405066
 51
196.2050084981848102
  0
ARC
  5
D9DB
  8
0
 10
818.3572526978354063
 20
159.5300370276899002
 30
0.0
 40
0.0774871947013723
 50
17.0736345754808596
 51
158.9979663466043007
  0
ARC
  5
D9DC
  8
0
 10
818.3994362671809313
 20
159.5417724947562874
 30
0.0
 40
0.0337373762459863
 50
343.1234145535555058
 51
19.0556801675913192
  0
LINE
  5
D9DD
  8
0
 10
818.4247956655229927
 20
159.5090262886278936
 30
0.0
 11
818.4317206523231789
 21
159.5319781580278971
 31
0.0
  0
LINE
  5
D9DE
  8
0
 10
818.2908487817228433
 20
159.5097191425278993
 30
0.0
 11
818.283560348922947
 21
159.5351686044278949
 31
0.0
  0
ARC
  5
D9DF
  8
0
 10
818.6358969811767565
 20
159.3884554816646073
 30
0.0
 40
0.0725996426393495
 50
202.4069016784507085
 51
337.0003670967366247
  0
ARC
  5
D9E0
  8
0
 10
818.635621800932654
 20
159.3539361910887067
 30
0.0
 40
0.0260981086981234
 50
31.5925942495332599
 51
144.4926578059184124
  0
ARC
  5
D9E1
  8
0
 10
818.6430810958444226
 20
159.3608519715313037
 30
0.0
 40
0.0162428223976449
 50
314.9412406789306829
 51
24.5798761657789413
  0
ARC
  5
D9E2
  8
0
 10
818.6362202331049502
 20
159.3673268761226041
 30
0.0
 40
0.0256739042679807
 50
202.170765419084006
 51
315.5718890823919764
  0
ARC
  5
D9E3
  8
0
 10
818.6279414732066471
 20
159.3609153029906054
 30
0.0
 40
0.015839578922429
 50
148.9118737732829061
 51
191.9397704005810965
  0
ARC
  5
D9E4
  8
0
 10
818.5939136667486764
 20
159.3956542556155114
 30
0.0
 40
0.0337650044807902
 50
156.9559171827405066
 51
196.2050084981848102
  0
ARC
  5
D9E5
  8
0
 10
818.6350601263419549
 20
159.3775309189369125
 30
0.0
 40
0.0787243940757215
 50
19.531136637597001
 51
156.5404642844868874
  0
ARC
  5
D9E6
  8
0
 10
818.6773660879897534
 20
159.3928351756694042
 30
0.0
 40
0.0337373762459863
 50
343.1234145535555058
 51
19.0556801675913192
  0
LINE
  5
D9E7
  8
0
 10
818.7027254863320422
 20
159.3600889695410103
 30
0.0
 11
818.709650473132001
 21
159.3830408389410138
 31
0.0
  0
LINE
  5
D9E8
  8
0
 10
818.5687786025320065
 20
159.3607818234409876
 30
0.0
 11
818.5614901697319965
 21
159.3862312853410117
 31
0.0
  0
ARC
  5
D9E9
  8
0
 10
818.3960948521443015
 20
159.8579902759470883
 30
0.0
 40
0.0725996426393495
 50
202.4069016784507085
 51
337.0003670967366247
  0
ARC
  5
D9EA
  8
0
 10
818.395819671900199
 20
159.8234709853711024
 30
0.0
 40
0.0260981086981234
 50
31.5925942495332599
 51
144.4926578059184124
  0
ARC
  5
D9EB
  8
0
 10
818.4032789668120813
 20
159.8303867658136994
 30
0.0
 40
0.0162428223976449
 50
314.9412406789306829
 51
24.5798761657789413
  0
ARC
  5
D9EC
  8
0
 10
818.3964181040726089
 20
159.8368616704051135
 30
0.0
 40
0.0256739042679807
 50
202.170765419084006
 51
315.5718890823919764
  0
ARC
  5
D9ED
  8
0
 10
818.388139344174192
 20
159.8304500972730011
 30
0.0
 40
0.015839578922429
 50
148.9118737732829061
 51
191.9397704005810965
  0
ARC
  5
D9EE
  8
0
 10
818.3541115377163351
 20
159.8651890498979924
 30
0.0
 40
0.0337650044807902
 50
156.9559171827405066
 51
196.2050084981848102
  0
ARC
  5
D9EF
  8
0
 10
818.3954816337504781
 20
159.8535866414453039
 30
0.0
 40
0.0765745912406229
 50
14.9838696245559397
 51
161.0877312975283928
  0
ARC
  5
D9F0
  8
0
 10
818.4375639589572984
 20
159.8623699699519136
 30
0.0
 40
0.0337373762459863
 50
343.1234145535555058
 51
19.0556801675913192
  0
LINE
  5
D9F1
  8
0
 10
818.4629233572993599
 20
159.8296237638234913
 30
0.0
 11
818.469848344099546
 21
159.8525756332234948
 31
0.0
  0
LINE
  5
D9F2
  8
0
 10
818.3289764734996652
 20
159.8303166177234971
 30
0.0
 11
818.3216880406997689
 21
159.8557660796234927
 31
0.0
  0
ARC
  5
D9F3
  8
0
 10
818.9632778378455669
 20
159.4959604531846082
 30
0.0
 40
0.0725996426393495
 50
202.4069016784507085
 51
337.0003670967366247
  0
ARC
  5
D9F4
  8
0
 10
818.9630026576013506
 20
159.4614411626085939
 30
0.0
 40
0.0260981086981234
 50
31.5925942495332599
 51
144.4926578059184124
  0
ARC
  5
D9F5
  8
0
 10
818.9704619525133467
 20
159.4683569430511909
 30
0.0
 40
0.0162428223976449
 50
314.9412406789306829
 51
24.5798761657789413
  0
ARC
  5
D9F6
  8
0
 10
818.9636010897741016
 20
159.4748318476424913
 30
0.0
 40
0.0256739042679807
 50
202.170765419084006
 51
315.5718890823919764
  0
ARC
  5
D9F7
  8
0
 10
818.9553223298756848
 20
159.4684202745104074
 30
0.0
 40
0.015839578922429
 50
148.9118737732829061
 51
191.9397704005810965
  0
ARC
  5
D9F8
  8
0
 10
818.9212945234176004
 20
159.5031592271353986
 30
0.0
 40
0.0337650044807902
 50
156.9559171827405066
 51
196.2050084981848102
  0
ARC
  5
D9F9
  8
0
 10
818.9626646194517434
 20
159.4915568186827954
 30
0.0
 40
0.0765745912406229
 50
14.9838696245559397
 51
161.0877312975283928
  0
ARC
  5
D9FA
  8
0
 10
819.0047469446585637
 20
159.5003401471892914
 30
0.0
 40
0.0337373762459863
 50
343.1234145535555058
 51
19.0556801675913192
  0
LINE
  5
D9FB
  8
0
 10
819.0301063430008526
 20
159.4675939410608976
 30
0.0
 11
819.0370313298009251
 21
159.4905458104609011
 31
0.0
  0
LINE
  5
D9FC
  8
0
 10
818.8961594592010442
 20
159.4682867949609033
 30
0.0
 11
818.8888710264006932
 21
159.4937362568608989
 31
0.0
  0
ARC
  5
D9FD
  8
0
 10
818.7148175410083013
 20
159.6948179133092083
 30
0.0
 40
0.0725996426393495
 50
202.4069016784507085
 51
337.0003670967366247
  0
ARC
  5
D9FE
  8
0
 10
818.7145423607639714
 20
159.660298622733194
 30
0.0
 40
0.0260981086981234
 50
31.5925942495332599
 51
144.4926578059184124
  0
ARC
  5
D9FF
  8
0
 10
818.7220016556760811
 20
159.6672144031759046
 30
0.0
 40
0.0162428223976449
 50
314.9412406789306829
 51
24.5798761657789413
  0
ARC
  5
DA00
  8
0
 10
818.7151407929366087
 20
159.673689307767205
 30
0.0
 40
0.0256739042679807
 50
202.170765419084006
 51
315.5718890823919764
  0
ARC
  5
DA01
  8
0
 10
818.7068620330381918
 20
159.6672777346350927
 30
0.0
 40
0.015839578922429
 50
148.9118737732829061
 51
191.9397704005810965
  0
ARC
  5
DA02
  8
0
 10
818.6728342265804486
 20
159.7020166872601123
 30
0.0
 40
0.0337650044807902
 50
156.9559171827405066
 51
196.2050084981848102
  0
ARC
  5
DA03
  8
0
 10
818.7142043226144779
 20
159.6904142788073955
 30
0.0
 40
0.0765745912406229
 50
14.9838696245559397
 51
161.0877312975283928
  0
ARC
  5
DA04
  8
0
 10
818.7562866478212982
 20
159.6991976073138915
 30
0.0
 40
0.0337373762459863
 50
343.1234145535555058
 51
19.0556801675913192
  0
LINE
  5
DA05
  8
0
 10
818.7816460461633596
 20
159.6664514011856113
 30
0.0
 11
818.7885710329635458
 21
159.6894032705855864
 31
0.0
  0
LINE
  5
DA06
  8
0
 10
818.6476991623633239
 20
159.6671442550855886
 30
0.0
 11
818.6404107295635413
 21
159.6925937169856127
 31
0.0
  0
ARC
  5
DA07
  8
0
 10
819.1056084381252731
 20
159.776672390889189
 30
0.0
 40
0.0725996426393495
 50
202.4069016784507085
 51
337.0003670967366247
  0
ARC
  5
DA08
  8
0
 10
819.1053332578811705
 20
159.7421531003132031
 30
0.0
 40
0.0260981086981234
 50
31.5925942495332599
 51
144.4926578059184124
  0
ARC
  5
DA09
  8
0
 10
819.1127925527929392
 20
159.7490688807558001
 30
0.0
 40
0.0162428223976449
 50
314.9412406789306829
 51
24.5798761657789413
  0
ARC
  5
DA0A
  8
0
 10
819.1059316900540352
 20
159.7555437853471005
 30
0.0
 40
0.0256739042679807
 50
202.170765419084006
 51
315.5718890823919764
  0
ARC
  5
DA0B
  8
0
 10
819.097652930155391
 20
159.7491322122149882
 30
0.0
 40
0.015839578922429
 50
148.9118737732829061
 51
191.9397704005810965
  0
ARC
  5
DA0C
  8
0
 10
819.0636251236973067
 20
159.7838711648400079
 30
0.0
 40
0.0337650044807902
 50
156.9559171827405066
 51
196.2050084981848102
  0
ARC
  5
DA0D
  8
0
 10
819.1049952197315633
 20
159.7722687563874047
 30
0.0
 40
0.0765745912406229
 50
14.9838696245559397
 51
161.0877312975283928
  0
ARC
  5
DA0E
  8
0
 10
819.1470775449384973
 20
159.7810520848939007
 30
0.0
 40
0.0337373762459863
 50
343.1234145535555058
 51
19.0556801675913192
  0
LINE
  5
DA0F
  8
0
 10
819.1724369432807862
 20
159.7483058787655068
 30
0.0
 11
819.1793619300806313
 21
159.7712577481655103
 31
0.0
  0
LINE
  5
DA10
  8
0
 10
819.0384900594807505
 20
159.7489987326655125
 30
0.0
 11
819.0312016266807404
 21
159.7744481945655082
 31
0.0
  0
ARC
  5
DA11
  8
0
 10
818.8394549163178908
 20
159.9996874653693055
 30
0.0
 40
0.0725996426393495
 50
202.4069016784507085
 51
337.0003670967366247
  0
ARC
  5
DA12
  8
0
 10
818.8391797360740156
 20
159.9651681747932912
 30
0.0
 40
0.0260981086981234
 50
31.5925942495332599
 51
144.4926578059184124
  0
ARC
  5
DA13
  8
0
 10
818.8466390309856706
 20
159.9720839552358882
 30
0.0
 40
0.0162428223976449
 50
314.9412406789306829
 51
24.5798761657789413
  0
ARC
  5
DA14
  8
0
 10
818.839778168246653
 20
159.9785588598273023
 30
0.0
 40
0.0256739042679807
 50
202.170765419084006
 51
315.5718890823919764
  0
ARC
  5
DA15
  8
0
 10
818.8314994083480087
 20
159.9721472866951899
 30
0.0
 40
0.015839578922429
 50
148.9118737732829061
 51
191.9397704005810965
  0
ARC
  5
DA16
  8
0
 10
818.7974716018901518
 20
160.0068862393202096
 30
0.0
 40
0.0337650044807902
 50
156.9559171827405066
 51
196.2050084981848102
  0
ARC
  5
DA17
  8
0
 10
818.8388416979245221
 20
159.9952838308674927
 30
0.0
 40
0.0765745912406229
 50
14.9838696245559397
 51
161.0877312975283928
  0
ARC
  5
DA18
  8
0
 10
818.8809240231311151
 20
160.0040671593739887
 30
0.0
 40
0.0337373762459863
 50
343.1234145535555058
 51
19.0556801675913192
  0
LINE
  5
DA19
  8
0
 10
818.9062834214734039
 20
159.9713209532457086
 30
0.0
 11
818.9132084082733627
 21
159.994272822645712
 31
0.0
  0
LINE
  5
DA1A
  8
0
 10
818.7723365376735956
 20
159.9720138071456859
 30
0.0
 11
818.7650481048733582
 21
159.9974632690457099
 31
0.0
  0
ARC
  5
DA1B
  8
0
 10
819.30536919090639
 20
158.1463567161837034
 30
0.0
 40
0.7576588514563238
 50
89.8205865294290362
 51
118.4510877128400068
  0
ARC
  5
DA1C
  8
0
 10
819.1769764453555354
 20
158.3553225777762918
 30
0.0
 40
0.512936958302623
 50
116.9616143135735058
 51
170.4435034554354047
  0
ARC
  5
DA1D
  8
0
 10
819.1550516018727421
 20
158.3880441303176099
 30
0.0
 40
0.4867265576339976
 50
173.8153794806538031
 51
231.2590880367486079
  0
ARC
  5
DA1E
  8
0
 10
819.2991363442374677
 20
158.5736356684845987
 30
0.0
 40
0.7216629319291032
 50
231.5575621439695055
 51
270.683229598930609
  0
ARC
  5
DA1F
  8
0
 10
819.3215125312564169
 20
158.0464704232423117
 30
0.0
 40
0.8355231460046766
 50
90.8539791599040285
 51
110.917883613891405
  0
ARC
  5
DA20
  8
0
 10
819.2323272915907637
 20
158.2798049185637979
 30
0.0
 40
0.5857252403266957
 50
110.917883613891405
 51
150.532786602928212
  0
ARC
  5
DA21
  8
0
 10
819.0733995033403971
 20
158.3696019187447064
 30
0.0
 40
0.4031833461771989
 50
150.532786602928212
 51
188.7654395716579927
  0
ARC
  5
DA22
  8
0
 10
819.2946235023907775
 20
158.1715526029171031
 30
0.0
 40
0.6621946625273366
 50
88.8648870278398704
 51
128.7919760136946934
  0
ARC
  5
DA23
  8
0
 10
819.173282300070241
 20
158.3225139093418079
 30
0.0
 40
0.4685119234458332
 50
128.7919760136946934
 51
161.9710708889296029
  0
ARC
  5
DA24
  8
0
 10
819.0908178410278424
 20
158.3493542765990014
 30
0.0
 40
0.3817894216388987
 50
161.9710708889296029
 51
201.4767961618262859
  0
ARC
  5
DA25
  8
0
 10
819.2214295159075164
 20
158.4007424901940055
 30
0.0
 40
0.5221466733623658
 50
201.4767961618262859
 51
242.3222814623171075
  0
ARC
  5
DA26
  8
0
 10
819.2961745109945468
 20
158.5432453479214132
 30
0.0
 40
0.6830624238376238
 50
242.3222814623171075
 51
260.1952671466611946
  0
ARC
  5
DA27
  8
0
 10
819.2961745109945468
 20
158.5432453479214132
 30
0.0
 40
0.6830624238376238
 50
265.6217772784087856
 51
270.9703095821843135
  0
ARC
  5
DA28
  8
0
 10
819.3068495719306839
 20
158.1164896852909862
 30
0.0
 40
0.7285898090490222
 50
89.9298447366794278
 51
116.2975446947321956
  0
ARC
  5
DA29
  8
0
 10
819.2260958169767946
 20
158.2799001215227008
 30
0.0
 40
0.5463149078459966
 50
116.2975446947321956
 51
154.0585475687101962
  0
ARC
  5
DA2A
  8
0
 10
819.0625523509191908
 20
158.3594588318104002
 30
0.0
 40
0.3644466762252025
 50
154.0585475687101962
 51
187.3565158505959118
  0
ARC
  5
DA2B
  8
0
 10
819.1603205806790129
 20
158.372081263262686
 30
0.0
 40
0.4630263522551622
 50
187.3565158505959118
 51
224.3296114287709884
  0
ARC
  5
DA2C
  8
0
 10
819.2401686310657851
 20
158.4500823178306916
 30
0.0
 40
0.5746501654147286
 50
224.3296114287709884
 51
243.5458170319745932
  0
ARC
  5
DA2D
  8
0
 10
818.7203859367381256
 20
158.3118202244720862
 30
0.0
 40
0.0101898783629951
 50
209.1332837574879875
 51
275.1971336759655742
  0
ARC
  5
DA2E
  8
0
 10
819.248826939772357
 20
158.8225523124991128
 30
0.0
 40
0.0096327622760716
 50
352.9179026987396242
 51
88.3402396625926229
  0
ARC
  5
DA2F
  8
0
 10
819.3081481896182368
 20
157.6673372672449034
 30
0.0
 40
0.0640689303804212
 50
90.3635314604440083
 51
150.5330150092320878
  0
ARC
  5
DA30
  8
0
 10
819.3087153316653257
 20
157.667016824979612
 30
0.0
 40
0.0647203391208008
 50
150.5330150092327983
 51
209.9527757651050877
  0
ARC
  5
DA31
  8
0
 10
819.3073440645537175
 20
157.6662266297919075
 30
0.0
 40
0.0631376888352547
 50
209.9527757651050877
 51
270.3604993308397866
  0
ARC
  5
DA32
  8
0
 10
819.3064439425196497
 20
157.6811494217650136
 30
0.0
 40
0.0565596348912371
 50
234.2698569454699111
 51
271.3238928362075058
  0
ARC
  5
DA33
  8
0
 10
819.2887680967362485
 20
157.6565781682126044
 30
0.0
 40
0.02629113599751
 50
155.1536726843424958
 51
234.2698569454699111
  0
ARC
  5
DA34
  8
0
 10
819.3070682299878627
 20
157.6454214729996011
 30
0.0
 40
0.0476474966917189
 50
89.1901463697527248
 51
152.2248671839211056
  0
ARC
  5
DA35
  8
0
 10
818.6970004145284747
 20
157.8247821995070126
 30
0.0
 40
0.0601973984973952
 50
123.5888142526634965
 51
180.2259654930061004
  0
ARC
  5
DA36
  8
0
 10
818.6805674610561709
 20
157.8308607772623873
 30
0.0
 40
0.0442173874508096
 50
188.2121849733510999
 51
260.8294195948379866
  0
ARC
  5
DA37
  8
0
 10
818.6943372159059891
 20
157.8932605783354006
 30
0.0
 40
0.1080757666286763
 50
258.8946455054501143
 51
308.4778090024615267
  0
ARC
  5
DA38
  8
0
 10
818.7238441117508501
 20
157.8625329145856995
 30
0.0
 40
0.0657816428756228
 50
305.0088116597100907
 51
353.9857276780672919
  0
ARC
  5
DA39
  8
0
 10
818.7459808231905072
 20
157.8553098888876036
 30
0.0
 40
0.0432841210064932
 50
0.4377239050510872
 51
89.0252777043409935
  0
ARC
  5
DA3A
  8
0
 10
818.7367145337899501
 20
157.7762005415706028
 30
0.0
 40
0.1227952772716887
 50
85.3276466045654161
 51
126.4858572811870943
  0
ARC
  5
DA3B
  8
0
 10
818.6813516925842578
 20
157.8374926677954022
 30
0.0
 40
0.0264683187409004
 50
144.5804520517100116
 51
232.151745954609396
  0
ARC
  5
DA3C
  8
0
 10
818.7029409796260779
 20
157.8652770597738879
 30
0.0
 40
0.0616545341182213
 50
232.151745954609396
 51
303.7903120556766225
  0
ARC
  5
DA3D
  8
0
 10
818.7148190574371256
 20
157.8352007266234978
 30
0.0
 40
0.0308246929881645
 50
316.6404984431665071
 51
39.7280337962258301
  0
ARC
  5
DA3E
  8
0
 10
818.7010778940586988
 20
157.8212335599160099
 30
0.0
 40
0.0503580088154135
 50
41.9579190014870278
 51
108.1992398980458034
  0
ARC
  5
DA3F
  8
0
 10
818.6970816248179972
 20
157.8223548720704059
 30
0.0
 40
0.0481680991302413
 50
104.0965520657263994
 51
140.7476322329671063
  0
ARC
  5
DA40
  8
0
 10
819.0249791252687146
 20
157.7319186510432871
 30
0.0
 40
0.0822516096128875
 50
32.0511409045548916
 51
148.0656947960667935
  0
ARC
  5
DA41
  8
0
 10
819.0491816707567523
 20
157.7535407549102899
 30
0.0
 40
0.0505619427262306
 50
322.3436737701653101
 51
25.826083858511641
  0
ARC
  5
DA42
  8
0
 10
819.0255632878886445
 20
157.776363694068408
 30
0.0
 40
0.0832830109487302
 50
212.3856341880330092
 51
319.8389257649399156
  0
ARC
  5
DA43
  8
0
 10
819.0000049230337709
 20
157.7536502654054971
 30
0.0
 40
0.049837718808672
 50
154.092477048690796
 51
206.0598641890744886
  0
ARC
  5
DA44
  8
0
 10
819.2786335825428523
 20
157.791314920039099
 30
0.0
 40
0.3797330287698492
 50
181.5482393072709044
 51
185.6663134235579946
  0
ARC
  5
DA45
  8
0
 10
818.950543940329112
 20
157.7824471647612086
 30
0.0
 40
0.0515235675843547
 50
151.9903204307962881
 51
181.5482393072701086
  0
ARC
  5
DA46
  8
0
 10
818.995458184464951
 20
157.7585561036432011
 30
0.0
 40
0.1023966658550166
 50
109.2942712088300965
 51
151.9903204307962881
  0
ARC
  5
DA47
  8
0
 10
819.018478956228364
 20
157.6927980218690095
 30
0.0
 40
0.1720679027553141
 50
58.0689436256811433
 51
109.2942712088300965
  0
ARC
  5
DA48
  8
0
 10
819.0618278111453492
 20
157.7623568000367129
 30
0.0
 40
0.0901072607203316
 50
21.7930209568525015
 51
58.0689436256811433
  0
ARC
  5
DA49
  8
0
 10
819.0730954112134441
 20
157.7668619265695895
 30
0.0
 40
0.0779723945746911
 50
342.4668013295914761
 51
21.7930209568553686
  0
ARC
  5
DA4A
  8
0
 10
819.0258077272967512
 20
157.7888940757393073
 30
0.0
 40
0.1298767736254559
 50
195.6666735146023939
 51
339.4820169264918945
  0
ARC
  5
DA4B
  8
0
 10
819.0249897282138818
 20
157.8620094016675068
 30
0.0
 40
0.1072569178434093
 50
230.9141023861436111
 51
309.0765579182692022
  0
ARC
  5
DA4C
  8
0
 10
818.5885650006135847
 20
158.0297332368940033
 30
0.0
 40
0.0822516096128875
 50
32.0511409045548916
 51
148.0656947960667935
  0
ARC
  5
DA4D
  8
0
 10
818.6127675461015087
 20
158.0513553407610061
 30
0.0
 40
0.0505619427262306
 50
322.3436737701653101
 51
25.826083858511641
  0
ARC
  5
DA4E
  8
0
 10
818.5891491632336283
 20
158.0741782799190958
 30
0.0
 40
0.0832830109487302
 50
212.3856341880330092
 51
319.8389257649399156
  0
ARC
  5
DA4F
  8
0
 10
818.5635907983787547
 20
158.0514648512562133
 30
0.0
 40
0.049837718808672
 50
154.092477048690796
 51
206.0598641890744886
  0
ARC
  5
DA50
  8
0
 10
818.8422194578876088
 20
158.0891295058897867
 30
0.0
 40
0.3797330287698492
 50
181.5482393072709044
 51
185.6663134235579946
  0
ARC
  5
DA51
  8
0
 10
818.5141298156737548
 20
158.08026175061201
 30
0.0
 40
0.0515235675843547
 50
151.9903204307962881
 51
181.5482393072701086
  0
ARC
  5
DA52
  8
0
 10
818.5590440598097075
 20
158.0563706894940026
 30
0.0
 40
0.1023966658550166
 50
109.2942712088300965
 51
151.9903204307962881
  0
ARC
  5
DA53
  8
0
 10
818.5820648315733479
 20
157.9906126077196973
 30
0.0
 40
0.1720679027553141
 50
58.0689436256811433
 51
109.2942712088300965
  0
ARC
  5
DA54
  8
0
 10
818.625413686490333
 20
158.0601713858874859
 30
0.0
 40
0.0901072607203316
 50
21.7930209568525015
 51
58.0689436256811433
  0
ARC
  5
DA55
  8
0
 10
818.6366812865584279
 20
158.0646765124203057
 30
0.0
 40
0.0779723945746911
 50
342.4668013295914761
 51
21.7930209568553686
  0
ARC
  5
DA56
  8
0
 10
818.589393602641735
 20
158.0867086615899098
 30
0.0
 40
0.1298767736254559
 50
195.6666735146023939
 51
339.4820169264918945
  0
ARC
  5
DA57
  8
0
 10
818.5885756035585246
 20
158.1598239875181946
 30
0.0
 40
0.1072569178434093
 50
230.9141023861436111
 51
309.0765579182692022
  0
ARC
  5
DA58
  8
0
 10
818.3780933455947206
 20
158.2764658822952981
 30
0.0
 40
0.0601973984973952
 50
96.7194855148718773
 51
153.3566367552166128
  0
ARC
  5
DA59
  8
0
 10
818.3661817577075226
 20
158.2893152068440088
 30
0.0
 40
0.0442173874508096
 50
161.3428562355595091
 51
233.9600908570517959
  0
ARC
  5
DA5A
  8
0
 10
818.4066669669102794
 20
158.3387549596587007
 30
0.0
 40
0.1080757666286763
 50
232.025316767660712
 51
281.6084802646713001
  0
ARC
  5
DA5B
  8
0
 10
818.4191006958994876
 20
158.2980088113091028
 30
0.0
 40
0.0657816428756228
 50
278.1394829219236158
 51
327.1163989402776906
  0
ARC
  5
DA5C
  8
0
 10
818.435583020195736
 20
158.2815607391002004
 30
0.0
 40
0.0432841210064932
 50
333.5683951672594958
 51
62.1559489665459779
  0
ARC
  5
DA5D
  8
0
 10
818.3915630798875327
 20
158.215180035522792
 30
0.0
 40
0.1227952772716887
 50
58.4583178667788488
 51
99.6165285433963845
  0
ARC
  5
DA5E
  8
0
 10
818.3678189377891385
 20
158.2904028436097974
 30
0.0
 40
0.0264683187409004
 50
133.035014568933093
 51
220.6063084718313974
  0
ARC
  5
DA5F
  8
0
 10
818.3945323001934185
 20
158.3133040667568139
 30
0.0
 40
0.0616545341182213
 50
220.6063084718313974
 51
292.2448745729000734
  0
ARC
  5
DA60
  8
0
 10
818.4001504131892943
 20
158.2814589516742103
 30
0.0
 40
0.0308246929881645
 50
305.0950609603896737
 51
28.1825963134482684
  0
ARC
  5
DA61
  8
0
 10
818.3838918261418485
 20
158.2705246174905938
 30
0.0
 40
0.0503580088154135
 50
30.4124815187106101
 51
96.6538024152685722
  0
ARC
  5
DA62
  8
0
 10
818.3802008412543501
 20
158.2724230745880902
 30
0.0
 40
0.0481680991302413
 50
92.5511145829480029
 51
129.202194750188994
  0
ARC
  5
DA63
  8
0
 10
818.4931940464490481
 20
158.4779862816492937
 30
0.0
 40
0.0822516096128875
 50
32.0511409045548916
 51
148.0656947960667935
  0
ARC
  5
DA64
  8
0
 10
818.5173965919369721
 20
158.4996083855162965
 30
0.0
 40
0.0505619427262306
 50
322.3436737701653101
 51
25.826083858511641
  0
ARC
  5
DA65
  8
0
 10
818.493778209068978
 20
158.5224313246743009
 30
0.0
 40
0.0832830109487302
 50
212.3856341880330092
 51
319.8389257649399156
  0
ARC
  5
DA66
  8
0
 10
818.4682198442141043
 20
158.4997178960113899
 30
0.0
 40
0.049837718808672
 50
154.092477048690796
 51
206.0598641890744886
  0
ARC
  5
DA67
  8
0
 10
818.7468485037231858
 20
158.5373825506451055
 30
0.0
 40
0.3797330287698492
 50
181.5482393072709044
 51
185.6663134235579946
  0
ARC
  5
DA68
  8
0
 10
818.4187588615094455
 20
158.5285147953671867
 30
0.0
 40
0.0515235675843547
 50
151.9903204307962881
 51
181.5482393072701086
  0
ARC
  5
DA69
  8
0
 10
818.4636731056451708
 20
158.5046237342492077
 30
0.0
 40
0.1023966658550166
 50
109.2942712088300965
 51
151.9903204307962881
  0
ARC
  5
DA6A
  8
0
 10
818.4866938774089249
 20
158.4388656524749024
 30
0.0
 40
0.1720679027553141
 50
58.0689436256811433
 51
109.2942712088300965
  0
ARC
  5
DA6B
  8
0
 10
818.5300427323256827
 20
158.508424430642691
 30
0.0
 40
0.0901072607203316
 50
21.7930209568525015
 51
58.0689436256811433
  0
ARC
  5
DA6C
  8
0
 10
818.5413103323937776
 20
158.5129295571755961
 30
0.0
 40
0.0779723945746911
 50
342.4668013295914761
 51
21.7930209568553686
  0
ARC
  5
DA6D
  8
0
 10
818.4940226484770847
 20
158.5349617063452001
 30
0.0
 40
0.1298767736254559
 50
195.6666735146023939
 51
339.4820169264918945
  0
ARC
  5
DA6E
  8
0
 10
818.4932046493942153
 20
158.6080770322733997
 30
0.0
 40
0.1072569178434093
 50
230.9141023861436111
 51
309.0765579182692022
  0
ARC
  5
DA6F
  8
0
 10
818.7747898411091683
 20
158.8735584821000941
 30
0.0
 40
0.0822516096128875
 50
32.0511409045548916
 51
148.0656947960667935
  0
ARC
  5
DA70
  8
0
 10
818.7989923865973196
 20
158.8951805859670969
 30
0.0
 40
0.0505619427262306
 50
322.3436737701653101
 51
25.826083858511641
  0
ARC
  5
DA71
  8
0
 10
818.7753740037295529
 20
158.9180035251251866
 30
0.0
 40
0.0832830109487302
 50
212.3856341880330092
 51
319.8389257649399156
  0
ARC
  5
DA72
  8
0
 10
818.7498156388741108
 20
158.8952900964623041
 30
0.0
 40
0.049837718808672
 50
154.092477048690796
 51
206.0598641890744886
  0
ARC
  5
DA73
  8
0
 10
819.0284442983831923
 20
158.9329547510957923
 30
0.0
 40
0.3797330287698492
 50
181.5482393072709044
 51
185.6663134235579946
  0
ARC
  5
DA74
  8
0
 10
818.7649419181750545
 20
158.9174794892037141
 30
0.0
 40
0.1162091116330515
 50
164.3896931665443901
 51
177.4277271650387036
  0
ARC
  5
DA75
  8
0
 10
818.75113033323737
 20
158.9227782270235991
 30
0.0
 40
0.1014905984676923
 50
121.569994500280302
 51
165.1725619332162864
  0
ARC
  5
DA76
  8
0
 10
818.768514080384989
 20
158.8883972448061002
 30
0.0
 40
0.1399206628463394
 50
50.6833430254724107
 51
120.2640916232301009
  0
ARC
  5
DA77
  8
0
 10
818.7811618135632443
 20
158.9015815478161073
 30
0.0
 40
0.1217152863059743
 50
20.2922419757665686
 51
51.3571439059499966
  0
ARC
  5
DA78
  8
0
 10
818.8021619917219596
 20
158.9113070807754866
 30
0.0
 40
0.0986627043594172
 50
344.5429652221279753
 51
19.2242970473956305
  0
ARC
  5
DA79
  8
0
 10
818.7756184431370912
 20
158.9305339067960006
 30
0.0
 40
0.1298767736254559
 50
195.6666735146023939
 51
339.4820169264918945
  0
ARC
  5
DA7A
  8
0
 10
818.7748004440544491
 20
159.0036492327243138
 30
0.0
 40
0.1072569178434093
 50
230.9141023861436111
 51
309.0765579182692022
  0
ARC
  5
DA7B
  8
0
 10
818.4904684009932225
 20
158.7925365697886946
 30
0.0
 40
0.0601973984973952
 50
60.3670373034934968
 51
117.0041885438409963
  0
ARC
  5
DA7C
  8
0
 10
818.4884914204086499
 20
158.8099458378698898
 30
0.0
 40
0.0442173874508096
 50
124.9904080241875022
 51
197.60764264567851
  0
ARC
  5
DA7D
  8
0
 10
818.5504030886235114
 20
158.8257662886040862
 30
0.0
 40
0.1080757666286763
 50
195.6728685562860051
 51
245.2560320533013112
  0
ARC
  5
DA7E
  8
0
 10
818.536264733281655
 20
158.7855798091597137
 30
0.0
 40
0.0657816428756228
 50
241.7870347105481983
 51
290.763950728901591
  0
ARC
  5
DA7F
  8
0
 10
818.539789760972667
 20
158.7625628529455071
 30
0.0
 40
0.0432841210064932
 50
297.2159469558887963
 51
25.8035007551769411
  0
ARC
  5
DA80
  8
0
 10
818.4649895097848002
 20
158.7351936115520061
 30
0.0
 40
0.1227952772716887
 50
22.1058696554011291
 51
63.2640803320210878
  0
ARC
  5
DA81
  8
0
 10
818.4921080776407507
 20
158.8142243412964092
 30
0.0
 40
0.0264683187409004
 50
81.358675102548176
 51
168.9299690054450878
  0
ARC
  5
DA82
  8
0
 10
818.5266395911969539
 20
158.8074682829704898
 30
0.0
 40
0.0616545341182213
 50
168.929969005444292
 51
240.5685351065071131
  0
ARC
  5
DA83
  8
0
 10
818.5051402589800773
 20
158.7833135057518916
 30
0.0
 40
0.0308246929881645
 50
253.4187214940066042
 51
336.5062568470626729
  0
ARC
  5
DA84
  8
0
 10
818.4864800516454579
 20
158.7892882843298139
 30
0.0
 40
0.0503580088154135
 50
338.7361420523232027
 51
44.9774629488818292
  0
ARC
  5
DA85
  8
0
 10
818.4856806388902442
 20
158.7933611761818042
 30
0.0
 40
0.0481680991302413
 50
40.8747751165585029
 51
77.5258552838075445
  0
ARC
  5
DA86
  8
0
 10
818.9782507991697003
 20
159.1367095574969994
 30
0.0
 40
0.0601973984973952
 50
30.704973730165289
 51
87.3421249705109659
  0
ARC
  5
DA87
  8
0
 10
818.9851484415790992
 20
159.1528158791300882
 30
0.0
 40
0.0442173874508096
 50
95.3283444508558659
 51
167.9455790723465043
  0
ARC
  5
DA88
  8
0
 10
819.0467764449413153
 20
159.1359241496701884
 30
0.0
 40
0.1080757666286763
 50
166.0108049829543972
 51
215.5939684799656959
  0
ARC
  5
DA89
  8
0
 10
819.0146031659178334
 20
159.1080005693341946
 30
0.0
 40
0.0657816428756228
 50
212.1249711372167894
 51
261.1018871555759802
  0
ARC
  5
DA8A
  8
0
 10
819.0062755616421555
 20
159.0862552916717902
 30
0.0
 40
0.0432841210064932
 50
267.5538833825523284
 51
356.1414371818456743
  0
ARC
  5
DA8B
  8
0
 10
818.9277325981953481
 20
159.0994899373102101
 30
0.0
 40
0.1227952772716887
 50
352.4438060820701253
 51
33.6020167586893166
  0
ARC
  5
DA8C
  8
0
 10
818.9904085302181329
 20
159.1547439010734877
 30
0.0
 40
0.0264683187409004
 50
51.6966115292169022
 51
139.267905432112002
  0
ARC
  5
DA8D
  8
0
 10
819.0170715513653477
 20
159.1317840871396925
 30
0.0
 40
0.0616545341182213
 50
139.2679054321102967
 51
210.9064715331805928
  0
ARC
  5
DA8E
  8
0
 10
818.9864357061908322
 20
159.1214342301989859
 30
0.0
 40
0.0308246929881645
 50
223.7566579206726942
 51
306.8441932737317188
  0
ARC
  5
DA8F
  8
0
 10
818.9731775629787762
 20
159.1358606973824124
 30
0.0
 40
0.0503580088154135
 50
309.0740784789915097
 51
15.3153993755524809
  0
ARC
  5
DA90
  8
0
 10
818.9744985124416417
 20
159.139795491062813
 30
0.0
 40
0.0481680991302413
 50
11.2127115432281794
 51
47.8637917104720927
  0
ARC
  5
DA91
  8
0
 10
819.220607741503045
 20
157.9358224777606949
 30
0.0
 40
0.0772809869756428
 50
197.9958192052419861
 51
338.7444733557022118
  0
ARC
  5
DA92
  8
0
 10
819.1281185683645845
 20
157.9374537030593046
 30
0.0
 40
0.16716310091002
 50
349.7840815377105059
 51
359.1954498817481181
  0
ARC
  5
DA93
  8
0
 10
819.2201214963390612
 20
157.9126879975586064
 30
0.0
 40
0.0784165949062377
 50
16.6120173328816882
 51
163.5994589566911088
  0
ARC
  5
DA94
  8
0
 10
819.388523168574693
 20
157.9468304388759918
 30
0.0
 40
0.2439230250639864
 50
182.820199635627489
 51
188.222131888227608
  0
ARC
  5
DA95
  8
0
 10
819.2202614828563583
 20
157.9235681543983958
 30
0.0
 40
0.0431846197232179
 50
211.0977713342902859
 51
328.3045391149578904
  0
ARC
  5
DA96
  8
0
 10
819.2323902712070094
 20
157.9123806942222927
 30
0.0
 40
0.027169664082258
 50
334.9545576921991028
 51
48.5483645160690216
  0
ARC
  5
DA97
  8
0
 10
819.2207616346483974
 20
157.9002430851332122
 30
0.0
 40
0.0439702669563726
 50
47.6610925867799011
 51
148.5028435467910128
  0
ARC
  5
DA98
  8
0
 10
819.2070560237350492
 20
157.9122539423115086
 30
0.0
 40
0.0261906225362866
 50
155.257890481954405
 51
204.8118904357824022
  0
ARC
  5
DA99
  8
0
 10
819.2206628613159864
 20
157.9749759358022914
 30
0.0
 40
0.048298112693925
 50
236.0697395047853036
 51
304.0817144200032089
  0
ARC
  5
DA9A
  8
0
 10
819.0373920331038562
 20
158.0138618815888094
 30
0.0
 40
0.0772809869756428
 50
197.9958192052419861
 51
338.7444733557022118
  0
ARC
  5
DA9B
  8
0
 10
818.9449028599650546
 20
158.0154931068873907
 30
0.0
 40
0.16716310091002
 50
349.7840815377105059
 51
359.1954498817481181
  0
ARC
  5
DA9C
  8
0
 10
819.0369057879398724
 20
157.9907274013866925
 30
0.0
 40
0.0784165949062377
 50
16.6120173328816882
 51
163.5994589566911088
  0
ARC
  5
DA9D
  8
0
 10
819.2053074601752769
 20
158.0248698427041916
 30
0.0
 40
0.2439230250639864
 50
182.820199635627489
 51
188.222131888227608
  0
ARC
  5
DA9E
  8
0
 10
819.0370457744571695
 20
158.0016075582265103
 30
0.0
 40
0.0431846197232179
 50
211.0977713342902859
 51
328.3045391149578904
  0
ARC
  5
DA9F
  8
0
 10
819.0491745628075932
 20
157.9904200980504072
 30
0.0
 40
0.027169664082258
 50
334.9545576921991028
 51
48.5483645160690216
  0
ARC
  5
DAA0
  8
0
 10
819.0375459262489812
 20
157.9782824889612982
 30
0.0
 40
0.0439702669563726
 50
47.6610925867799011
 51
148.5028435467910128
  0
ARC
  5
DAA1
  8
0
 10
819.023840315335633
 20
157.9902933461395946
 30
0.0
 40
0.0261906225362866
 50
155.257890481954405
 51
204.8118904357824022
  0
ARC
  5
DAA2
  8
0
 10
819.037447152916684
 20
158.0530153396304058
 30
0.0
 40
0.048298112693925
 50
236.0697395047853036
 51
304.0817144200032089
  0
ARC
  5
DAA3
  8
0
 10
819.2753235308020976
 20
157.8700015364507863
 30
0.0
 40
2.9484918735297319
 50
64.7124755223486545
 51
89.3700301703147915
  0
ARC
  5
DAA4
  8
0
 10
819.5032105850052631
 20
158.4368150987340869
 30
0.0
 40
2.3389265864739301
 50
38.1223442096635523
 51
63.828829579477258
  0
ARC
  5
DAA5
  8
0
 10
820.0347777412861205
 20
158.8539518441027951
 30
0.0
 40
1.6632293865587831
 50
7.4696934542874311
 51
38.1223442096635523
  0
ARC
  5
DAA6
  8
0
 10
819.8245287251086211
 20
158.7640816512574133
 30
0.0
 40
1.884390296877297
 50
336.4561756613272223
 51
9.3483218901309471
  0
ARC
  5
DAA7
  8
0
 10
819.8061596487372071
 20
158.7727695647961923
 30
0.0
 40
1.904700729741432
 50
311.3501878351531218
 51
336.4373101513915003
  0
ARC
  5
DAA8
  8
0
 10
819.3513879084382552
 20
159.3482769389636076
 30
0.0
 40
2.6374609199534329
 50
270.7977819288017258
 51
310.5067564315228879
  0
ARC
  5
DAA9
  8
0
 10
819.3109900182204228
 20
157.664458721735798
 30
0.0
 40
2.8239420018039731
 50
73.3236864736667826
 51
90.0659063612134503
  0
ARC
  5
DAAA
  8
0
 10
819.4012438185891369
 20
157.9657427733785084
 30
0.0
 40
2.50942995393416
 50
52.353067343994681
 51
73.3236864736667826
  0
ARC
  5
DAAB
  8
0
 10
819.8043059763286919
 20
158.4882437283696959
 30
0.0
 40
1.8495312109680639
 50
13.2484534326417407
 51
52.353067343994681
  0
ARC
  5
DAAC
  8
0
 10
820.1107952855065832
 20
158.5604036492773901
 30
0.0
 40
1.5346617922787149
 50
329.1711907005901026
 51
13.2484534326417407
  0
ARC
  5
DAAD
  8
0
 10
819.3109368531696646
 20
157.6924490608334963
 30
0.0
 40
2.6764246188904899
 50
73.0113126419103367
 51
90.0684008097025384
  0
ARC
  5
DAAE
  8
0
 10
819.3967106206713424
 20
157.9732006594782945
 30
0.0
 40
2.3828627015152208
 50
54.2147545864789819
 51
73.0113126419103367
  0
ARC
  5
DAAF
  8
0
 10
819.7453396237291372
 20
158.4568491602396989
 30
0.0
 40
1.786659670608862
 50
20.9909607270697514
 51
54.2147545864789819
  0
ARC
  5
DAB0
  8
0
 10
820.0611614957859956
 20
158.5780246543093028
 30
0.0
 40
1.4483891350425231
 50
335.6000458093308794
 51
20.9909607270697514
  0
ARC
  5
DAB1
  8
0
 10
819.7463806152737789
 20
158.7208152910606884
 30
0.0
 40
1.7940423842386599
 50
299.479397956903199
 51
335.6000458093308794
  0
ARC
  5
DAB2
  8
0
 10
819.2550820618525904
 20
159.5899115512839046
 30
0.0
 40
2.79239231193311
 50
273.1528857459898063
 51
299.479397956903199
  0
ARC
  5
DAB3
  8
0
 10
819.4100362466467686
 20
156.7798494042179129
 30
0.0
 40
0.0219394969735549
 50
93.5835258235577925
 51
177.9698716801576097
  0
ARC
  5
DAB4
  8
0
 10
819.3094354364718583
 20
157.6822054256869023
 30
0.0
 40
2.664426627794882
 50
72.5678003835625276
 51
90.0364223705735469
  0
ARC
  5
DAB5
  8
0
 10
819.4058072921997109
 20
157.9891238313848874
 30
0.0
 40
2.3427335406254701
 50
53.4722304791363001
 51
72.5678003835625276
  0
ARC
  5
DAB6
  8
0
 10
819.7492244675447637
 20
158.4527553882518021
 30
0.0
 40
1.765767703816379
 50
11.2934685029997794
 51
53.4722304791363001
  0
ARC
  5
DAB7
  8
0
 10
820.196795052574771
 20
158.5421357589227114
 30
0.0
 40
1.3093596854321929
 50
337.0562288518128184
 51
11.2934685029997794
  0
LINE
  5
DAB8
  8
0
 10
819.388110520275859
 20
156.3549291212403887
 30
0.0
 11
819.388110520275859
 21
157.023516206966093
 31
0.0
  0
ARC
  5
DAB9
  8
0
 10
819.3030401714210029
 20
157.0167039281093082
 30
0.0
 40
0.0853426704384647
 50
4.5783722316303974
 51
17.2213751880804402
  0
ARC
  5
DABA
  8
0
 10
819.339387972700365
 20
157.0279703133961107
 30
0.0
 40
0.047288838893044
 50
17.221375188079179
 51
54.2618300798084192
  0
ARC
  5
DABB
  8
0
 10
819.3504259233352514
 20
157.0433096725907092
 30
0.0
 40
0.0283908947001462
 50
54.2618300798084192
 51
91.3114835654413639
  0
ARC
  5
DABC
  8
0
 10
819.3080605763235553
 20
157.9848068058151114
 30
0.0
 40
1.330602442264295
 50
76.6091344096464724
 51
90.0137314070167776
  0
ARC
  5
DABD
  8
0
 10
819.3404272259342633
 20
158.120763922626395
 30
0.0
 40
1.1908457335928451
 50
50.7112279202758884
 51
76.6091344096464724
  0
ARC
  5
DABE
  8
0
 10
819.5760925880649665
 20
158.4088058765725009
 30
0.0
 40
0.8186813476807226
 50
5.6070162467980769
 51
50.7112279202758884
  0
ARC
  5
DABF
  8
0
 10
819.5834426197138782
 20
158.4577731530141875
 30
0.0
 40
0.8080100153568121
 50
303.5880438886978823
 51
2.2002883264514361
  0
ARC
  5
DAC0
  8
0
 10
819.319184374710062
 20
158.8063019033239982
 30
0.0
 40
1.2448395279208491
 50
269.4733241019462753
 51
304.8458013165034117
  0
ARC
  5
DAC1
  8
0
 10
819.5446582104312938
 20
156.9987378587215119
 30
0.0
 40
0.0725996426393495
 50
202.9996329032634037
 51
337.5930983215491779
  0
ARC
  5
DAC2
  8
0
 10
819.544933390675169
 20
156.9642185681454976
 30
0.0
 40
0.0260981086981234
 50
35.5073421940816516
 51
148.4074057504666939
  0
ARC
  5
DAC3
  8
0
 10
819.537474095763514
 20
156.9711343485880946
 30
0.0
 40
0.0162428223976449
 50
155.4201238342209876
 51
225.0587593210692035
  0
ARC
  5
DAC4
  8
0
 10
819.544334958502759
 20
156.977609253179395
 30
0.0
 40
0.0256739042679807
 50
224.4281109176079951
 51
337.8292345809160224
  0
ARC
  5
DAC5
  8
0
 10
819.5526137184014033
 20
156.9711976800473963
 30
0.0
 40
0.015839578922429
 50
348.0602295994187898
 51
31.088126226717069
  0
ARC
  5
DAC6
  8
0
 10
819.5866415248591466
 20
157.0059366326723875
 30
0.0
 40
0.0337650044807902
 50
343.7949915018152183
 51
23.0440828172594614
  0
ARC
  5
DAC7
  8
0
 10
819.5462796639938006
 20
156.9649354860698907
 30
0.0
 40
0.0896783762910285
 50
37.1988990159774673
 51
146.7295000619390919
  0
ARC
  5
DAC8
  8
0
 10
819.5031891036180696
 20
157.0031175527261951
 30
0.0
 40
0.0337373762459863
 50
160.944319832408695
 51
196.8765854464444942
  0
LINE
  5
DAC9
  8
0
 10
819.4778297052760081
 20
156.9703713465978012
 30
0.0
 11
819.4709047184758219
 21
156.9933232159978047
 31
0.0
  0
LINE
  5
DACA
  8
0
 10
819.6117765890760438
 20
156.9710642004978922
 30
0.0
 11
819.6190650218758265
 21
156.9965136623978879
 31
0.0
  0
ARC
  5
DACB
  8
0
 10
819.7099828931285401
 20
157.2146673306359048
 30
0.0
 40
0.0725996426393495
 50
202.9996329032634037
 51
337.5930983215491779
  0
ARC
  5
DACC
  8
0
 10
819.710258073372529
 20
157.1801480400598905
 30
0.0
 40
0.0260981086981234
 50
35.5073421940816516
 51
148.4074057504666939
  0
ARC
  5
DACD
  8
0
 10
819.7027987784607603
 20
157.1870638205026012
 30
0.0
 40
0.0162428223976449
 50
155.4201238342209876
 51
225.0587593210692035
  0
ARC
  5
DACE
  8
0
 10
819.7096596412000054
 20
157.1935387250939016
 30
0.0
 40
0.0256739042679807
 50
224.4281109176079951
 51
337.8292345809160224
  0
ARC
  5
DACF
  8
0
 10
819.7179384010986496
 20
157.1871271519619029
 30
0.0
 40
0.015839578922429
 50
348.0602295994187898
 51
31.088126226717069
  0
ARC
  5
DAD0
  8
0
 10
819.7519662075562792
 20
157.2218661045868089
 30
0.0
 40
0.0337650044807902
 50
343.7949915018152183
 51
23.0440828172594614
  0
ARC
  5
DAD1
  8
0
 10
819.7116043466910469
 20
157.1808649579843973
 30
0.0
 40
0.0896783762910285
 50
37.1988990159774673
 51
146.7295000619390919
  0
ARC
  5
DAD2
  8
0
 10
819.6685137863154296
 20
157.2190470246407017
 30
0.0
 40
0.0337373762459863
 50
160.944319832408695
 51
196.8765854464444942
  0
LINE
  5
DAD3
  8
0
 10
819.6431543879731407
 20
157.1863008185123078
 30
0.0
 11
819.6362294011730683
 21
157.2092526879123113
 31
0.0
  0
LINE
  5
DAD4
  8
0
 10
819.7771012717731764
 20
157.1869936724123988
 30
0.0
 11
819.7843897045729591
 21
157.2124431343123092
 31
0.0
  0
ARC
  5
DAD5
  8
0
 10
819.654498271324087
 20
157.4033904144538099
 30
0.0
 40
0.0725996426393495
 50
202.9996329032634037
 51
337.5930983215491779
  0
ARC
  5
DAD6
  8
0
 10
819.6547734515681896
 20
157.3688711238777955
 30
0.0
 40
0.0260981086981234
 50
35.5073421940816516
 51
148.4074057504666939
  0
ARC
  5
DAD7
  8
0
 10
819.6473141566565346
 20
157.3757869043205062
 30
0.0
 40
0.0162428223976449
 50
155.4201238342209876
 51
225.0587593210692035
  0
ARC
  5
DAD8
  8
0
 10
819.6541750193954385
 20
157.3822618089116929
 30
0.0
 40
0.0256739042679807
 50
224.4281109176079951
 51
337.8292345809160224
  0
ARC
  5
DAD9
  8
0
 10
819.6624537792938554
 20
157.3758502357796942
 30
0.0
 40
0.015839578922429
 50
348.0602295994187898
 51
31.088126226717069
  0
ARC
  5
DADA
  8
0
 10
819.6964815857520534
 20
157.4105891884047139
 30
0.0
 40
0.0337650044807902
 50
343.7949915018152183
 51
23.0440828172594614
  0
ARC
  5
DADB
  8
0
 10
819.6561197248864801
 20
157.3695880418021886
 30
0.0
 40
0.0896783762910285
 50
37.1988990159774673
 51
146.7295000619390919
  0
ARC
  5
DADC
  8
0
 10
819.6130291645108628
 20
157.4077701084586067
 30
0.0
 40
0.0337373762459863
 50
160.944319832408695
 51
196.8765854464444942
  0
LINE
  5
DADD
  8
0
 10
819.5876697661685739
 20
157.3750239023302129
 30
0.0
 11
819.5807447793686151
 21
157.3979757717301879
 31
0.0
  0
LINE
  5
DADE
  8
0
 10
819.7216166499687233
 20
157.3757167562301902
 30
0.0
 11
819.728905082768847
 21
157.4011662181301858
 31
0.0
  0
ARC
  5
DADF
  8
0
 10
820.0045152600517895
 20
157.0937594511499924
 30
0.0
 40
0.0725996426393495
 50
202.9996329032634037
 51
337.5930983215491779
  0
ARC
  5
DAE0
  8
0
 10
820.0047904402956647
 20
157.0592401605740065
 30
0.0
 40
0.0260981086981234
 50
35.5073421940816516
 51
148.4074057504666939
  0
ARC
  5
DAE1
  8
0
 10
819.9973311453840097
 20
157.0661559410166888
 30
0.0
 40
0.0162428223976449
 50
155.4201238342209876
 51
225.0587593210692035
  0
ARC
  5
DAE2
  8
0
 10
820.0041920081232547
 20
157.0726308456079892
 30
0.0
 40
0.0256739042679807
 50
224.4281109176079951
 51
337.8292345809160224
  0
ARC
  5
DAE3
  8
0
 10
820.0124707680218989
 20
157.0662192724759052
 30
0.0
 40
0.015839578922429
 50
348.0602295994187898
 51
31.088126226717069
  0
ARC
  5
DAE4
  8
0
 10
820.0464985744796422
 20
157.1009582251008965
 30
0.0
 40
0.0337650044807902
 50
343.7949915018152183
 51
23.0440828172594614
  0
ARC
  5
DAE5
  8
0
 10
820.0061367136142962
 20
157.0599570784983996
 30
0.0
 40
0.0896783762910285
 50
37.1988990159774673
 51
146.7295000619390919
  0
ARC
  5
DAE6
  8
0
 10
819.9630461532385652
 20
157.0981391451547893
 30
0.0
 40
0.0337373762459863
 50
160.944319832408695
 51
196.8765854464444942
  0
LINE
  5
DAE7
  8
0
 10
819.9376867548966175
 20
157.0653929390263954
 30
0.0
 11
819.930761768096545
 21
157.0883448084263989
 31
0.0
  0
LINE
  5
DAE8
  8
0
 10
820.0716336386966532
 20
157.0660857929264012
 30
0.0
 11
820.0789220714963221
 21
157.0915352548263968
 31
0.0
  0
ARC
  5
DAE9
  8
0
 10
820.0860529677642035
 20
157.334480514444806
 30
0.0
 40
0.0725996426393495
 50
202.9996329032634037
 51
337.5930983215491779
  0
ARC
  5
DAEA
  8
0
 10
820.0863281480080786
 20
157.2999612238689053
 30
0.0
 40
0.0260981086981234
 50
35.5073421940816516
 51
148.4074057504666939
  0
ARC
  5
DAEB
  8
0
 10
820.0788688530964237
 20
157.3068770043115023
 30
0.0
 40
0.0162428223976449
 50
155.4201238342209876
 51
225.0587593210692035
  0
ARC
  5
DAEC
  8
0
 10
820.0857297158356687
 20
157.3133519089028027
 30
0.0
 40
0.0256739042679807
 50
224.4281109176079951
 51
337.8292345809160224
  0
ARC
  5
DAED
  8
0
 10
820.0940084757343129
 20
157.3069403357706904
 30
0.0
 40
0.015839578922429
 50
348.0602295994187898
 51
31.088126226717069
  0
ARC
  5
DAEE
  8
0
 10
820.1280362821920562
 20
157.34167928839571
 30
0.0
 40
0.0337650044807902
 50
343.7949915018152183
 51
23.0440828172594614
  0
ARC
  5
DAEF
  8
0
 10
820.0876744213267102
 20
157.3006781417932132
 30
0.0
 40
0.0896783762910285
 50
37.1988990159774673
 51
146.7295000619390919
  0
ARC
  5
DAF0
  8
0
 10
820.0445838609509792
 20
157.3388602084496029
 30
0.0
 40
0.0337373762459863
 50
160.944319832408695
 51
196.8765854464444942
  0
LINE
  5
DAF1
  8
0
 10
820.0192244626091451
 20
157.306114002321209
 30
0.0
 11
820.0122994758087316
 21
157.3290658717212125
 31
0.0
  0
LINE
  5
DAF2
  8
0
 10
820.1531713464089535
 20
157.3068068562211863
 30
0.0
 11
820.1604597792087361
 21
157.3322563181212104
 31
0.0
  0
ARC
  5
DAF3
  8
0
 10
819.978016328732906
 20
157.5126256843770136
 30
0.0
 40
0.0725996426393495
 50
202.9996329032634037
 51
337.5930983215491779
  0
ARC
  5
DAF4
  8
0
 10
819.9782915089771222
 20
157.4781063938009993
 30
0.0
 40
0.0260981086981234
 50
35.5073421940816516
 51
148.4074057504666939
  0
ARC
  5
DAF5
  8
0
 10
819.9708322140651262
 20
157.48502217424371
 30
0.0
 40
0.0162428223976449
 50
155.4201238342209876
 51
225.0587593210692035
  0
ARC
  5
DAF6
  8
0
 10
819.9776930768041439
 20
157.4914970788350104
 30
0.0
 40
0.0256739042679807
 50
224.4281109176079951
 51
337.8292345809160224
  0
ARC
  5
DAF7
  8
0
 10
819.9859718367027881
 20
157.485085505702898
 30
0.0
 40
0.015839578922429
 50
348.0602295994187898
 51
31.088126226717069
  0
ARC
  5
DAF8
  8
0
 10
820.0199996431606451
 20
157.5198244583278893
 30
0.0
 40
0.0337650044807902
 50
343.7949915018152183
 51
23.0440828172594614
  0
ARC
  5
DAF9
  8
0
 10
819.9796377822951854
 20
157.4788233117253924
 30
0.0
 40
0.0896783762910285
 50
37.1988990159774673
 51
146.7295000619390919
  0
ARC
  5
DAFA
  8
0
 10
819.9365472219196818
 20
157.5170053783818105
 30
0.0
 40
0.0337373762459863
 50
160.944319832408695
 51
196.8765854464444942
  0
LINE
  5
DAFB
  8
0
 10
819.9111878235775066
 20
157.4842591722533882
 30
0.0
 11
819.9042628367775478
 21
157.5072110416533917
 31
0.0
  0
LINE
  5
DAFC
  8
0
 10
820.0451347073775423
 20
157.4849520261533939
 30
0.0
 11
820.052423140177666
 21
157.5104014880533896
 31
0.0
  0
ARC
  5
DAFD
  8
0
 10
820.4140561165456802
 20
157.5276070204234884
 30
0.0
 40
0.0725996426393495
 50
202.9996329032634037
 51
337.5930983215491779
  0
ARC
  5
DAFE
  8
0
 10
820.4143312967896691
 20
157.4930877298475025
 30
0.0
 40
0.0260981086981234
 50
35.5073421940816516
 51
148.4074057504666939
  0
ARC
  5
DAFF
  8
0
 10
820.4068720018780141
 20
157.5000035102902132
 30
0.0
 40
0.0162428223976449
 50
155.4201238342209876
 51
225.0587593210692035
  0
ARC
  5
DB00
  8
0
 10
820.4137328646173728
 20
157.5064784148815136
 30
0.0
 40
0.0256739042679807
 50
224.4281109176079951
 51
337.8292345809160224
  0
ARC
  5
DB01
  8
0
 10
820.4220116245157897
 20
157.5000668417494012
 30
0.0
 40
0.015839578922429
 50
348.0602295994187898
 51
31.088126226717069
  0
ARC
  5
DB02
  8
0
 10
820.4560394309735329
 20
157.5348057943743925
 30
0.0
 40
0.0337650044807902
 50
343.7949915018152183
 51
23.0440828172594614
  0
ARC
  5
DB03
  8
0
 10
820.4156775701084143
 20
157.4938046477718956
 30
0.0
 40
0.0896783762910285
 50
37.1988990159774673
 51
146.7295000619390919
  0
ARC
  5
DB04
  8
0
 10
820.3725870097325696
 20
157.5319867144283137
 30
0.0
 40
0.0337373762459863
 50
160.944319832408695
 51
196.8765854464444942
  0
LINE
  5
DB05
  8
0
 10
820.3472276113903945
 20
157.4992405082998914
 30
0.0
 11
820.3403026245904357
 21
157.5221923776998949
 31
0.0
  0
LINE
  5
DB06
  8
0
 10
820.4811744951904302
 20
157.4999333621998971
 30
0.0
 11
820.4884629279902128
 21
157.5253828240998928
 31
0.0
  0
ARC
  5
DB07
  8
0
 10
820.4173071922975851
 20
157.2806047218759886
 30
0.0
 40
0.0725996426393495
 50
202.9996329032634037
 51
337.5930983215491779
  0
ARC
  5
DB08
  8
0
 10
820.4175823725416876
 20
157.2460854313000027
 30
0.0
 40
0.0260981086981234
 50
35.5073421940816516
 51
148.4074057504666939
  0
ARC
  5
DB09
  8
0
 10
820.410123077629919
 20
157.2530012117427134
 30
0.0
 40
0.0162428223976449
 50
155.4201238342209876
 51
225.0587593210692035
  0
ARC
  5
DB0A
  8
0
 10
820.4169839403692777
 20
157.2594761163340138
 30
0.0
 40
0.0256739042679807
 50
224.4281109176079951
 51
337.8292345809160224
  0
ARC
  5
DB0B
  8
0
 10
820.4252627002676945
 20
157.2530645432019014
 30
0.0
 40
0.015839578922429
 50
348.0602295994187898
 51
31.088126226717069
  0
ARC
  5
DB0C
  8
0
 10
820.4592905067254378
 20
157.2878034958268927
 30
0.0
 40
0.0337650044807902
 50
343.7949915018152183
 51
23.0440828172594614
  0
ARC
  5
DB0D
  8
0
 10
820.4189286458603192
 20
157.2468023492243958
 30
0.0
 40
0.0896783762910285
 50
37.1988990159774673
 51
146.7295000619390919
  0
ARC
  5
DB0E
  8
0
 10
820.3758380854845882
 20
157.2849844158808139
 30
0.0
 40
0.0337373762459863
 50
160.944319832408695
 51
196.8765854464444942
  0
LINE
  5
DB0F
  8
0
 10
820.3504786871425267
 20
157.2522382097523916
 30
0.0
 11
820.3435537003423406
 21
157.2751900791523951
 31
0.0
  0
LINE
  5
DB10
  8
0
 10
820.4844255709425624
 20
157.2529310636523974
 30
0.0
 11
820.4917140037421177
 21
157.278380525552393
 31
0.0
  0
ARC
  5
DB11
  8
0
 10
820.2549262697342556
 20
157.6841020914235116
 30
0.0
 40
0.0725996426393495
 50
202.9996329032634037
 51
337.5930983215491779
  0
ARC
  5
DB12
  8
0
 10
820.2552014499782445
 20
157.6495828008474973
 30
0.0
 40
0.0260981086981234
 50
35.5073421940816516
 51
148.4074057504666939
  0
ARC
  5
DB13
  8
0
 10
820.2477421550663621
 20
157.6564985812900943
 30
0.0
 40
0.0162428223976449
 50
155.4201238342209876
 51
225.0587593210692035
  0
ARC
  5
DB14
  8
0
 10
820.2546030178054934
 20
157.6629734858813947
 30
0.0
 40
0.0256739042679807
 50
224.4281109176079951
 51
337.8292345809160224
  0
ARC
  5
DB15
  8
0
 10
820.2628817777042514
 20
157.656561912749396
 30
0.0
 40
0.015839578922429
 50
348.0602295994187898
 51
31.088126226717069
  0
ARC
  5
DB16
  8
0
 10
820.2969095841619946
 20
157.6913008653743873
 30
0.0
 40
0.0337650044807902
 50
343.7949915018152183
 51
23.0440828172594614
  0
ARC
  5
DB17
  8
0
 10
820.256547723296876
 20
157.6502997187718904
 30
0.0
 40
0.0896783762910285
 50
37.1988990159774673
 51
146.7295000619390919
  0
ARC
  5
DB18
  8
0
 10
820.213457162921145
 20
157.6884817854281948
 30
0.0
 40
0.0337373762459863
 50
160.944319832408695
 51
196.8765854464444942
  0
LINE
  5
DB19
  8
0
 10
820.1880977645788562
 20
157.655735579299801
 30
0.0
 11
820.1811727777788974
 21
157.6786874486998045
 31
0.0
  0
LINE
  5
DB1A
  8
0
 10
820.3220446483787782
 20
157.656428433199892
 30
0.0
 11
820.3293330811786745
 21
157.6818778950998876
 31
0.0
  0
ARC
  5
DB1B
  8
0
 10
820.4677056058311564
 20
157.9082848673660067
 30
0.0
 40
0.0725996426393495
 50
202.9996329032634037
 51
337.5930983215491779
  0
ARC
  5
DB1C
  8
0
 10
820.4679807860751453
 20
157.8737655767899923
 30
0.0
 40
0.0260981086981234
 50
35.5073421940816516
 51
148.4074057504666939
  0
ARC
  5
DB1D
  8
0
 10
820.4605214911633766
 20
157.8806813572325893
 30
0.0
 40
0.0162428223976449
 50
155.4201238342209876
 51
225.0587593210692035
  0
ARC
  5
DB1E
  8
0
 10
820.4673823539025079
 20
157.8871562618238897
 30
0.0
 40
0.0256739042679807
 50
224.4281109176079951
 51
337.8292345809160224
  0
ARC
  5
DB1F
  8
0
 10
820.4756611138011522
 20
157.880744688691891
 30
0.0
 40
0.015839578922429
 50
348.0602295994187898
 51
31.088126226717069
  0
ARC
  5
DB20
  8
0
 10
820.5096889202588955
 20
157.9154836413169107
 30
0.0
 40
0.0337650044807902
 50
343.7949915018152183
 51
23.0440828172594614
  0
ARC
  5
DB21
  8
0
 10
820.4693270593935495
 20
157.8744824947144139
 30
0.0
 40
0.0896783762910285
 50
37.1988990159774673
 51
146.7295000619390919
  0
ARC
  5
DB22
  8
0
 10
820.4262364990180458
 20
157.9126645613708035
 30
0.0
 40
0.0337373762459863
 50
160.944319832408695
 51
196.8765854464444942
  0
LINE
  5
DB23
  8
0
 10
820.4008771006755296
 20
157.8799183552424097
 30
0.0
 11
820.3939521138757982
 21
157.9028702246424132
 31
0.0
  0
LINE
  5
DB24
  8
0
 10
820.5348239844755653
 20
157.880611209142387
 30
0.0
 11
820.5421124172755754
 21
157.9060606710424111
 31
0.0
  0
ARC
  5
DB25
  8
0
 10
820.6714470996038244
 20
157.7805250038273073
 30
0.0
 40
0.0725996426393495
 50
202.9996329032634037
 51
337.5930983215491779
  0
ARC
  5
DB26
  8
0
 10
820.6717222798476996
 20
157.7460057132512929
 30
0.0
 40
0.0260981086981234
 50
35.5073421940816516
 51
148.4074057504666939
  0
ARC
  5
DB27
  8
0
 10
820.6642629849360446
 20
157.7529214936938899
 30
0.0
 40
0.0162428223976449
 50
155.4201238342209876
 51
225.0587593210692035
  0
ARC
  5
DB28
  8
0
 10
820.6711238476749486
 20
157.759396398285304
 30
0.0
 40
0.0256739042679807
 50
224.4281109176079951
 51
337.8292345809160224
  0
ARC
  5
DB29
  8
0
 10
820.6794026075737065
 20
157.7529848251531917
 30
0.0
 40
0.015839578922429
 50
348.0602295994187898
 51
31.088126226717069
  0
ARC
  5
DB2A
  8
0
 10
820.7134304140315635
 20
157.7877237777782113
 30
0.0
 40
0.0337650044807902
 50
343.7949915018152183
 51
23.0440828172594614
  0
ARC
  5
DB2B
  8
0
 10
820.6730685531661038
 20
157.746722631175686
 30
0.0
 40
0.0896783762910285
 50
37.1988990159774673
 51
146.7295000619390919
  0
ARC
  5
DB2C
  8
0
 10
820.6299779927906002
 20
157.7849046978321041
 30
0.0
 40
0.0337373762459863
 50
160.944319832408695
 51
196.8765854464444942
  0
LINE
  5
DB2D
  8
0
 10
820.604618594448084
 20
157.7521584917037103
 30
0.0
 11
820.5976936076484662
 21
157.7751103611037138
 31
0.0
  0
LINE
  5
DB2E
  8
0
 10
820.7385654782482334
 20
157.7528513456036876
 30
0.0
 11
820.7458539110482434
 21
157.7783008075037117
 31
0.0
  0
ARC
  5
DB2F
  8
0
 10
820.7655065708879647
 20
157.5417101737336907
 30
0.0
 40
0.0725996426393495
 50
202.9996329032634037
 51
337.5930983215491779
  0
ARC
  5
DB30
  8
0
 10
820.7657817511319536
 20
157.5071908831577048
 30
0.0
 40
0.0260981086981234
 50
35.5073421940816516
 51
148.4074057504666939
  0
ARC
  5
DB31
  8
0
 10
820.7583224562202986
 20
157.5141066636003018
 30
0.0
 40
0.0162428223976449
 50
155.4201238342209876
 51
225.0587593210692035
  0
ARC
  5
DB32
  8
0
 10
820.7651833189596573
 20
157.5205815681916022
 30
0.0
 40
0.0256739042679807
 50
224.4281109176079951
 51
337.8292345809160224
  0
ARC
  5
DB33
  8
0
 10
820.7734620788580742
 20
157.5141699950594898
 30
0.0
 40
0.015839578922429
 50
348.0602295994187898
 51
31.088126226717069
  0
ARC
  5
DB34
  8
0
 10
820.8074898853158174
 20
157.5489089476845095
 30
0.0
 40
0.0337650044807902
 50
343.7949915018152183
 51
23.0440828172594614
  0
ARC
  5
DB35
  8
0
 10
820.7671280244506988
 20
157.5079078010820979
 30
0.0
 40
0.0896783762910285
 50
37.1988990159774673
 51
146.7295000619390919
  0
ARC
  5
DB36
  8
0
 10
820.7240374640748541
 20
157.5460898677384023
 30
0.0
 40
0.0337373762459863
 50
160.944319832408695
 51
196.8765854464444942
  0
LINE
  5
DB37
  8
0
 10
820.698678065732679
 20
157.5133436616100084
 30
0.0
 11
820.6917530789327202
 21
157.5362955310100119
 31
0.0
  0
LINE
  5
DB38
  8
0
 10
820.8326249495327147
 20
157.5140365155100142
 30
0.0
 11
820.8399133823324973
 21
157.5394859774100098
 31
0.0
  0
ARC
  5
DB39
  8
0
 10
821.0200976795238148
 20
157.8667775585016102
 30
0.0
 40
0.0725996426393495
 50
202.9996329032634037
 51
337.5930983215491779
  0
ARC
  5
DB3A
  8
0
 10
821.0203728597679174
 20
157.8322582679257096
 30
0.0
 40
0.0260981086981234
 50
35.5073421940816516
 51
148.4074057504666939
  0
ARC
  5
DB3B
  8
0
 10
821.0129135648561487
 20
157.8391740483683066
 30
0.0
 40
0.0162428223976449
 50
155.4201238342209876
 51
225.0587593210692035
  0
ARC
  5
DB3C
  8
0
 10
821.0197744275955074
 20
157.845648952959607
 30
0.0
 40
0.0256739042679807
 50
224.4281109176079951
 51
337.8292345809160224
  0
ARC
  5
DB3D
  8
0
 10
821.0280531874939243
 20
157.8392373798274946
 30
0.0
 40
0.015839578922429
 50
348.0602295994187898
 51
31.088126226717069
  0
ARC
  5
DB3E
  8
0
 10
821.0620809939517812
 20
157.8739763324524858
 30
0.0
 40
0.0337650044807902
 50
343.7949915018152183
 51
23.0440828172594614
  0
ARC
  5
DB3F
  8
0
 10
821.0217191330865489
 20
157.832975185849989
 30
0.0
 40
0.0896783762910285
 50
37.1988990159774673
 51
146.7295000619390919
  0
ARC
  5
DB40
  8
0
 10
820.9786285727108179
 20
157.8711572525064071
 30
0.0
 40
0.0337373762459863
 50
160.944319832408695
 51
196.8765854464444942
  0
LINE
  5
DB41
  8
0
 10
820.9532691743685291
 20
157.8384110463780132
 30
0.0
 11
820.9463441875684566
 21
157.8613629157779883
 31
0.0
  0
LINE
  5
DB42
  8
0
 10
821.0872160581684511
 20
157.8391039002779905
 30
0.0
 11
821.0945044909684611
 21
157.8645533621779862
 31
0.0
  0
ARC
  5
DB43
  8
0
 10
820.84693745946538
 20
158.0759815028129083
 30
0.0
 40
0.0725996426393495
 50
202.9996329032634037
 51
337.5930983215491779
  0
ARC
  5
DB44
  8
0
 10
820.8472126397093689
 20
158.0414622122368939
 30
0.0
 40
0.0260981086981234
 50
35.5073421940816516
 51
148.4074057504666939
  0
ARC
  5
DB45
  8
0
 10
820.8397533447977139
 20
158.0483779926794909
 30
0.0
 40
0.0162428223976449
 50
155.4201238342209876
 51
225.0587593210692035
  0
ARC
  5
DB46
  8
0
 10
820.8466142075370726
 20
158.0548528972707913
 30
0.0
 40
0.0256739042679807
 50
224.4281109176079951
 51
337.8292345809160224
  0
ARC
  5
DB47
  8
0
 10
820.8548929674354895
 20
158.0484413241387074
 30
0.0
 40
0.015839578922429
 50
348.0602295994187898
 51
31.088126226717069
  0
ARC
  5
DB48
  8
0
 10
820.8889207738932328
 20
158.0831802767636987
 30
0.0
 40
0.0337650044807902
 50
343.7949915018152183
 51
23.0440828172594614
  0
ARC
  5
DB49
  8
0
 10
820.8485589130281141
 20
158.042179130161287
 30
0.0
 40
0.0896783762910285
 50
37.1988990159774673
 51
146.7295000619390919
  0
ARC
  5
DB4A
  8
0
 10
820.8054683526522695
 20
158.0803611968175915
 30
0.0
 40
0.0337373762459863
 50
160.944319832408695
 51
196.8765854464444942
  0
LINE
  5
DB4B
  8
0
 10
820.7801089543103217
 20
158.0476149906893113
 30
0.0
 11
820.7731839675101355
 21
158.0705668600892864
 31
0.0
  0
LINE
  5
DB4C
  8
0
 10
820.9140558381103574
 20
158.0483078445892033
 30
0.0
 11
820.9213442709099127
 21
158.073757306489199
 31
0.0
  0
ARC
  5
DB4D
  8
0
 10
820.6012443510687717
 20
158.1697888525908979
 30
0.0
 40
0.0725996426393495
 50
202.9996329032634037
 51
337.5930983215491779
  0
ARC
  5
DB4E
  8
0
 10
820.6015195313127606
 20
158.135269562014912
 30
0.0
 40
0.0260981086981234
 50
35.5073421940816516
 51
148.4074057504666939
  0
ARC
  5
DB4F
  8
0
 10
820.5940602364011056
 20
158.1421853424575943
 30
0.0
 40
0.0162428223976449
 50
155.4201238342209876
 51
225.0587593210692035
  0
ARC
  5
DB50
  8
0
 10
820.6009210991402369
 20
158.1486602470488947
 30
0.0
 40
0.0256739042679807
 50
224.4281109176079951
 51
337.8292345809160224
  0
ARC
  5
DB51
  8
0
 10
820.6091998590388812
 20
158.1422486739168107
 30
0.0
 40
0.015839578922429
 50
348.0602295994187898
 51
31.088126226717069
  0
ARC
  5
DB52
  8
0
 10
820.6432276654966245
 20
158.176987626541802
 30
0.0
 40
0.0337650044807902
 50
343.7949915018152183
 51
23.0440828172594614
  0
ARC
  5
DB53
  8
0
 10
820.6028658046315059
 20
158.1359864799393051
 30
0.0
 40
0.0896783762910285
 50
37.1988990159774673
 51
146.7295000619390919
  0
ARC
  5
DB54
  8
0
 10
820.5597752442556612
 20
158.1741685465956948
 30
0.0
 40
0.0337373762459863
 50
160.944319832408695
 51
196.8765854464444942
  0
LINE
  5
DB55
  8
0
 10
820.534415845913486
 20
158.141422340467301
 30
0.0
 11
820.5274908591135272
 21
158.1643742098673044
 31
0.0
  0
LINE
  5
DB56
  8
0
 10
820.6683627297135217
 20
158.1421151943673067
 30
0.0
 11
820.6756511625133044
 21
158.1675646562673023
 31
0.0
  0
ARC
  5
DB57
  8
0
 10
821.1640679703726846
 20
158.230389651293109
 30
0.0
 40
0.0725996426393495
 50
202.9996329032634037
 51
337.5930983215491779
  0
ARC
  5
DB58
  8
0
 10
821.1643431506165598
 20
158.1958703607170946
 30
0.0
 40
0.0260981086981234
 50
35.5073421940816516
 51
148.4074057504666939
  0
ARC
  5
DB59
  8
0
 10
821.1568838557049048
 20
158.2027861411596916
 30
0.0
 40
0.0162428223976449
 50
155.4201238342209876
 51
225.0587593210692035
  0
ARC
  5
DB5A
  8
0
 10
821.1637447184440362
 20
158.209261045750992
 30
0.0
 40
0.0256739042679807
 50
224.4281109176079951
 51
337.8292345809160224
  0
ARC
  5
DB5B
  8
0
 10
821.1720234783426804
 20
158.2028494726189933
 30
0.0
 40
0.015839578922429
 50
348.0602295994187898
 51
31.088126226717069
  0
ARC
  5
DB5C
  8
0
 10
821.2060512848005374
 20
158.237588425244013
 30
0.0
 40
0.0337650044807902
 50
343.7949915018152183
 51
23.0440828172594614
  0
ARC
  5
DB5D
  8
0
 10
821.1656894239351914
 20
158.1965872786414877
 30
0.0
 40
0.0896783762910285
 50
37.1988990159774673
 51
146.7295000619390919
  0
ARC
  5
DB5E
  8
0
 10
821.1225988635594604
 20
158.2347693452977921
 30
0.0
 40
0.0337373762459863
 50
160.944319832408695
 51
196.8765854464444942
  0
LINE
  5
DB5F
  8
0
 10
821.0972394652171715
 20
158.2020231391693983
 30
0.0
 11
821.0903144784174401
 21
158.2249750085694018
 31
0.0
  0
LINE
  5
DB60
  8
0
 10
821.2311863490173209
 20
158.2027159930694893
 30
0.0
 11
821.2384747818171036
 21
158.2281654549695133
 31
0.0
  0
ARC
  5
DB61
  8
0
 10
820.9187205920463839
 20
158.3978909962642092
 30
0.0
 40
0.0725996426393495
 50
202.9996329032634037
 51
337.5930983215491779
  0
ARC
  5
DB62
  8
0
 10
820.9189957722904865
 20
158.3633717056883086
 30
0.0
 40
0.0260981086981234
 50
35.5073421940816516
 51
148.4074057504666939
  0
ARC
  5
DB63
  8
0
 10
820.9115364773786041
 20
158.3702874861309056
 30
0.0
 40
0.0162428223976449
 50
155.4201238342209876
 51
225.0587593210692035
  0
ARC
  5
DB64
  8
0
 10
820.9183973401180765
 20
158.376762390722206
 30
0.0
 40
0.0256739042679807
 50
224.4281109176079951
 51
337.8292345809160224
  0
ARC
  5
DB65
  8
0
 10
820.9266761000164934
 20
158.3703508175900936
 30
0.0
 40
0.015839578922429
 50
348.0602295994187898
 51
31.088126226717069
  0
ARC
  5
DB66
  8
0
 10
820.9607039064743503
 20
158.4050897702151133
 30
0.0
 40
0.0337650044807902
 50
343.7949915018152183
 51
23.0440828172594614
  0
ARC
  5
DB67
  8
0
 10
820.920342045609118
 20
158.364088623612588
 30
0.0
 40
0.0896783762910285
 50
37.1988990159774673
 51
146.7295000619390919
  0
ARC
  5
DB68
  8
0
 10
820.877251485233387
 20
158.4022706902690061
 30
0.0
 40
0.0337373762459863
 50
160.944319832408695
 51
196.8765854464444942
  0
LINE
  5
DB69
  8
0
 10
820.8518920868910982
 20
158.3695244841406122
 30
0.0
 11
820.8449671000911394
 21
158.3924763535405873
 31
0.0
  0
LINE
  5
DB6A
  8
0
 10
820.9858389706910202
 20
158.3702173380405895
 30
0.0
 11
820.9931274034911439
 21
158.3956667999406136
 31
0.0
  0
ARC
  5
DB6B
  8
0
 10
820.6458745313183272
 20
158.4493759797319967
 30
0.0
 40
0.0725996426393495
 50
202.9996329032634037
 51
337.5930983215491779
  0
ARC
  5
DB6C
  8
0
 10
820.6461497115622024
 20
158.4148566891560108
 30
0.0
 40
0.0260981086981234
 50
35.5073421940816516
 51
148.4074057504666939
  0
ARC
  5
DB6D
  8
0
 10
820.6386904166505474
 20
158.4217724695986078
 30
0.0
 40
0.0162428223976449
 50
155.4201238342209876
 51
225.0587593210692035
  0
ARC
  5
DB6E
  8
0
 10
820.645551279389565
 20
158.4282473741899082
 30
0.0
 40
0.0256739042679807
 50
224.4281109176079951
 51
337.8292345809160224
  0
ARC
  5
DB6F
  8
0
 10
820.6538300392882093
 20
158.4218358010579095
 30
0.0
 40
0.015839578922429
 50
348.0602295994187898
 51
31.088126226717069
  0
ARC
  5
DB70
  8
0
 10
820.6878578457460662
 20
158.4565747536829008
 30
0.0
 40
0.0337650044807902
 50
343.7949915018152183
 51
23.0440828172594614
  0
ARC
  5
DB71
  8
0
 10
820.6474959848806066
 20
158.4155736070804039
 30
0.0
 40
0.0896783762910285
 50
37.1988990159774673
 51
146.7295000619390919
  0
ARC
  5
DB72
  8
0
 10
820.6044054245051029
 20
158.4537556737367083
 30
0.0
 40
0.0337373762459863
 50
160.944319832408695
 51
196.8765854464444942
  0
LINE
  5
DB73
  8
0
 10
820.5790460261625867
 20
158.4210094676082861
 30
0.0
 11
820.572121039362969
 21
158.4439613370084032
 31
0.0
  0
LINE
  5
DB74
  8
0
 10
820.7129929099627361
 20
158.4217023215084055
 30
0.0
 11
820.7202813427627461
 21
158.4471517834084011
 31
0.0
  0
ARC
  5
DB75
  8
0
 10
820.6003988961496134
 20
158.7300087843800043
 30
0.0
 40
0.0725996426393495
 50
202.9996329032634037
 51
337.5930983215491779
  0
ARC
  5
DB76
  8
0
 10
820.6006740763934886
 20
158.6954894938039899
 30
0.0
 40
0.0260981086981234
 50
35.5073421940816516
 51
148.4074057504666939
  0
ARC
  5
DB77
  8
0
 10
820.5932147814818336
 20
158.7024052742467006
 30
0.0
 40
0.0162428223976449
 50
155.4201238342209876
 51
225.0587593210692035
  0
ARC
  5
DB78
  8
0
 10
820.6000756442208512
 20
158.708880178838001
 30
0.0
 40
0.0256739042679807
 50
224.4281109176079951
 51
337.8292345809160224
  0
ARC
  5
DB79
  8
0
 10
820.6083544041194955
 20
158.7024686057058886
 30
0.0
 40
0.015839578922429
 50
348.0602295994187898
 51
31.088126226717069
  0
ARC
  5
DB7A
  8
0
 10
820.6423822105773525
 20
158.7372075583309083
 30
0.0
 40
0.0337650044807902
 50
343.7949915018152183
 51
23.0440828172594614
  0
ARC
  5
DB7B
  8
0
 10
820.6020203497120065
 20
158.6962064117284115
 30
0.0
 40
0.0896783762910285
 50
37.1988990159774673
 51
146.7295000619390919
  0
ARC
  5
DB7C
  8
0
 10
820.5589297893363891
 20
158.7343884783848011
 30
0.0
 40
0.0337373762459863
 50
160.944319832408695
 51
196.8765854464444942
  0
LINE
  5
DB7D
  8
0
 10
820.5335703909938729
 20
158.7016422722564073
 30
0.0
 11
820.5266454041942552
 21
158.7245941416564108
 31
0.0
  0
LINE
  5
DB7E
  8
0
 10
820.667517274794136
 20
158.702335126156413
 30
0.0
 11
820.674805707594146
 21
158.7277845880564087
 31
0.0
  0
ARC
  5
DB7F
  8
0
 10
820.8945178022573828
 20
158.7262479434972988
 30
0.0
 40
0.0725996426393495
 50
202.9996329032634037
 51
337.5930983215491779
  0
ARC
  5
DB80
  8
0
 10
820.8947929825012579
 20
158.6917286529213982
 30
0.0
 40
0.0260981086981234
 50
35.5073421940816516
 51
148.4074057504666939
  0
ARC
  5
DB81
  8
0
 10
820.887333687589603
 20
158.6986444333639952
 30
0.0
 40
0.0162428223976449
 50
155.4201238342209876
 51
225.0587593210692035
  0
ARC
  5
DB82
  8
0
 10
820.8941945503287343
 20
158.7051193379552956
 30
0.0
 40
0.0256739042679807
 50
224.4281109176079951
 51
337.8292345809160224
  0
ARC
  5
DB83
  8
0
 10
820.9024733102272648
 20
158.6987077648232116
 30
0.0
 40
0.015839578922429
 50
348.0602295994187898
 51
31.088126226717069
  0
ARC
  5
DB84
  8
0
 10
820.9365011166852355
 20
158.7334467174482029
 30
0.0
 40
0.0337650044807902
 50
343.7949915018152183
 51
23.0440828172594614
  0
ARC
  5
DB85
  8
0
 10
820.8961392558196621
 20
158.692445570845706
 30
0.0
 40
0.0896783762910285
 50
37.1988990159774673
 51
146.7295000619390919
  0
ARC
  5
DB86
  8
0
 10
820.8530486954441585
 20
158.7306276375020957
 30
0.0
 40
0.0337373762459863
 50
160.944319832408695
 51
196.8765854464444942
  0
LINE
  5
DB87
  8
0
 10
820.8276892971018697
 20
158.6978814313737018
 30
0.0
 11
820.8207643103019109
 21
158.7208333007737053
 31
0.0
  0
LINE
  5
DB88
  8
0
 10
820.9616361809020191
 20
158.6985742852737076
 30
0.0
 11
820.9689246137019154
 21
158.7240237471737032
 31
0.0
  0
ARC
  5
DB89
  8
0
 10
821.1959108555728335
 20
158.6132907851329037
 30
0.0
 40
0.0725996426393495
 50
202.9996329032634037
 51
337.5930983215491779
  0
ARC
  5
DB8A
  8
0
 10
821.1961860358169361
 20
158.5787714945568894
 30
0.0
 40
0.0260981086981234
 50
35.5073421940816516
 51
148.4074057504666939
  0
ARC
  5
DB8B
  8
0
 10
821.1887267409050537
 20
158.5856872749994864
 30
0.0
 40
0.0162428223976449
 50
155.4201238342209876
 51
225.0587593210692035
  0
ARC
  5
DB8C
  8
0
 10
821.1955876036440714
 20
158.5921621795907868
 30
0.0
 40
0.0256739042679807
 50
224.4281109176079951
 51
337.8292345809160224
  0
ARC
  5
DB8D
  8
0
 10
821.2038663635427156
 20
158.5857506064587028
 30
0.0
 40
0.015839578922429
 50
348.0602295994187898
 51
31.088126226717069
  0
ARC
  5
DB8E
  8
0
 10
821.2378941700005726
 20
158.6204895590836941
 30
0.0
 40
0.0337650044807902
 50
343.7949915018152183
 51
23.0440828172594614
  0
ARC
  5
DB8F
  8
0
 10
821.1975323091351129
 20
158.5794884124813109
 30
0.0
 40
0.0896783762910285
 50
37.1988990159774673
 51
146.7295000619390919
  0
ARC
  5
DB90
  8
0
 10
821.1544417487598366
 20
158.6176704791375869
 30
0.0
 40
0.0337373762459863
 50
160.944319832408695
 51
196.8765854464444942
  0
LINE
  5
DB91
  8
0
 10
821.129082350417093
 20
158.584924273009193
 30
0.0
 11
821.1221573636174753
 21
158.6078761424093102
 31
0.0
  0
LINE
  5
DB92
  8
0
 10
821.2630292342172424
 20
158.5856171269091988
 30
0.0
 11
821.2703176670172525
 21
158.6110665888091944
 31
0.0
  0
ARC
  5
DB93
  8
0
 10
821.1056921555798453
 20
158.9917944937157017
 30
0.0
 40
0.0725996426393495
 50
202.9996329032634037
 51
337.5930983215491779
  0
ARC
  5
DB94
  8
0
 10
821.1059673358239479
 20
158.9572752031396874
 30
0.0
 40
0.0260981086981234
 50
35.5073421940816516
 51
148.4074057504666939
  0
ARC
  5
DB95
  8
0
 10
821.0985080409121792
 20
158.9641909835823128
 30
0.0
 40
0.0162428223976449
 50
155.4201238342209876
 51
225.0587593210692035
  0
ARC
  5
DB96
  8
0
 10
821.1053689036510832
 20
158.9706658881736132
 30
0.0
 40
0.0256739042679807
 50
224.4281109176079951
 51
337.8292345809160224
  0
ARC
  5
DB97
  8
0
 10
821.1136476635498411
 20
158.9642543150415008
 30
0.0
 40
0.015839578922429
 50
348.0602295994187898
 51
31.088126226717069
  0
ARC
  5
DB98
  8
0
 10
821.1476754700076981
 20
158.9989932676664921
 30
0.0
 40
0.0337650044807902
 50
343.7949915018152183
 51
23.0440828172594614
  0
ARC
  5
DB99
  8
0
 10
821.1073136091423521
 20
158.9579921210639952
 30
0.0
 40
0.0896783762910285
 50
37.1988990159774673
 51
146.7295000619390919
  0
ARC
  5
DB9A
  8
0
 10
821.0642230487668485
 20
158.9961741877204133
 30
0.0
 40
0.0337373762459863
 50
160.944319832408695
 51
196.8765854464444942
  0
LINE
  5
DB9B
  8
0
 10
821.0388636504243323
 20
158.9634279815921047
 30
0.0
 11
821.0319386636246008
 21
158.9863798509921082
 31
0.0
  0
LINE
  5
DB9C
  8
0
 10
821.172810534224368
 20
158.9641208354919968
 30
0.0
 11
821.180098967024378
 21
158.9895702973919924
 31
0.0
  0
ARC
  5
DB9D
  8
0
 10
820.7674576207019754
 20
159.0363333678147058
 30
0.0
 40
0.0725996426393495
 50
202.9996329032634037
 51
337.5930983215491779
  0
ARC
  5
DB9E
  8
0
 10
820.7677328009458506
 20
159.0018140772386914
 30
0.0
 40
0.0260981086981234
 50
35.5073421940816516
 51
148.4074057504666939
  0
ARC
  5
DB9F
  8
0
 10
820.7602735060341956
 20
159.0087298576812884
 30
0.0
 40
0.0162428223976449
 50
155.4201238342209876
 51
225.0587593210692035
  0
ARC
  5
DBA0
  8
0
 10
820.767134368773327
 20
159.0152047622725888
 30
0.0
 40
0.0256739042679807
 50
224.4281109176079951
 51
337.8292345809160224
  0
ARC
  5
DBA1
  8
0
 10
820.7754131286717438
 20
159.0087931891405049
 30
0.0
 40
0.015839578922429
 50
348.0602295994187898
 51
31.088126226717069
  0
ARC
  5
DBA2
  8
0
 10
820.8094409351298282
 20
159.0435321417654961
 30
0.0
 40
0.0337650044807902
 50
343.7949915018152183
 51
23.0440828172594614
  0
ARC
  5
DBA3
  8
0
 10
820.7690790742643685
 20
159.0025309951629993
 30
0.0
 40
0.0896783762910285
 50
37.1988990159774673
 51
146.7295000619390919
  0
ARC
  5
DBA4
  8
0
 10
820.7259885138887512
 20
159.0407130618193889
 30
0.0
 40
0.0337373762459863
 50
160.944319832408695
 51
196.8765854464444942
  0
LINE
  5
DBA5
  8
0
 10
820.7006291155464623
 20
159.0079668556909951
 30
0.0
 11
820.6937041287465036
 21
159.0309187250909986
 31
0.0
  0
LINE
  5
DBA6
  8
0
 10
820.8345759993466118
 20
159.0086597095910008
 30
0.0
 11
820.8418644321465081
 21
159.0341091714909965
 31
0.0
  0
ARC
  5
DBA7
  8
0
 10
820.4676129393892552
 20
158.9908830947067031
 30
0.0
 40
0.0725996426393495
 50
202.9996329032634037
 51
337.5930983215491779
  0
ARC
  5
DBA8
  8
0
 10
820.4678881196331304
 20
158.9563638041306888
 30
0.0
 40
0.0260981086981234
 50
35.5073421940816516
 51
148.4074057504666939
  0
ARC
  5
DBA9
  8
0
 10
820.4604288247213617
 20
158.9632795845733142
 30
0.0
 40
0.0162428223976449
 50
155.4201238342209876
 51
225.0587593210692035
  0
ARC
  5
DBAA
  8
0
 10
820.467289687460493
 20
158.9697544891645862
 30
0.0
 40
0.0256739042679807
 50
224.4281109176079951
 51
337.8292345809160224
  0
ARC
  5
DBAB
  8
0
 10
820.475568447359251
 20
158.9633429160325875
 30
0.0
 40
0.015839578922429
 50
348.0602295994187898
 51
31.088126226717069
  0
ARC
  5
DBAC
  8
0
 10
820.5095962538169942
 20
158.9980818686576072
 30
0.0
 40
0.0337650044807902
 50
343.7949915018152183
 51
23.0440828172594614
  0
ARC
  5
DBAD
  8
0
 10
820.4692343929516483
 20
158.9570807220551103
 30
0.0
 40
0.0896783762910285
 50
37.1988990159774673
 51
146.7295000619390919
  0
ARC
  5
DBAE
  8
0
 10
820.4261438325760309
 20
158.9952627887113863
 30
0.0
 40
0.0337373762459863
 50
160.944319832408695
 51
196.8765854464444942
  0
LINE
  5
DBAF
  8
0
 10
820.4007844342337421
 20
158.9625165825831061
 30
0.0
 11
820.3938594474336696
 21
158.9854684519831096
 31
0.0
  0
LINE
  5
DBB0
  8
0
 10
820.5347313180337778
 20
158.9632094364831119
 30
0.0
 11
820.5420197508335605
 21
158.9886588983831075
 31
0.0
  0
ARC
  5
DBB1
  8
0
 10
820.2546732061052808
 20
159.2155926856106873
 30
0.0
 40
0.0725996426393495
 50
202.9996329032634037
 51
337.5930983215491779
  0
ARC
  5
DBB2
  8
0
 10
820.2549483863496107
 20
159.1810733950347014
 30
0.0
 40
0.0260981086981234
 50
35.5073421940816516
 51
148.4074057504666939
  0
ARC
  5
DBB3
  8
0
 10
820.2474890914379557
 20
159.1879891754772984
 30
0.0
 40
0.0162428223976449
 50
155.4201238342209876
 51
225.0587593210692035
  0
ARC
  5
DBB4
  8
0
 10
820.2543499541769734
 20
159.1944640800685988
 30
0.0
 40
0.0256739042679807
 50
224.4281109176079951
 51
337.8292345809160224
  0
ARC
  5
DBB5
  8
0
 10
820.2626287140756176
 20
159.1880525069364865
 30
0.0
 40
0.015839578922429
 50
348.0602295994187898
 51
31.088126226717069
  0
ARC
  5
DBB6
  8
0
 10
820.2966565205333609
 20
159.2227914595615061
 30
0.0
 40
0.0337650044807902
 50
343.7949915018152183
 51
23.0440828172594614
  0
ARC
  5
DBB7
  8
0
 10
820.2562946596680149
 20
159.1817903129590945
 30
0.0
 40
0.0896783762910285
 50
37.1988990159774673
 51
146.7295000619390919
  0
ARC
  5
DBB8
  8
0
 10
820.2132040992922839
 20
159.2199723796153989
 30
0.0
 40
0.0337373762459863
 50
160.944319832408695
 51
196.8765854464444942
  0
LINE
  5
DBB9
  8
0
 10
820.1878447009502224
 20
159.1872261734870904
 30
0.0
 11
820.1809197141500363
 21
159.2101780428870939
 31
0.0
  0
LINE
  5
DBBA
  8
0
 10
820.3217915847502582
 20
159.1879190273870108
 30
0.0
 11
820.3290800175501545
 21
159.2133684892870065
 31
0.0
  0
ARC
  5
DBBB
  8
0
 10
820.5503812574503399
 20
159.3136434966592105
 30
0.0
 40
0.0725996426393495
 50
202.9996329032634037
 51
337.5930983215491779
  0
ARC
  5
DBBC
  8
0
 10
820.5506564376944425
 20
159.2791242060831962
 30
0.0
 40
0.0260981086981234
 50
35.5073421940816516
 51
148.4074057504666939
  0
ARC
  5
DBBD
  8
0
 10
820.5431971427826738
 20
159.2860399865259069
 30
0.0
 40
0.0162428223976449
 50
155.4201238342209876
 51
225.0587593210692035
  0
ARC
  5
DBBE
  8
0
 10
820.5500580055215778
 20
159.2925148911172073
 30
0.0
 40
0.0256739042679807
 50
224.4281109176079951
 51
337.8292345809160224
  0
ARC
  5
DBBF
  8
0
 10
820.558336765420222
 20
159.2861033179850949
 30
0.0
 40
0.015839578922429
 50
348.0602295994187898
 51
31.088126226717069
  0
ARC
  5
DBC0
  8
0
 10
820.5923645718783064
 20
159.3208422706100862
 30
0.0
 40
0.0337650044807902
 50
343.7949915018152183
 51
23.0440828172594614
  0
ARC
  5
DBC1
  8
0
 10
820.552002711012733
 20
159.2798411240075893
 30
0.0
 40
0.0896783762910285
 50
37.1988990159774673
 51
146.7295000619390919
  0
ARC
  5
DBC2
  8
0
 10
820.5089121506372294
 20
159.3180231906640074
 30
0.0
 40
0.0337373762459863
 50
160.944319832408695
 51
196.8765854464444942
  0
LINE
  5
DBC3
  8
0
 10
820.4835527522948269
 20
159.2852769845356136
 30
0.0
 11
820.4766277654949818
 21
159.3082288539355886
 31
0.0
  0
LINE
  5
DBC4
  8
0
 10
820.6174996360949763
 20
159.2859698384355909
 30
0.0
 11
820.6247880688949863
 21
159.3114193003355865
 31
0.0
  0
ARC
  5
DBC5
  8
0
 10
820.9049331733619965
 20
159.3370809610898107
 30
0.0
 40
0.0725996426393495
 50
202.9996329032634037
 51
337.5930983215491779
  0
ARC
  5
DBC6
  8
0
 10
820.9052083536060991
 20
159.3025616705137963
 30
0.0
 40
0.0260981086981234
 50
35.5073421940816516
 51
148.4074057504666939
  0
ARC
  5
DBC7
  8
0
 10
820.8977490586942167
 20
159.3094774509563933
 30
0.0
 40
0.0162428223976449
 50
155.4201238342209876
 51
225.0587593210692035
  0
ARC
  5
DBC8
  8
0
 10
820.9046099214334617
 20
159.3159523555476937
 30
0.0
 40
0.0256739042679807
 50
224.4281109176079951
 51
337.8292345809160224
  0
ARC
  5
DBC9
  8
0
 10
820.9128886813318786
 20
159.3095407824156098
 30
0.0
 40
0.015839578922429
 50
348.0602295994187898
 51
31.088126226717069
  0
ARC
  5
DBCA
  8
0
 10
820.946916487789963
 20
159.3442797350406011
 30
0.0
 40
0.0337650044807902
 50
343.7949915018152183
 51
23.0440828172594614
  0
ARC
  5
DBCB
  8
0
 10
820.9065546269245033
 20
159.3032785884381042
 30
0.0
 40
0.0896783762910285
 50
37.1988990159774673
 51
146.7295000619390919
  0
ARC
  5
DBCC
  8
0
 10
820.8634640665489997
 20
159.3414606550944939
 30
0.0
 40
0.0337373762459863
 50
160.944319832408695
 51
196.8765854464444942
  0
LINE
  5
DBCD
  8
0
 10
820.8381046682064834
 20
159.3087144489661
 30
0.0
 11
820.831179681406752
 21
159.3316663183661035
 31
0.0
  0
LINE
  5
DBCE
  8
0
 10
820.9720515520064055
 20
159.3094073028661057
 30
0.0
 11
820.9793399848066429
 21
159.3348567647661014
 31
0.0
  0
ARC
  5
DBCF
  8
0
 10
820.6027681243430152
 20
159.633075356272002
 30
0.0
 40
0.0725996426393495
 50
202.9996329032634037
 51
337.5930983215491779
  0
ARC
  5
DBD0
  8
0
 10
820.6030433045873451
 20
159.5985560656959876
 30
0.0
 40
0.0260981086981234
 50
35.5073421940816516
 51
148.4074057504666939
  0
ARC
  5
DBD1
  8
0
 10
820.5955840096753491
 20
159.605471846138613
 30
0.0
 40
0.0162428223976449
 50
155.4201238342209876
 51
225.0587593210692035
  0
ARC
  5
DBD2
  8
0
 10
820.6024448724145941
 20
159.6119467507299134
 30
0.0
 40
0.0256739042679807
 50
224.4281109176079951
 51
337.8292345809160224
  0
ARC
  5
DBD3
  8
0
 10
820.6107236323131247
 20
159.6055351775978863
 30
0.0
 40
0.015839578922429
 50
348.0602295994187898
 51
31.088126226717069
  0
ARC
  5
DBD4
  8
0
 10
820.6447514387710953
 20
159.640274130222906
 30
0.0
 40
0.0337650044807902
 50
343.7949915018152183
 51
23.0440828172594614
  0
ARC
  5
DBD5
  8
0
 10
820.6033813427369523
 20
159.6286717217701892
 30
0.0
 40
0.0765745912406229
 50
18.9122687024715788
 51
165.0161303754439928
  0
ARC
  5
DBD6
  8
0
 10
820.5612990175297909
 20
159.6374550502767136
 30
0.0
 40
0.0337373762459863
 50
160.944319832408695
 51
196.8765854464444942
  0
LINE
  5
DBD7
  8
0
 10
820.5359396191878432
 20
159.604708844148405
 30
0.0
 11
820.529014632387657
 21
159.6276607135484085
 31
0.0
  0
LINE
  5
DBD8
  8
0
 10
820.6698865029877652
 20
159.6054016980484107
 30
0.0
 11
820.6771749357877752
 21
159.6308511599484063
 31
0.0
  0
ARC
  5
DBD9
  8
0
 10
820.2575162125441466
 20
159.5373928007516042
 30
0.0
 40
0.0725996426393495
 50
202.9996329032634037
 51
337.5930983215491779
  0
ARC
  5
DBDA
  8
0
 10
820.2577913927880218
 20
159.5028735101755899
 30
0.0
 40
0.0260981086981234
 50
35.5073421940816516
 51
148.4074057504666939
  0
ARC
  5
DBDB
  8
0
 10
820.2503320978762531
 20
159.5097892906181869
 30
0.0
 40
0.0162428223976449
 50
155.4201238342209876
 51
225.0587593210692035
  0
ARC
  5
DBDC
  8
0
 10
820.2571929606153844
 20
159.5162641952094873
 30
0.0
 40
0.0256739042679807
 50
224.4281109176079951
 51
337.8292345809160224
  0
ARC
  5
DBDD
  8
0
 10
820.2654717205140287
 20
159.5098526220774033
 30
0.0
 40
0.015839578922429
 50
348.0602295994187898
 51
31.088126226717069
  0
ARC
  5
DBDE
  8
0
 10
820.2994995269718856
 20
159.5445915747023946
 30
0.0
 40
0.0337650044807902
 50
343.7949915018152183
 51
23.0440828172594614
  0
ARC
  5
DBDF
  8
0
 10
820.2582306750763337
 20
159.5300370276899002
 30
0.0
 40
0.0774871947013723
 50
21.0020336533956709
 51
162.9263654245191049
  0
ARC
  5
DBE0
  8
0
 10
820.2160471057309223
 20
159.5417724947562874
 30
0.0
 40
0.0337373762459863
 50
160.944319832408695
 51
196.8765854464444942
  0
LINE
  5
DBE1
  8
0
 10
820.1906877073887472
 20
159.5090262886278936
 30
0.0
 11
820.1837627205887884
 21
159.5319781580278971
 31
0.0
  0
LINE
  5
DBE2
  8
0
 10
820.3246345911886692
 20
159.5097191425278993
 30
0.0
 11
820.3319230239885655
 21
159.5351686044278949
 31
0.0
  0
ARC
  5
DBE3
  8
0
 10
819.9795863917350971
 20
159.3884554816646073
 30
0.0
 40
0.0725996426393495
 50
202.9996329032634037
 51
337.5930983215491779
  0
ARC
  5
DBE4
  8
0
 10
819.9798615719791997
 20
159.3539361910887067
 30
0.0
 40
0.0260981086981234
 50
35.5073421940816516
 51
148.4074057504666939
  0
ARC
  5
DBE5
  8
0
 10
819.972402277067431
 20
159.3608519715313037
 30
0.0
 40
0.0162428223976449
 50
155.4201238342209876
 51
225.0587593210692035
  0
ARC
  5
DBE6
  8
0
 10
819.9792631398065623
 20
159.3673268761226041
 30
0.0
 40
0.0256739042679807
 50
224.4281109176079951
 51
337.8292345809160224
  0
ARC
  5
DBE7
  8
0
 10
819.9875418997052066
 20
159.3609153029906054
 30
0.0
 40
0.015839578922429
 50
348.0602295994187898
 51
31.088126226717069
  0
ARC
  5
DBE8
  8
0
 10
820.0215697061629498
 20
159.3956542556155114
 30
0.0
 40
0.0337650044807902
 50
343.7949915018152183
 51
23.0440828172594614
  0
ARC
  5
DBE9
  8
0
 10
819.9804232465697851
 20
159.3775309189369125
 30
0.0
 40
0.0787243940757215
 50
23.4595357155130912
 51
160.468863362402999
  0
ARC
  5
DBEA
  8
0
 10
819.9381172849219865
 20
159.3928351756694042
 30
0.0
 40
0.0337373762459863
 50
160.944319832408695
 51
196.8765854464444942
  0
LINE
  5
DBEB
  8
0
 10
819.9127578865798114
 20
159.3600889695410103
 30
0.0
 11
819.9058328997796252
 21
159.3830408389410138
 31
0.0
  0
LINE
  5
DBEC
  8
0
 10
820.0467047703798471
 20
159.3607818234409876
 30
0.0
 11
820.0539932031797434
 21
159.3862312853410117
 31
0.0
  0
ARC
  5
DBED
  8
0
 10
820.2193885207673247
 20
159.8579902759470883
 30
0.0
 40
0.0725996426393495
 50
202.9996329032634037
 51
337.5930983215491779
  0
ARC
  5
DBEE
  8
0
 10
820.2196637010116547
 20
159.8234709853711024
 30
0.0
 40
0.0260981086981234
 50
35.5073421940816516
 51
148.4074057504666939
  0
ARC
  5
DBEF
  8
0
 10
820.212204406099886
 20
159.8303867658136994
 30
0.0
 40
0.0162428223976449
 50
155.4201238342209876
 51
225.0587593210692035
  0
ARC
  5
DBF0
  8
0
 10
820.2190652688390173
 20
159.8368616704051135
 30
0.0
 40
0.0256739042679807
 50
224.4281109176079951
 51
337.8292345809160224
  0
ARC
  5
DBF1
  8
0
 10
820.2273440287375479
 20
159.8304500972730011
 30
0.0
 40
0.015839578922429
 50
348.0602295994187898
 51
31.088126226717069
  0
ARC
  5
DBF2
  8
0
 10
820.2613718351955185
 20
159.8651890498979924
 30
0.0
 40
0.0337650044807902
 50
343.7949915018152183
 51
23.0440828172594614
  0
ARC
  5
DBF3
  8
0
 10
820.2200017391613756
 20
159.8535866414453039
 30
0.0
 40
0.0765745912406229
 50
18.9122687024715788
 51
165.0161303754439928
  0
ARC
  5
DBF4
  8
0
 10
820.1779194139543279
 20
159.8623699699519136
 30
0.0
 40
0.0337373762459863
 50
160.944319832408695
 51
196.8765854464444942
  0
LINE
  5
DBF5
  8
0
 10
820.1525600156121527
 20
159.8296237638234913
 30
0.0
 11
820.1456350288119665
 21
159.8525756332234948
 31
0.0
  0
LINE
  5
DBF6
  8
0
 10
820.2865068994123021
 20
159.8303166177234971
 30
0.0
 11
820.2937953322121984
 21
159.8557660796234927
 31
0.0
  0
ARC
  5
DBF7
  8
0
 10
819.6522055350664004
 20
159.4959604531846082
 30
0.0
 40
0.0725996426393495
 50
202.9996329032634037
 51
337.5930983215491779
  0
ARC
  5
DBF8
  8
0
 10
819.6524807153102756
 20
159.4614411626085939
 30
0.0
 40
0.0260981086981234
 50
35.5073421940816516
 51
148.4074057504666939
  0
ARC
  5
DBF9
  8
0
 10
819.6450214203986206
 20
159.4683569430511909
 30
0.0
 40
0.0162428223976449
 50
155.4201238342209876
 51
225.0587593210692035
  0
ARC
  5
DBFA
  8
0
 10
819.6518822831375246
 20
159.4748318476424913
 30
0.0
 40
0.0256739042679807
 50
224.4281109176079951
 51
337.8292345809160224
  0
ARC
  5
DBFB
  8
0
 10
819.6601610430362825
 20
159.4684202745104074
 30
0.0
 40
0.015839578922429
 50
348.0602295994187898
 51
31.088126226717069
  0
ARC
  5
DBFC
  8
0
 10
819.6941888494942532
 20
159.5031592271353986
 30
0.0
 40
0.0337650044807902
 50
343.7949915018152183
 51
23.0440828172594614
  0
ARC
  5
DBFD
  8
0
 10
819.6528187534597691
 20
159.4915568186827954
 30
0.0
 40
0.0765745912406229
 50
18.9122687024715788
 51
165.0161303754439928
  0
ARC
  5
DBFE
  8
0
 10
819.6107364282531762
 20
159.5003401471892914
 30
0.0
 40
0.0337373762459863
 50
160.944319832408695
 51
196.8765854464444942
  0
LINE
  5
DBFF
  8
0
 10
819.58537702991066
 20
159.4675939410608976
 30
0.0
 11
819.5784520431111559
 21
159.4905458104609011
 31
0.0
  0
LINE
  5
DC00
  8
0
 10
819.7193239137108094
 20
159.4682867949609033
 30
0.0
 11
819.7266123465109331
 21
159.4937362568608989
 31
0.0
  0
ARC
  5
DC01
  8
0
 10
819.900665831903666
 20
159.6948179133092083
 30
0.0
 40
0.0725996426393495
 50
202.9996329032634037
 51
337.5930983215491779
  0
ARC
  5
DC02
  8
0
 10
819.9009410121476549
 20
159.660298622733194
 30
0.0
 40
0.0260981086981234
 50
35.5073421940816516
 51
148.4074057504666939
  0
ARC
  5
DC03
  8
0
 10
819.8934817172358862
 20
159.6672144031759046
 30
0.0
 40
0.0162428223976449
 50
155.4201238342209876
 51
225.0587593210692035
  0
ARC
  5
DC04
  8
0
 10
819.9003425799750175
 20
159.673689307767205
 30
0.0
 40
0.0256739042679807
 50
224.4281109176079951
 51
337.8292345809160224
  0
ARC
  5
DC05
  8
0
 10
819.9086213398735481
 20
159.6672777346350927
 30
0.0
 40
0.015839578922429
 50
348.0602295994187898
 51
31.088126226717069
  0
ARC
  5
DC06
  8
0
 10
819.9426491463315188
 20
159.7020166872601123
 30
0.0
 40
0.0337650044807902
 50
343.7949915018152183
 51
23.0440828172594614
  0
ARC
  5
DC07
  8
0
 10
819.9012790502972621
 20
159.6904142788073955
 30
0.0
 40
0.0765745912406229
 50
18.9122687024715788
 51
165.0161303754439928
  0
ARC
  5
DC08
  8
0
 10
819.8591967250905554
 20
159.6991976073138915
 30
0.0
 40
0.0337373762459863
 50
160.944319832408695
 51
196.8765854464444942
  0
LINE
  5
DC09
  8
0
 10
819.8338373267481529
 20
159.6664514011856113
 30
0.0
 11
819.8269123399481941
 21
159.6894032705855864
 31
0.0
  0
LINE
  5
DC0A
  8
0
 10
819.9677842105483023
 20
159.6671442550855886
 30
0.0
 11
819.9750726433481987
 21
159.6925937169856127
 31
0.0
  0
ARC
  5
DC0B
  8
0
 10
819.5098749347864668
 20
159.776672390889189
 30
0.0
 40
0.0725996426393495
 50
202.9996329032634037
 51
337.5930983215491779
  0
ARC
  5
DC0C
  8
0
 10
819.5101501150305694
 20
159.7421531003132031
 30
0.0
 40
0.0260981086981234
 50
35.5073421940816516
 51
148.4074057504666939
  0
ARC
  5
DC0D
  8
0
 10
819.502690820118687
 20
159.7490688807558001
 30
0.0
 40
0.0162428223976449
 50
155.4201238342209876
 51
225.0587593210692035
  0
ARC
  5
DC0E
  8
0
 10
819.5095516828580458
 20
159.7555437853471005
 30
0.0
 40
0.0256739042679807
 50
224.4281109176079951
 51
337.8292345809160224
  0
ARC
  5
DC0F
  8
0
 10
819.5178304427563489
 20
159.7491322122149882
 30
0.0
 40
0.015839578922429
 50
348.0602295994187898
 51
31.088126226717069
  0
ARC
  5
DC10
  8
0
 10
819.551858249214547
 20
159.7838711648400079
 30
0.0
 40
0.0337650044807902
 50
343.7949915018152183
 51
23.0440828172594614
  0
ARC
  5
DC11
  8
0
 10
819.5104881531800629
 20
159.7722687563874047
 30
0.0
 40
0.0765745912406229
 50
18.9122687024715788
 51
165.0161303754439928
  0
ARC
  5
DC12
  8
0
 10
819.46840582797347
 20
159.7810520848939007
 30
0.0
 40
0.0337373762459863
 50
160.944319832408695
 51
196.8765854464444942
  0
LINE
  5
DC13
  8
0
 10
819.4430464296309538
 20
159.7483058787655068
 30
0.0
 11
819.4361214428312223
 21
159.7712577481655103
 31
0.0
  0
LINE
  5
DC14
  8
0
 10
819.5769933134308758
 20
159.7489987326655125
 30
0.0
 11
819.5842817462311132
 21
159.7744481945655082
 31
0.0
  0
ARC
  5
DC15
  8
0
 10
819.7760284565937354
 20
159.9996874653693055
 30
0.0
 40
0.0725996426393495
 50
202.9996329032634037
 51
337.5930983215491779
  0
ARC
  5
DC16
  8
0
 10
819.7763036368376106
 20
159.9651681747932912
 30
0.0
 40
0.0260981086981234
 50
35.5073421940816516
 51
148.4074057504666939
  0
ARC
  5
DC17
  8
0
 10
819.7688443419259556
 20
159.9720839552358882
 30
0.0
 40
0.0162428223976449
 50
155.4201238342209876
 51
225.0587593210692035
  0
ARC
  5
DC18
  8
0
 10
819.7757052046652007
 20
159.9785588598273023
 30
0.0
 40
0.0256739042679807
 50
224.4281109176079951
 51
337.8292345809160224
  0
ARC
  5
DC19
  8
0
 10
819.7839839645638449
 20
159.9721472866951899
 30
0.0
 40
0.015839578922429
 50
348.0602295994187898
 51
31.088126226717069
  0
ARC
  5
DC1A
  8
0
 10
819.8180117710214745
 20
160.0068862393202096
 30
0.0
 40
0.0337650044807902
 50
343.7949915018152183
 51
23.0440828172594614
  0
ARC
  5
DC1B
  8
0
 10
819.7766416749874452
 20
159.9952838308674927
 30
0.0
 40
0.0765745912406229
 50
18.9122687024715788
 51
165.0161303754439928
  0
ARC
  5
DC1C
  8
0
 10
819.7345593497805112
 20
160.0040671593739887
 30
0.0
 40
0.0337373762459863
 50
160.944319832408695
 51
196.8765854464444942
  0
LINE
  5
DC1D
  8
0
 10
819.7091999514382223
 20
159.9713209532457086
 30
0.0
 11
819.7022749646383772
 21
159.994272822645712
 31
0.0
  0
LINE
  5
DC1E
  8
0
 10
819.8431468352382581
 20
159.9720138071456859
 30
0.0
 11
819.8504352680381544
 21
159.9974632690457099
 31
0.0
  0
ARC
  5
DC1F
  8
0
 10
819.3101141820055773
 20
158.1463567161837034
 30
0.0
 40
0.7576588514563238
 50
61.5489122871599577
 51
90.1794134705774866
  0
ARC
  5
DC20
  8
0
 10
819.4385069275560909
 20
158.3553225777762918
 30
0.0
 40
0.512936958302623
 50
9.556496544564526
 51
63.0383856864264729
  0
ARC
  5
DC21
  8
0
 10
819.4604317710388841
 20
158.3880441303176099
 30
0.0
 40
0.4867265576339976
 50
308.7409119632463899
 51
6.1846205193461712
  0
ARC
  5
DC22
  8
0
 10
819.3163470286743859
 20
158.5736356684845987
 30
0.0
 40
0.7216629319291032
 50
269.316770401069391
 51
308.4424378560303808
  0
ARC
  5
DC23
  8
0
 10
819.2939708416555504
 20
158.0464704232423117
 30
0.0
 40
0.8355231460046766
 50
69.0821163861085523
 51
89.1460208400959715
  0
ARC
  5
DC24
  8
0
 10
819.3831560813207489
 20
158.2798049185637979
 30
0.0
 40
0.5857252403266957
 50
29.4672133970717809
 51
69.0821163861085523
  0
ARC
  5
DC25
  8
0
 10
819.5420838695712291
 20
158.3696019187447064
 30
0.0
 40
0.4031833461771989
 50
351.234560428341922
 51
29.4672133970717809
  0
ARC
  5
DC26
  8
0
 10
819.3208598705208487
 20
158.1715526029171031
 30
0.0
 40
0.6621946625273366
 50
51.2080239863052569
 51
91.1351129721666666
  0
ARC
  5
DC27
  8
0
 10
819.4422010728416126
 20
158.3225139093418079
 30
0.0
 40
0.4685119234458332
 50
18.0289291110703616
 51
51.2080239863052569
  0
ARC
  5
DC28
  8
0
 10
819.5246655318841249
 20
158.3493542765990014
 30
0.0
 40
0.3817894216388987
 50
338.5232038381737993
 51
18.0289291110703616
  0
ARC
  5
DC29
  8
0
 10
819.3940538570043373
 20
158.4007424901940055
 30
0.0
 40
0.5221466733623658
 50
297.6777185376830062
 51
338.5232038381737993
  0
ARC
  5
DC2A
  8
0
 10
819.3193088619175342
 20
158.5432453479214132
 30
0.0
 40
0.6830624238376238
 50
269.0296904178158002
 51
297.6777185376830062
  0
ARC
  5
DC2B
  8
0
 10
819.3086338009810561
 20
158.1164896852909862
 30
0.0
 40
0.7285898090490222
 50
63.7024553052678115
 51
90.0701552633205722
  0
ARC
  5
DC2C
  8
0
 10
819.3893875559348317
 20
158.2799001215227008
 30
0.0
 40
0.5463149078459966
 50
25.9414524312898003
 51
63.7024553052678115
  0
ARC
  5
DC2D
  8
0
 10
819.5529310219927766
 20
158.3594588318104002
 30
0.0
 40
0.3644466762252025
 50
352.6434841494040029
 51
25.9414524312898003
  0
ARC
  5
DC2E
  8
0
 10
819.4551627922328407
 20
158.372081263262686
 30
0.0
 40
0.4630263522551622
 50
315.6703885712290116
 51
352.6434841494040029
  0
ARC
  5
DC2F
  8
0
 10
819.3753147418461822
 20
158.4500823178306916
 30
0.0
 40
0.5746501654147286
 50
296.4541829680254068
 51
315.6703885712290116
  0
ARC
  5
DC30
  8
0
 10
819.3073351832933895
 20
157.6673372672449034
 30
0.0
 40
0.0640689303804212
 50
29.4669849907664485
 51
89.6364685395625145
  0
ARC
  5
DC31
  8
0
 10
819.3067680412463005
 20
157.667016824979612
 30
0.0
 40
0.0647203391208008
 50
330.0472242348948839
 51
29.4669849907664485
  0
ARC
  5
DC32
  8
0
 10
819.3081393083581361
 20
157.6662266297919075
 30
0.0
 40
0.0631376888352547
 50
269.6395006691602134
 51
330.0472242348948839
  0
ARC
  5
DC33
  8
0
 10
819.3090394303922039
 20
157.6811494217650136
 30
0.0
 40
0.0565596348912371
 50
268.6761071637924942
 51
305.730143054523694
  0
ARC
  5
DC34
  8
0
 10
819.3267152761752641
 20
157.6565781682126044
 30
0.0
 40
0.02629113599751
 50
305.7301430545301173
 51
24.8463273156575113
  0
ARC
  5
DC35
  8
0
 10
819.3084151429236499
 20
157.6454214729996011
 30
0.0
 40
0.0476474966917189
 50
27.7751328160789086
 51
90.8098536302407808
  0
ARC
  5
DC36
  8
0
 10
819.9184829583831515
 20
157.8247821995070126
 30
0.0
 40
0.0601973984973952
 50
359.7740345069937007
 51
56.4111857473364608
  0
ARC
  5
DC37
  8
0
 10
819.9349159118554553
 20
157.8308607772623873
 30
0.0
 40
0.0442173874508096
 50
279.1705804051620134
 51
351.7878150266489001
  0
ARC
  5
DC38
  8
0
 10
819.9211461570056372
 20
157.8932605783354006
 30
0.0
 40
0.1080757666286763
 50
231.5221909975385017
 51
281.1053544945498857
  0
ARC
  5
DC39
  8
0
 10
819.8916392611606625
 20
157.8625329145856995
 30
0.0
 40
0.0657816428756228
 50
186.0142723219327081
 51
234.9911883402880903
  0
ARC
  5
DC3A
  8
0
 10
819.8695025497213464
 20
157.8553098888876036
 30
0.0
 40
0.0432841210064932
 50
90.9747222956590065
 51
179.5622760949489134
  0
ARC
  5
DC3B
  8
0
 10
819.8787688391220172
 20
157.7762005415706028
 30
0.0
 40
0.1227952772716887
 50
53.5141427188128915
 51
94.6723533954345839
  0
ARC
  5
DC3C
  8
0
 10
819.9341316803272548
 20
157.8374926677954022
 30
0.0
 40
0.0264683187409004
 50
307.8482540453907177
 51
35.4195479482899387
  0
ARC
  5
DC3D
  8
0
 10
819.9125423932858894
 20
157.8652770597738879
 30
0.0
 40
0.0616545341182213
 50
236.2096879443232922
 51
307.8482540453907177
  0
ARC
  5
DC3E
  8
0
 10
819.900664315474728
 20
157.8352007266234978
 30
0.0
 40
0.0308246929881645
 50
140.2719662037742125
 51
223.3595015568334929
  0
ARC
  5
DC3F
  8
0
 10
819.9144054788529274
 20
157.8212335599160099
 30
0.0
 40
0.0503580088154135
 50
71.8007601019544381
 51
138.0420809985130006
  0
ARC
  5
DC40
  8
0
 10
819.9184017480938564
 20
157.8223548720704059
 30
0.0
 40
0.0481680991302413
 50
39.2523677670329008
 51
75.9034479342735722
  0
ARC
  5
DC41
  8
0
 10
819.5905042476432527
 20
157.7319186510432871
 30
0.0
 40
0.0822516096128875
 50
31.9343052039331496
 51
147.9488590954451013
  0
ARC
  5
DC42
  8
0
 10
819.5663017021551013
 20
157.7535407549102899
 30
0.0
 40
0.0505619427262306
 50
154.1739161414884052
 51
217.6563262298346899
  0
ARC
  5
DC43
  8
0
 10
819.5899200850228681
 20
157.776363694068408
 30
0.0
 40
0.0832830109487302
 50
220.1610742350601129
 51
327.6143658119669908
  0
ARC
  5
DC44
  8
0
 10
819.6154784498781964
 20
157.7536502654054971
 30
0.0
 40
0.049837718808672
 50
333.9401358109254829
 51
25.9075229513092395
  0
ARC
  5
DC45
  8
0
 10
819.3368497903688876
 20
157.791314920039099
 30
0.0
 40
0.3797330287698492
 50
354.3336865764420054
 51
358.451760692729124
  0
ARC
  5
DC46
  8
0
 10
819.6649394325827416
 20
157.7824471647612086
 30
0.0
 40
0.0515235675843547
 50
358.4517606927299198
 51
28.0096795692036515
  0
ARC
  5
DC47
  8
0
 10
819.6200251884469026
 20
157.7585561036432011
 30
0.0
 40
0.1023966658550166
 50
28.0096795692036515
 51
70.7057287911698609
  0
ARC
  5
DC48
  8
0
 10
819.5970044166831485
 20
157.6927980218690095
 30
0.0
 40
0.1720679027553141
 50
70.7057287911698609
 51
121.9310563743187998
  0
ARC
  5
DC49
  8
0
 10
819.5536555617663907
 20
157.7623568000367129
 30
0.0
 40
0.0901072607203316
 50
121.9310563743187998
 51
158.2069790431474985
  0
ARC
  5
DC4A
  8
0
 10
819.5423879616982958
 20
157.7668619265695895
 30
0.0
 40
0.0779723945746911
 50
158.2069790431445995
 51
197.5331986704084102
  0
ARC
  5
DC4B
  8
0
 10
819.5896756456149888
 20
157.7888940757393073
 30
0.0
 40
0.1298767736254559
 50
200.5179830735081055
 51
344.3333264853970945
  0
ARC
  5
DC4C
  8
0
 10
819.5904936446979718
 20
157.8620094016675068
 30
0.0
 40
0.1072569178434093
 50
230.9234420817307978
 51
309.0858976138563889
  0
ARC
  5
DC4D
  8
0
 10
820.0269183722982689
 20
158.0297332368940033
 30
0.0
 40
0.0822516096128875
 50
31.9343052039331496
 51
147.9488590954451013
  0
ARC
  5
DC4E
  8
0
 10
820.0027158268103449
 20
158.0513553407610061
 30
0.0
 40
0.0505619427262306
 50
154.1739161414884052
 51
217.6563262298346899
  0
ARC
  5
DC4F
  8
0
 10
820.0263342096779979
 20
158.0741782799190958
 30
0.0
 40
0.0832830109487302
 50
220.1610742350601129
 51
327.6143658119669908
  0
ARC
  5
DC50
  8
0
 10
820.0518925745333263
 20
158.0514648512562133
 30
0.0
 40
0.049837718808672
 50
333.9401358109254829
 51
25.9075229513092395
  0
ARC
  5
DC51
  8
0
 10
819.7732639150243585
 20
158.0891295058897867
 30
0.0
 40
0.3797330287698492
 50
354.3336865764420054
 51
358.451760692729124
  0
ARC
  5
DC52
  8
0
 10
820.1013535572382125
 20
158.08026175061201
 30
0.0
 40
0.0515235675843547
 50
358.4517606927299198
 51
28.0096795692036515
  0
ARC
  5
DC53
  8
0
 10
820.0564393131021461
 20
158.0563706894940026
 30
0.0
 40
0.1023966658550166
 50
28.0096795692036515
 51
70.7057287911698609
  0
ARC
  5
DC54
  8
0
 10
820.0334185413382784
 20
157.9906126077196973
 30
0.0
 40
0.1720679027553141
 50
70.7057287911698609
 51
121.9310563743187998
  0
ARC
  5
DC55
  8
0
 10
819.9900696864215206
 20
158.0601713858874859
 30
0.0
 40
0.0901072607203316
 50
121.9310563743187998
 51
158.2069790431474985
  0
ARC
  5
DC56
  8
0
 10
819.9788020863534257
 20
158.0646765124203057
 30
0.0
 40
0.0779723945746911
 50
158.2069790431445995
 51
197.5331986704084102
  0
ARC
  5
DC57
  8
0
 10
820.0260897702701186
 20
158.0867086615899098
 30
0.0
 40
0.1298767736254559
 50
200.5179830735081055
 51
344.3333264853970945
  0
ARC
  5
DC58
  8
0
 10
820.0269077693532154
 20
158.1598239875181946
 30
0.0
 40
0.1072569178434093
 50
230.9234420817307978
 51
309.0858976138563889
  0
ARC
  5
DC59
  8
0
 10
820.2373900273172467
 20
158.2764658822952981
 30
0.0
 40
0.0601973984973952
 50
26.6433632447833801
 51
83.2805144851281369
  0
ARC
  5
DC5A
  8
0
 10
820.2493016152041037
 20
158.2893152068440088
 30
0.0
 40
0.0442173874508096
 50
306.0399091429482041
 51
18.657143764440459
  0
ARC
  5
DC5B
  8
0
 10
820.2088164060013469
 20
158.3387549596587007
 30
0.0
 40
0.1080757666286763
 50
258.3915197353285862
 51
307.9746832323392027
  0
ARC
  5
DC5C
  8
0
 10
820.1963826770122523
 20
158.2980088113091028
 30
0.0
 40
0.0657816428756228
 50
212.8836010597223094
 51
261.8605170780763842
  0
ARC
  5
DC5D
  8
0
 10
820.1799003527161176
 20
158.2815607391002004
 30
0.0
 40
0.0432841210064932
 50
117.8440510334539937
 51
206.431604832738401
  0
ARC
  5
DC5E
  8
0
 10
820.2239202930243209
 20
158.215180035522792
 30
0.0
 40
0.1227952772716887
 50
80.3834714566036013
 51
121.5416821332224941
  0
ARC
  5
DC5F
  8
0
 10
820.2476644351224877
 20
158.2904028436097974
 30
0.0
 40
0.0264683187409004
 50
319.3936915281685742
 51
46.9649854310668999
  0
ARC
  5
DC60
  8
0
 10
820.2209510727183215
 20
158.3133040667568139
 30
0.0
 40
0.0616545341182213
 50
247.7551254270998982
 51
319.3936915281685742
  0
ARC
  5
DC61
  8
0
 10
820.2153329597224456
 20
158.2814589516742103
 30
0.0
 40
0.0308246929881645
 50
151.8174036865516996
 51
234.9049390396102979
  0
ARC
  5
DC62
  8
0
 10
820.2315915467702325
 20
158.2705246174905938
 30
0.0
 40
0.0503580088154135
 50
83.3461975847314278
 51
149.587518481289294
  0
ARC
  5
DC63
  8
0
 10
820.2352825316577309
 20
158.2724230745880902
 30
0.0
 40
0.0481680991302413
 50
50.7978052498092296
 51
87.4488854170585341
  0
ARC
  5
DC64
  8
0
 10
820.1222893264629192
 20
158.4779862816492937
 30
0.0
 40
0.0822516096128875
 50
31.9343052039331496
 51
147.9488590954451013
  0
ARC
  5
DC65
  8
0
 10
820.0980867809746542
 20
158.4996083855162965
 30
0.0
 40
0.0505619427262306
 50
154.1739161414884052
 51
217.6563262298346899
  0
ARC
  5
DC66
  8
0
 10
820.1217051638426483
 20
158.5224313246743009
 30
0.0
 40
0.0832830109487302
 50
220.1610742350601129
 51
327.6143658119669908
  0
ARC
  5
DC67
  8
0
 10
820.147263528697863
 20
158.4997178960113899
 30
0.0
 40
0.049837718808672
 50
333.9401358109254829
 51
25.9075229513092395
  0
ARC
  5
DC68
  8
0
 10
819.8686348691885541
 20
158.5373825506451055
 30
0.0
 40
0.3797330287698492
 50
354.3336865764420054
 51
358.451760692729124
  0
ARC
  5
DC69
  8
0
 10
820.1967245114024081
 20
158.5285147953671867
 30
0.0
 40
0.0515235675843547
 50
358.4517606927299198
 51
28.0096795692036515
  0
ARC
  5
DC6A
  8
0
 10
820.1518102672664554
 20
158.5046237342492077
 30
0.0
 40
0.1023966658550166
 50
28.0096795692036515
 51
70.7057287911698609
  0
ARC
  5
DC6B
  8
0
 10
820.1287894955029287
 20
158.4388656524749024
 30
0.0
 40
0.1720679027553141
 50
70.7057287911698609
 51
121.9310563743187998
  0
ARC
  5
DC6C
  8
0
 10
820.0854406405860573
 20
158.508424430642691
 30
0.0
 40
0.0901072607203316
 50
121.9310563743187998
 51
158.2069790431474985
  0
ARC
  5
DC6D
  8
0
 10
820.0741730405179624
 20
158.5129295571755961
 30
0.0
 40
0.0779723945746911
 50
158.2069790431445995
 51
197.5331986704084102
  0
ARC
  5
DC6E
  8
0
 10
820.1214607244346553
 20
158.5349617063452001
 30
0.0
 40
0.1298767736254559
 50
200.5179830735081055
 51
344.3333264853970945
  0
ARC
  5
DC6F
  8
0
 10
820.122278723517752
 20
158.6080770322733997
 30
0.0
 40
0.1072569178434093
 50
230.9234420817307978
 51
309.0858976138563889
  0
ARC
  5
DC70
  8
0
 10
819.8406935318023443
 20
158.8735584821000941
 30
0.0
 40
0.0822516096128875
 50
31.9343052039331496
 51
147.9488590954451013
  0
ARC
  5
DC71
  8
0
 10
819.816490986314534
 20
158.8951805859670969
 30
0.0
 40
0.0505619427262306
 50
154.1739161414884052
 51
217.6563262298346899
  0
ARC
  5
DC72
  8
0
 10
819.8401093691824144
 20
158.9180035251251866
 30
0.0
 40
0.0832830109487302
 50
220.1610742350601129
 51
327.6143658119669908
  0
ARC
  5
DC73
  8
0
 10
819.8656677340377428
 20
158.8952900964623041
 30
0.0
 40
0.049837718808672
 50
333.9401358109254829
 51
25.9075229513092395
  0
ARC
  5
DC74
  8
0
 10
819.587039074528434
 20
158.9329547510957923
 30
0.0
 40
0.3797330287698492
 50
354.3336865764420054
 51
358.451760692729124
  0
ARC
  5
DC75
  8
0
 10
819.8505414547365717
 20
158.9174794892037141
 30
0.0
 40
0.1162091116330515
 50
2.5722728349613342
 51
15.6103068334555903
  0
ARC
  5
DC76
  8
0
 10
819.8643530396742563
 20
158.9227782270235991
 30
0.0
 40
0.1014905984676923
 50
14.8274380667836301
 51
58.4300054997196696
  0
ARC
  5
DC77
  8
0
 10
819.8469692925267509
 20
158.8883972448061002
 30
0.0
 40
0.1399206628463394
 50
59.7359083767698422
 51
129.3166569745276036
  0
ARC
  5
DC78
  8
0
 10
819.834321559348723
 20
158.9015815478161073
 30
0.0
 40
0.1217152863059743
 50
128.6428560940499892
 51
159.7077580242334136
  0
ARC
  5
DC79
  8
0
 10
819.813321381189553
 20
158.9113070807754866
 30
0.0
 40
0.0986627043594172
 50
160.7757029526042913
 51
195.457034777871911
  0
ARC
  5
DC7A
  8
0
 10
819.8398649297745351
 20
158.9305339067960006
 30
0.0
 40
0.1298767736254559
 50
200.5179830735081055
 51
344.3333264853970945
  0
ARC
  5
DC7B
  8
0
 10
819.8406829288571771
 20
159.0036492327243138
 30
0.0
 40
0.1072569178434093
 50
230.9234420817307978
 51
309.0858976138563889
  0
ARC
  5
DC7C
  8
0
 10
820.1250149719184037
 20
158.7925365697886946
 30
0.0
 40
0.0601973984973952
 50
62.9958114561589895
 51
119.6329626965064961
  0
ARC
  5
DC7D
  8
0
 10
820.1269919525033174
 20
158.8099458378698898
 30
0.0
 40
0.0442173874508096
 50
342.3923573543214047
 51
55.0095919758124268
  0
ARC
  5
DC7E
  8
0
 10
820.0650802842883422
 20
158.8257662886040862
 30
0.0
 40
0.1080757666286763
 50
294.7439679466987172
 51
344.3271314437139949
  0
ARC
  5
DC7F
  8
0
 10
820.0792186396299712
 20
158.7855798091597137
 30
0.0
 40
0.0657816428756228
 50
249.236049271098409
 51
298.2129652894503238
  0
ARC
  5
DC80
  8
0
 10
820.0756936119393004
 20
158.7625628529455071
 30
0.0
 40
0.0432841210064932
 50
154.1964992448230021
 51
242.784053044111289
  0
ARC
  5
DC81
  8
0
 10
820.150493863126826
 20
158.7351936115520061
 30
0.0
 40
0.1227952772716887
 50
116.7359196679789051
 51
157.8941303445988069
  0
ARC
  5
DC82
  8
0
 10
820.1233752952711029
 20
158.8142243412964092
 30
0.0
 40
0.0264683187409004
 50
11.0700309945548891
 51
98.6413248974517956
  0
ARC
  5
DC83
  8
0
 10
820.088843781714786
 20
158.8074682829704898
 30
0.0
 40
0.0616545341182213
 50
299.4314648934856109
 51
11.0700309945556903
  0
ARC
  5
DC84
  8
0
 10
820.11034311393189
 20
158.7833135057518916
 30
0.0
 40
0.0308246929881645
 50
203.4937431529372986
 51
286.5812785059933958
  0
ARC
  5
DC85
  8
0
 10
820.1290033212663957
 20
158.7892882843298139
 30
0.0
 40
0.0503580088154135
 50
135.0225370511180927
 51
201.2638579476767973
  0
ARC
  5
DC86
  8
0
 10
820.1298027340216095
 20
158.7933611761818042
 30
0.0
 40
0.0481680991302413
 50
102.4741447161923986
 51
139.12522488344149
  0
ARC
  5
DC87
  8
0
 10
819.637232573741926
 20
159.1367095574969994
 30
0.0
 40
0.0601973984973952
 50
92.6578750294890341
 51
149.2950262698346933
  0
ARC
  5
DC88
  8
0
 10
819.6303349313327544
 20
159.1528158791300882
 30
0.0
 40
0.0442173874508096
 50
12.0544209276534602
 51
84.6716555491441341
  0
ARC
  5
DC89
  8
0
 10
819.5687069279705383
 20
159.1359241496701884
 30
0.0
 40
0.1080757666286763
 50
324.4060315200342757
 51
13.9891950170455903
  0
ARC
  5
DC8A
  8
0
 10
819.6008802069940202
 20
159.1080005693341946
 30
0.0
 40
0.0657816428756228
 50
278.8981128444240198
 51
327.8750288627832106
  0
ARC
  5
DC8B
  8
0
 10
819.6092078112694708
 20
159.0862552916717902
 30
0.0
 40
0.0432841210064932
 50
183.858562818154212
 51
272.4461166174476716
  0
ARC
  5
DC8C
  8
0
 10
819.6877507747165055
 20
159.0994899373102101
 30
0.0
 40
0.1227952772716887
 50
146.3979832413106976
 51
187.5561939179299031
  0
ARC
  5
DC8D
  8
0
 10
819.6250748426934933
 20
159.1547439010734877
 30
0.0
 40
0.0264683187409004
 50
40.7320945678879909
 51
128.3033884707830907
  0
ARC
  5
DC8E
  8
0
 10
819.5984118215462786
 20
159.1317840871396925
 30
0.0
 40
0.0616545341182213
 50
329.0935284668194072
 51
40.7320945678896678
  0
ARC
  5
DC8F
  8
0
 10
819.629047666720794
 20
159.1214342301989859
 30
0.0
 40
0.0308246929881645
 50
233.1558067262681959
 51
316.2433420793266805
  0
ARC
  5
DC90
  8
0
 10
819.64230580993285
 20
159.1358606973824124
 30
0.0
 40
0.0503580088154135
 50
164.684600624447512
 51
230.9259215210084051
  0
ARC
  5
DC91
  8
0
 10
819.640984860470212
 20
159.139795491062813
 30
0.0
 40
0.0481680991302413
 50
132.1362082895279002
 51
168.7872884567717904
  0
ARC
  5
DC92
  8
0
 10
819.4240534297384784
 20
157.9570181431126059
 30
0.0
 40
0.0772809869756428
 50
201.2555266442977882
 51
342.0041807947578718
  0
ARC
  5
DC93
  8
0
 10
819.5165426028773936
 20
157.9586493684113009
 30
0.0
 40
0.16716310091002
 50
180.8045501182517967
 51
190.2159184622894088
  0
ARC
  5
DC94
  8
0
 10
819.4245396749024621
 20
157.9338836629106027
 30
0.0
 40
0.0784165949062377
 50
16.4005410433088485
 51
163.3879826671183082
  0
ARC
  5
DC95
  8
0
 10
819.2561380026670577
 20
157.9680261042279881
 30
0.0
 40
0.2439230250639864
 50
351.7778681117724204
 51
357.179800364372511
  0
ARC
  5
DC96
  8
0
 10
819.4243996883850514
 20
157.944763819750392
 30
0.0
 40
0.0431846197232179
 50
211.6954608850421096
 51
328.9022286657095719
  0
ARC
  5
DC97
  8
0
 10
819.412270900034855
 20
157.9335763595742037
 30
0.0
 40
0.027169664082258
 50
131.4516354839296923
 51
205.0454423078010109
  0
ARC
  5
DC98
  8
0
 10
819.4238995365933533
 20
157.9214387504850947
 30
0.0
 40
0.0439702669563726
 50
31.4971564532090298
 51
132.3389074132201131
  0
ARC
  5
DC99
  8
0
 10
819.4376051475067015
 20
157.9334496076635048
 30
0.0
 40
0.0261906225362866
 50
335.1881095642175978
 51
24.7421095180455808
  0
ARC
  5
DC9A
  8
0
 10
819.4239983099256506
 20
157.9961716011542876
 30
0.0
 40
0.048298112693925
 50
235.9182855799967911
 51
303.9302604952146112
  0
ARC
  5
DC9B
  8
0
 10
819.3131323343294525
 20
159.035901968339914
 30
0.0
 40
0.0822516096128875
 50
32.0511409045548916
 51
148.0656947960667935
  0
ARC
  5
DC9C
  8
0
 10
819.3373348798172628
 20
159.0575240722068884
 30
0.0
 40
0.0505619427262306
 50
322.3436737701653101
 51
25.826083858511641
  0
ARC
  5
DC9D
  8
0
 10
819.313716496949155
 20
159.0803470113650064
 30
0.0
 40
0.0832830109487302
 50
212.3856341880330092
 51
319.8389257649399156
  0
ARC
  5
DC9E
  8
0
 10
819.2881581320942814
 20
159.0576335827020955
 30
0.0
 40
0.049837718808672
 50
154.092477048690796
 51
206.0598641890744886
  0
ARC
  5
DC9F
  8
0
 10
819.5667867916033629
 20
159.0952982373356974
 30
0.0
 40
0.3797330287698492
 50
181.5482393072709044
 51
185.6663134235579946
  0
ARC
  5
DCA0
  8
0
 10
819.2800523588186934
 20
159.0821996970491909
 30
0.0
 40
0.0929033460557986
 50
161.873718741495594
 51
178.2490368130123954
  0
ARC
  5
DCA1
  8
0
 10
819.2871658488559206
 20
159.0822505112789997
 30
0.0
 40
0.0996736632652254
 50
114.2005056860798931
 51
163.1737519417756062
  0
ARC
  5
DCA2
  8
0
 10
819.3074563939547943
 20
159.0527439231470055
 30
0.0
 40
0.1350571133250742
 50
46.372084012237508
 51
116.921576355071295
  0
ARC
  5
DCA3
  8
0
 10
819.3542392199274218
 20
159.0842036177961916
 30
0.0
 40
0.080924928795992
 50
11.1067970087145103
 51
55.0119194483669176
  0
ARC
  5
DCA4
  8
0
 10
819.3612486202739547
 20
159.070845243866188
 30
0.0
 40
0.0779723945746911
 50
342.4668013295914761
 51
21.7930209568553686
  0
ARC
  5
DCA5
  8
0
 10
819.3139609363572617
 20
159.092877393035792
 30
0.0
 40
0.1298767736254559
 50
195.6666735146023939
 51
339.4820169264918945
  0
ARC
  5
DCA6
  8
0
 10
819.3131429372743924
 20
159.1659927189641053
 30
0.0
 40
0.1072569178434093
 50
230.9141023861436111
 51
309.0765579182692022
  0
ARC
  5
DCA7
  8
0
 10
819.306107335827619
 20
157.1743449317403929
 30
0.0
 40
0.0725996426393495
 50
202.9996329032634037
 51
337.5930983215491779
  0
ARC
  5
DCA8
  8
0
 10
819.3063825160717215
 20
157.139825641164407
 30
0.0
 40
0.0260981086981234
 50
35.5073421940816516
 51
148.4074057504666939
  0
ARC
  5
DCA9
  8
0
 10
819.2989232211598392
 20
157.1467414216070893
 30
0.0
 40
0.0162428223976449
 50
155.4201238342209876
 51
225.0587593210692035
  0
ARC
  5
DCAA
  8
0
 10
819.3057840838989705
 20
157.1532163261983897
 30
0.0
 40
0.0256739042679807
 50
224.4281109176079951
 51
337.8292345809160224
  0
ARC
  5
DCAB
  8
0
 10
819.3140628437976147
 20
157.1468047530663057
 30
0.0
 40
0.015839578922429
 50
348.0602295994187898
 51
31.088126226717069
  0
ARC
  5
DCAC
  8
0
 10
819.348090650255358
 20
157.181543705691297
 30
0.0
 40
0.0337650044807902
 50
343.7949915018152183
 51
23.0440828172594614
  0
ARC
  5
DCAD
  8
0
 10
819.3077287893901257
 20
157.1405425590889138
 30
0.0
 40
0.0896783762910285
 50
37.1988990159774673
 51
146.7295000619390919
  0
ARC
  5
DCAE
  8
0
 10
819.2646382290143947
 20
157.1787246257451898
 30
0.0
 40
0.0337373762459863
 50
160.944319832408695
 51
196.8765854464444942
  0
LINE
  5
DCAF
  8
0
 10
819.2392788306722196
 20
157.1459784196167959
 30
0.0
 11
819.2323538438721471
 21
157.1689302890167994
 31
0.0
  0
LINE
  5
DCB0
  8
0
 10
819.3732257144722553
 20
157.1466712735168016
 30
0.0
 11
819.3805141472721516
 21
157.1721207354167973
 31
0.0
  0
ARC
  5
DCB1
  8
0
 10
819.3081080786492976
 20
157.3672254342961878
 30
0.0
 40
0.0725996426393495
 50
202.9996329032634037
 51
337.5930983215491779
  0
ARC
  5
DCB2
  8
0
 10
819.3083832588931728
 20
157.3327061437202019
 30
0.0
 40
0.0260981086981234
 50
35.5073421940816516
 51
148.4074057504666939
  0
ARC
  5
DCB3
  8
0
 10
819.3009239639815178
 20
157.3396219241627989
 30
0.0
 40
0.0162428223976449
 50
155.4201238342209876
 51
225.0587593210692035
  0
ARC
  5
DCB4
  8
0
 10
819.3077848267206491
 20
157.3460968287540993
 30
0.0
 40
0.0256739042679807
 50
224.4281109176079951
 51
337.8292345809160224
  0
ARC
  5
DCB5
  8
0
 10
819.3160635866191797
 20
157.3396852556221006
 30
0.0
 40
0.015839578922429
 50
348.0602295994187898
 51
31.088126226717069
  0
ARC
  5
DCB6
  8
0
 10
819.3500913930771503
 20
157.3744242082470919
 30
0.0
 40
0.0337650044807902
 50
343.7949915018152183
 51
23.0440828172594614
  0
ARC
  5
DCB7
  8
0
 10
819.309729532211577
 20
157.333423061644595
 30
0.0
 40
0.0896783762910285
 50
37.1988990159774673
 51
146.7295000619390919
  0
ARC
  5
DCB8
  8
0
 10
819.2666389718360733
 20
157.3716051283008994
 30
0.0
 40
0.0337373762459863
 50
160.944319832408695
 51
196.8765854464444942
  0
LINE
  5
DCB9
  8
0
 10
819.2412795734937845
 20
157.3388589221725056
 30
0.0
 11
819.2343545866940531
 21
157.3618107915725091
 31
0.0
  0
LINE
  5
DCBA
  8
0
 10
819.3752264572939339
 20
157.3395517760725966
 30
0.0
 11
819.3825148900938302
 21
157.3650012379725922
 31
0.0
  0
ARC
  5
DCBB
  8
0
 10
818.8271152012142693
 20
158.0701610164279884
 30
0.0
 40
0.0078940000651501
 50
109.6037649949096959
 51
203.9201953425076113
  0
ARC
  5
DCBC
  8
0
 10
819.0542097453793531
 20
156.7459557780250918
 30
0.0
 40
1.351314697925168
 50
63.9843648528315612
 51
99.7886618958116145
  0
ARC
  5
DCBD
  8
0
 10
819.6397598754273304
 20
157.9504331828115937
 30
0.0
 40
0.012228807681982
 50
340.5231720916672771
 51
54.1692617537302397
  0
ARC
  5
DCBE
  8
0
 10
818.8452415948570433
 20
158.4450339191986075
 30
0.0
 40
0.0772809869756428
 50
197.9958192052419861
 51
338.7444733557022118
  0
ARC
  5
DCBF
  8
0
 10
818.7527524217185828
 20
158.4466651444973024
 30
0.0
 40
0.16716310091002
 50
349.7840815377105059
 51
359.1954498817481181
  0
ARC
  5
DCC0
  8
0
 10
818.8447553496932869
 20
158.4218994389964905
 30
0.0
 40
0.0784165949062377
 50
16.6120173328816882
 51
163.5994589566911088
  0
ARC
  5
DCC1
  8
0
 10
819.0131570219289188
 20
158.4560418803139896
 30
0.0
 40
0.2439230250639864
 50
182.820199635627489
 51
188.222131888227608
  0
ARC
  5
DCC2
  8
0
 10
818.844895336210584
 20
158.4327795958363936
 30
0.0
 40
0.0431846197232179
 50
211.0977713342902859
 51
328.3045391149578904
  0
ARC
  5
DCC3
  8
0
 10
818.8570241245610077
 20
158.4215921356602053
 30
0.0
 40
0.027169664082258
 50
334.9545576921991028
 51
48.5483645160690216
  0
ARC
  5
DCC4
  8
0
 10
818.8453954880028505
 20
158.4094545265710963
 30
0.0
 40
0.0439702669563726
 50
47.6610925867799011
 51
148.5028435467910128
  0
ARC
  5
DCC5
  8
0
 10
818.8316898770890475
 20
158.4214653837493927
 30
0.0
 40
0.0261906225362866
 50
155.257890481954405
 51
204.8118904357824022
  0
ARC
  5
DCC6
  8
0
 10
818.8452967146703259
 20
158.4841873772402039
 30
0.0
 40
0.048298112693925
 50
236.0697395047853036
 51
304.0817144200032089
  0
ARC
  5
DCC7
  8
0
 10
818.9224330779582033
 20
158.598940022537306
 30
0.0
 40
0.0772809869756428
 50
197.9958192052419861
 51
338.7444733557022118
  0
ARC
  5
DCC8
  8
0
 10
818.8299439048197428
 20
158.600571247836001
 30
0.0
 40
0.16716310091002
 50
349.7840815377105059
 51
359.1954498817481181
  0
ARC
  5
DCC9
  8
0
 10
818.9219468327944469
 20
158.5758055423353028
 30
0.0
 40
0.0784165949062377
 50
16.6120173328816882
 51
163.5994589566911088
  0
ARC
  5
DCCA
  8
0
 10
819.0903485050301924
 20
158.6099479836526882
 30
0.0
 40
0.2439230250639864
 50
182.820199635627489
 51
188.222131888227608
  0
ARC
  5
DCCB
  8
0
 10
818.922086819311744
 20
158.5866856991750922
 30
0.0
 40
0.0431846197232179
 50
211.0977713342902859
 51
328.3045391149578904
  0
ARC
  5
DCCC
  8
0
 10
818.934215607662054
 20
158.5754982389989038
 30
0.0
 40
0.027169664082258
 50
334.9545576921991028
 51
48.5483645160690216
  0
ARC
  5
DCCD
  8
0
 10
818.9225869711038968
 20
158.5633606299097949
 30
0.0
 40
0.0439702669563726
 50
47.6610925867799011
 51
148.5028435467910128
  0
ARC
  5
DCCE
  8
0
 10
818.9088813601903212
 20
158.575371487088205
 30
0.0
 40
0.0261906225362866
 50
155.257890481954405
 51
204.8118904357824022
  0
ARC
  5
DCCF
  8
0
 10
818.9224881977714858
 20
158.6380934805789877
 30
0.0
 40
0.048298112693925
 50
236.0697395047853036
 51
304.0817144200032089
  0
ARC
  5
DCD0
  8
0
 10
819.0970271006002577
 20
158.6881352318291079
 30
0.0
 40
0.0772809869756428
 50
197.9958192052419861
 51
338.7444733557022118
  0
ARC
  5
DCD1
  8
0
 10
819.0045379274614561
 20
158.6897664571278028
 30
0.0
 40
0.16716310091002
 50
349.7840815377105059
 51
359.1954498817481181
  0
ARC
  5
DCD2
  8
0
 10
819.0965408554361602
 20
158.6650007516271046
 30
0.0
 40
0.0784165949062377
 50
16.6120173328816882
 51
163.5994589566911088
  0
ARC
  5
DCD3
  8
0
 10
819.2649425276715647
 20
158.69914319294449
 30
0.0
 40
0.2439230250639864
 50
182.820199635627489
 51
188.222131888227608
  0
ARC
  5
DCD4
  8
0
 10
819.0966808419537983
 20
158.675880908466894
 30
0.0
 40
0.0431846197232179
 50
211.0977713342902859
 51
328.3045391149578904
  0
ARC
  5
DCD5
  8
0
 10
819.1088096303039947
 20
158.6646934482907056
 30
0.0
 40
0.027169664082258
 50
334.9545576921991028
 51
48.5483645160690216
  0
ARC
  5
DCD6
  8
0
 10
819.0971809937456101
 20
158.6525558392017103
 30
0.0
 40
0.0439702669563726
 50
47.6610925867799011
 51
148.5028435467910128
  0
ARC
  5
DCD7
  8
0
 10
819.0834753828321482
 20
158.6645666963798931
 30
0.0
 40
0.0261906225362866
 50
155.257890481954405
 51
204.8118904357824022
  0
ARC
  5
DCD8
  8
0
 10
819.0970822204134265
 20
158.7272886898707043
 30
0.0
 40
0.048298112693925
 50
236.0697395047853036
 51
304.0817144200032089
  0
ARC
  5
DCD9
  8
0
 10
818.5350854252754971
 20
159.0314933699077926
 30
0.0
 40
0.7532052123071366
 50
284.314334451712682
 51
343.8007019229871162
  0
ARC
  5
DCDA
  8
0
 10
819.7900693639088558
 20
158.3102859679644894
 30
0.0
 40
0.0772809869756428
 50
201.2555266442977882
 51
342.0041807947578718
  0
ARC
  5
DCDB
  8
0
 10
819.8825585370475437
 20
158.3119171932632128
 30
0.0
 40
0.16716310091002
 50
180.8045501182517967
 51
190.2159184622894088
  0
ARC
  5
DCDC
  8
0
 10
819.7905556090724986
 20
158.2871514877624861
 30
0.0
 40
0.0784165949062377
 50
16.4005410433088485
 51
163.3879826671183082
  0
ARC
  5
DCDD
  8
0
 10
819.6221539368370941
 20
158.3212939290799
 30
0.0
 40
0.2439230250639864
 50
351.7778681117724204
 51
357.179800364372511
  0
ARC
  5
DCDE
  8
0
 10
819.7904156225552015
 20
158.2980316446023039
 30
0.0
 40
0.0431846197232179
 50
211.6954608850421096
 51
328.9022286657095719
  0
ARC
  5
DCDF
  8
0
 10
819.7782868342050051
 20
158.2868441844260872
 30
0.0
 40
0.027169664082258
 50
131.4516354839296923
 51
205.0454423078010109
  0
ARC
  5
DCE0
  8
0
 10
819.7899154707633897
 20
158.2747065753370066
 30
0.0
 40
0.0439702669563726
 50
31.4971564532090298
 51
132.3389074132201131
  0
ARC
  5
DCE1
  8
0
 10
819.8036210816769653
 20
158.2867174325153883
 30
0.0
 40
0.0261906225362866
 50
335.1881095642175978
 51
24.7421095180455808
  0
ARC
  5
DCE2
  8
0
 10
819.790014244095687
 20
158.3494394260061995
 30
0.0
 40
0.048298112693925
 50
235.9182855799967911
 51
303.9302604952146112
  0
ARC
  5
DCE3
  8
0
 10
819.7823012203234612
 20
158.4770271401962987
 30
0.0
 40
0.0772809869756428
 50
201.2555266442977882
 51
342.0041807947578718
  0
ARC
  5
DCE4
  8
0
 10
819.874790393462149
 20
158.4786583654949084
 30
0.0
 40
0.16716310091002
 50
180.8045501182517967
 51
190.2159184622894088
  0
ARC
  5
DCE5
  8
0
 10
819.7827874654874449
 20
158.4538926599942101
 30
0.0
 40
0.0784165949062377
 50
16.4005410433088485
 51
163.3879826671183082
  0
ARC
  5
DCE6
  8
0
 10
819.6143857932518131
 20
158.4880351013117092
 30
0.0
 40
0.2439230250639864
 50
351.7778681117724204
 51
357.179800364372511
  0
ARC
  5
DCE7
  8
0
 10
819.7826474789702615
 20
158.4647728168339995
 30
0.0
 40
0.0431846197232179
 50
211.6954608850421096
 51
328.9022286657095719
  0
ARC
  5
DCE8
  8
0
 10
819.7705186906198378
 20
158.4535853566578965
 30
0.0
 40
0.027169664082258
 50
131.4516354839296923
 51
205.0454423078010109
  0
ARC
  5
DCE9
  8
0
 10
819.7821473271782224
 20
158.4414477475687875
 30
0.0
 40
0.0439702669563726
 50
31.4971564532090298
 51
132.3389074132201131
  0
ARC
  5
DCEA
  8
0
 10
819.795852938091457
 20
158.4534586047471123
 30
0.0
 40
0.0261906225362866
 50
335.1881095642175978
 51
24.7421095180455808
  0
ARC
  5
DCEB
  8
0
 10
819.7822461005106334
 20
158.5161805982378951
 30
0.0
 40
0.048298112693925
 50
235.9182855799967911
 51
303.9302604952146112
  0
ARC
  5
DCEC
  8
0
 10
819.6544003014131476
 20
158.6099847549133131
 30
0.0
 40
0.0772809869756428
 50
201.2555266442977882
 51
342.0041807947578718
  0
ARC
  5
DCED
  8
0
 10
819.7468894745519492
 20
158.611615980212008
 30
0.0
 40
0.16716310091002
 50
180.8045501182517967
 51
190.2159184622894088
  0
ARC
  5
DCEE
  8
0
 10
819.6548865465771314
 20
158.5868502747113098
 30
0.0
 40
0.0784165949062377
 50
16.4005410433088485
 51
163.3879826671183082
  0
ARC
  5
DCEF
  8
0
 10
819.4864848743417269
 20
158.6209927160286952
 30
0.0
 40
0.2439230250639864
 50
351.7778681117724204
 51
357.179800364372511
  0
ARC
  5
DCF0
  8
0
 10
819.654746560059607
 20
158.5977304315510992
 30
0.0
 40
0.0431846197232179
 50
211.6954608850421096
 51
328.9022286657095719
  0
ARC
  5
DCF1
  8
0
 10
819.6426177717092969
 20
158.5865429713749108
 30
0.0
 40
0.027169664082258
 50
131.4516354839296923
 51
205.0454423078010109
  0
ARC
  5
DCF2
  8
0
 10
819.6542464082677952
 20
158.5744053622858019
 30
0.0
 40
0.0439702669563726
 50
31.4971564532090298
 51
132.3389074132201131
  0
ARC
  5
DCF3
  8
0
 10
819.6679520191813708
 20
158.586416219464212
 30
0.0
 40
0.0261906225362866
 50
335.1881095642175978
 51
24.7421095180455808
  0
ARC
  5
DCF4
  8
0
 10
819.6543451815998651
 20
158.6491382129549947
 30
0.0
 40
0.048298112693925
 50
235.9182855799967911
 51
303.9302604952146112
  0
ARC
  5
DCF5
  8
0
 10
819.844985395471781
 20
158.149785028226006
 30
0.0
 40
0.0088201434793807
 50
241.8545879158671994
 51
284.1778948180557904
  0
ARC
  5
DCF6
  8
0
 10
820.2079815486691814
 20
158.6902146736098871
 30
0.0
 40
0.6597990490900333
 50
172.0820664341572126
 51
236.1881495755262108
  0
ARC
  5
DCF7
  8
0
 10
819.5626417211012722
 20
158.7791310865011098
 30
0.0
 40
0.0084040604833896
 50
78.3929927245541762
 51
166.4156280938142913
  0
ARC
  5
DCF8
  8
0
 10
819.3068763168450914
 20
158.2309135252131966
 30
0.0
 40
0.3249116517642824
 50
89.8473982549931236
 51
111.928601562500404
  0
ARC
  5
DCF9
  8
0
 10
819.2831430951523544
 20
158.2898667144708043
 30
0.0
 40
0.2613605358372422
 50
111.928601562500404
 51
146.974943665940998
  0
ARC
  5
DCFA
  8
0
 10
819.2182220032038913
 20
158.338316843900401
 30
0.0
 40
0.1805990237876126
 50
148.6375204302260897
 51
213.305159845944587
  0
ARC
  5
DCFB
  8
0
 10
819.2939974099693927
 20
158.3977058674283001
 30
0.0
 40
0.2766557844108264
 50
214.967736610227206
 51
266.6736635759741034
  0
ARC
  5
DCFC
  8
0
 10
819.307741591635704
 20
158.4538204136968886
 30
0.0
 40
0.3336374372990427
 50
264.8761907371742268
 51
270.000016286270295
  0
ARC
  5
DCFD
  8
0
 10
819.3075277024584011
 20
158.2302630704587898
 30
0.0
 40
0.3226907865645392
 50
89.9620057921172531
 51
107.7890376605509033
  0
ARC
  5
DCFE
  8
0
 10
819.2920794470825285
 20
158.2784103998675107
 30
0.0
 40
0.2721258389886473
 50
107.7890376605509033
 51
139.8441533388499067
  0
ARC
  5
DCFF
  8
0
 10
819.2214348572590552
 20
158.3380164496622911
 30
0.0
 40
0.1796945713167455
 50
139.8441533388499067
 51
217.1234005733408026
  0
ARC
  5
DD00
  8
0
 10
819.2869979451378413
 20
158.387643529648102
 30
0.0
 40
0.2619220944467242
 50
217.1234005733408026
 51
248.1290451162363127
  0
ARC
  5
DD01
  8
0
 10
819.3066168836061252
 20
158.4365187509519899
 30
0.0
 40
0.3145879278126928
 50
248.1290451162363127
 51
270.2048603512288878
  0
ARC
  5
DD02
  8
0
 10
819.3086070560665348
 20
158.2309135252131966
 30
0.0
 40
0.3249116517642824
 50
68.0713984374995817
 51
90.152601745013385
  0
ARC
  5
DD03
  8
0
 10
819.3323402777594993
 20
158.2898667144708043
 30
0.0
 40
0.2613605358372422
 50
33.0250563340589594
 51
68.0713984374995817
  0
ARC
  5
DD04
  8
0
 10
819.397261369707735
 20
158.338316843900401
 30
0.0
 40
0.1805990237876126
 50
326.6948401540500981
 51
31.3624795697738286
  0
ARC
  5
DD05
  8
0
 10
819.3214859629422335
 20
158.3977058674283001
 30
0.0
 40
0.2766557844108264
 50
273.3263364240260103
 51
325.0322633897728224
  0
ARC
  5
DD06
  8
0
 10
819.3077417812759222
 20
158.4538204136968886
 30
0.0
 40
0.3336374372990427
 50
269.9999837192272025
 51
275.1238092628257732
  0
ARC
  5
DD07
  8
0
 10
819.3079556704532251
 20
158.2302630704587898
 30
0.0
 40
0.3226907865645392
 50
72.2109623394491393
 51
90.0379942078827611
  0
ARC
  5
DD08
  8
0
 10
819.3234039258294388
 20
158.2784103998675107
 30
0.0
 40
0.2721258389886473
 50
40.155846661150072
 51
72.2109623394491393
  0
ARC
  5
DD09
  8
0
 10
819.394048515652571
 20
158.3380164496622911
 30
0.0
 40
0.1796945713167455
 50
322.8765994266593111
 51
40.155846661150072
  0
ARC
  5
DD0A
  8
0
 10
819.328485427773785
 20
158.387643529648102
 30
0.0
 40
0.2619220944467242
 50
291.8709548837636021
 51
322.8765994266593111
  0
ARC
  5
DD0B
  8
0
 10
819.3088664893055011
 20
158.4365187509519899
 30
0.0
 40
0.3145879278126928
 50
269.7951396487709985
 51
291.8709548837636021
  0
ARC
  5
DD0C
  8
0
 10
819.7538444226978527
 20
158.0492144074470957
 30
0.0
 40
0.0055074247646725
 50
247.5206598387125041
 51
9.3487057406620586
  0
ARC
  5
DD0D
  8
0
 10
819.5648007982625813
 20
157.182179637000786
 30
0.0
 40
0.8819843247343904
 50
77.7632630677120602
 51
91.9651645984947947
  0
ARC
  5
DD0E
  8
0
 10
819.5328423671561495
 20
158.0715654740118907
 30
0.0
 40
0.0081034838899971
 50
190.1932715547972919
 51
282.2077678274840764
  0
ARC
  5
DD0F
  8
0
 10
819.5910126547123582
 20
158.0749319077845882
 30
0.0
 40
0.0663198373571134
 50
180.2776310818912009
 51
184.1509325489732021
  0
ARC
  5
DD10
  8
0
 10
819.5318924008499835
 20
158.0727528827200103
 30
0.0
 40
0.0074346300761709
 50
109.7352500733441047
 51
165.5303597997852023
  0
ARC
  5
DD11
  8
0
 10
819.5344555719739219
 20
158.0681532113173944
 30
0.0
 40
0.0126588552915541
 50
92.3686718754863563
 51
113.6281321253913035
  0
ARC
  5
DD12
  8
0
 10
819.5727265515929503
 20
157.2249708909095034
 30
0.0
 40
0.8567091639281713
 50
81.0791626134196832
 51
92.5953989665442663
  0
ARC
  5
DD13
  8
0
 10
819.7063680367317602
 20
158.0773243325097042
 30
0.0
 40
0.0060593954603923
 50
262.4908357222547011
 51
27.82181073608497
  0
ARC
  5
DD14
  8
0
 10
820.009440680160651
 20
158.2698412823604031
 30
0.0
 40
0.3530089486588246
 50
190.5107397898416934
 51
212.5033329693710868
  0
ARC
  5
DD15
  8
0
 10
819.669768657045438
 20
158.2056278675512999
 30
0.0
 40
0.0074159373905587
 50
118.4400374155411981
 51
181.4095016769726101
  0
ARC
  5
DD16
  8
0
 10
819.7170493416571162
 20
158.0169992890205037
 30
0.0
 40
0.2016562511791256
 50
101.9336777729835006
 51
104.5944449566164991
  0
ARC
  5
DD17
  8
0
 10
819.6776389624083095
 20
158.2059138739778064
 30
0.0
 40
0.0086899966108781
 50
20.3290175700307216
 51
105.2651717585862059
  0
ARC
  5
DD18
  8
0
 10
820.0435792796077976
 20
158.2780755110995869
 30
0.0
 40
0.3644112087260125
 50
190.9374923740093948
 51
218.7243874582667047
  0
ARC
  5
DD19
  8
0
 10
818.7608586537793371
 20
158.1916797577792977
 30
0.0
 40
0.0061739146159843
 50
185.552308278262899
 51
267.7402184767910853
  0
ARC
  5
DD1A
  8
0
 10
818.7322270312430419
 20
157.4661138532532902
 30
0.0
 40
0.7199566876998654
 50
70.1233329552794373
 51
87.7402184767976649
  0
ARC
  5
DD1B
  8
0
 10
818.9807331789902491
 20
158.1534789803837953
 30
0.0
 40
0.010951051664758
 50
250.1233329552794089
 51
320.7101244698002915
  0
ARC
  5
DD1C
  8
0
 10
819.0274968376824063
 20
158.1286534145783946
 30
0.0
 40
0.0422617995489603
 50
149.0479222028299944
 51
154.9547134443558036
  0
ARC
  5
DD1D
  8
0
 10
818.9847934240909808
 20
158.1523284935757943
 30
0.0
 40
0.0067445080689238
 50
343.292511177347194
 51
80.5222367966695458
  0
ARC
  5
DD1E
  8
0
 10
818.7116971908729965
 20
157.3579783442959865
 30
0.0
 40
0.8466371894344588
 50
71.102411739096965
 51
82.7819180939767278
  0
ARC
  5
DD1F
  8
0
 10
818.8198037121841253
 20
158.203694082073099
 30
0.0
 40
0.0060409805769947
 50
150.4280857233844984
 51
253.3620930363939863
  0
ARC
  5
DD20
  8
0
 10
818.5469625799721598
 20
158.5714522201589887
 30
0.0
 40
0.4523991240742711
 50
306.2624235017412957
 51
324.961401177485584
  0
ARC
  5
DD21
  8
0
 10
818.9126763400820437
 20
158.3154869123837898
 30
0.0
 40
0.0060211525060833
 50
321.2379981220709055
 51
76.9971917650115785
  0
ARC
  5
DD22
  8
0
 10
818.8540143047447373
 20
158.198138186285604
 30
0.0
 40
0.1370549957885587
 50
64.0298422935300096
 51
66.5557647857259553
  0
ARC
  5
DD23
  8
0
 10
818.9043396068431093
 20
158.3139728423712995
 30
0.0
 40
0.0107608512531675
 50
67.0098603124187946
 51
139.6721976053827916
  0
ARC
  5
DD24
  8
0
 10
818.5515201244628543
 20
158.5572602883800926
 30
0.0
 40
0.4178622912500534
 50
299.3206780299470893
 51
325.5592680688667997
  0
ARC
  5
DD25
  8
0
 10
818.7585604960754608
 20
158.1895777744443876
 30
0.0
 40
0.0041305820799262
 50
125.7689319173230018
 51
158.6375976909523899
  0
ARC
  5
DD26
  8
0
 10
819.4087193251692725
 20
158.8132545867671865
 30
0.0
 40
0.0065167057836123
 50
22.9715244467453914
 51
146.6001009282122141
  0
ARC
  5
DD27
  8
0
 10
818.9680266846132781
 20
159.1038367296191041
 30
0.0
 40
0.5213544765938647
 50
304.0751436623303903
 51
326.6001009282152268
  0
ARC
  5
DD28
  8
0
 10
819.2640073566051342
 20
158.6662663239129927
 30
0.0
 40
0.0069185760433966
 50
124.0751436623208974
 51
182.1927524750234113
  0
ARC
  5
DD29
  8
0
 10
819.2635227211839037
 20
158.6658117108902104
 30
0.0
 40
0.0064316786295095
 50
178.3080673181968905
 51
223.7380730868542003
  0
ARC
  5
DD2A
  8
0
 10
819.2446076174852578
 20
158.6470122124412114
 30
0.0
 40
0.0202382208535997
 50
32.3578779876534171
 51
45.1695800760272519
  0
ARC
  5
DD2B
  8
0
 10
819.2691855174125521
 20
158.665873681841191
 30
0.0
 40
0.010975537494693
 50
227.0218476599854114
 51
302.7631549950057206
  0
ARC
  5
DD2C
  8
0
 10
818.9771082086206206
 20
159.1010303962285093
 30
0.0
 40
0.5350637167664593
 50
303.8468301116886892
 51
321.0586867968706883
  0
ARC
  5
DD2D
  8
0
 10
819.3979997797898704
 20
158.7602338804879878
 30
0.0
 40
0.0065217921574245
 50
27.1320981107657886
 51
136.4176198858650082
  0
ARC
  5
DD2E
  8
0
 10
819.8442478407357612
 20
158.9017101849977962
 30
0.0
 40
0.4617073686998829
 50
197.4562856895252025
 51
216.2704426939014013
  0
ARC
  5
DD2F
  8
0
 10
819.4798901276478773
 20
158.6350671060812942
 30
0.0
 40
0.010220877381867
 50
219.5036078176761976
 51
301.4911140272383818
  0
ARC
  5
DD30
  8
0
 10
-59.2834567951490428
 20
1729.1933558634671044
 30
0.0
 40
1799.6986187911988964
 50
299.2280256214473866
 51
299.2281671662389044
  0
ARC
  5
DD31
  8
0
 10
819.4858769969182504
 20
158.6352626077593015
 30
0.0
 40
0.0074750241121041
 50
295.6194057472829968
 51
31.2152569959560786
  0
ARC
  5
DD32
  8
0
 10
819.8496058502089454
 20
158.9013517298560885
 30
0.0
 40
0.4432220844018732
 50
191.129491472502707
 51
216.2714283615092086
  0
ARC
  5
DD33
  8
0
 10
819.3070098970699746
 20
159.5323628325118932
 30
0.0
 40
0.0725996426393495
 50
202.9996329032634037
 51
337.5930983215491779
  0
ARC
  5
DD34
  8
0
 10
819.3072850773140772
 20
159.4978435419359073
 30
0.0
 40
0.0260981086981234
 50
35.5073421940816516
 51
148.4074057504666939
  0
ARC
  5
DD35
  8
0
 10
819.2998257824021948
 20
159.5047593223785043
 30
0.0
 40
0.0162428223976449
 50
155.4201238342209876
 51
225.0587593210692035
  0
ARC
  5
DD36
  8
0
 10
819.3066866451416672
 20
159.5112342269698047
 30
0.0
 40
0.0256739042679807
 50
224.4281109176079951
 51
337.8292345809160224
  0
ARC
  5
DD37
  8
0
 10
819.3149654050400841
 20
159.504822653837806
 30
0.0
 40
0.015839578922429
 50
348.0602295994187898
 51
31.088126226717069
  0
ARC
  5
DD38
  8
0
 10
819.3489932114980547
 20
159.539561606462712
 30
0.0
 40
0.0337650044807902
 50
343.7949915018152183
 51
23.0440828172594614
  0
ARC
  5
DD39
  8
0
 10
819.3076231154637981
 20
159.5279591980101088
 30
0.0
 40
0.0765745912406229
 50
18.9122687024715788
 51
165.0161303754439928
  0
ARC
  5
DD3A
  8
0
 10
819.2655407902569777
 20
159.5367425265166048
 30
0.0
 40
0.0337373762459863
 50
160.944319832408695
 51
196.8765854464444942
  0
LINE
  5
DD3B
  8
0
 10
819.2401813919149163
 20
159.5039963203882962
 30
0.0
 11
819.2332564051147301
 21
159.5269481897882997
 31
0.0
  0
LINE
  5
DD3C
  8
0
 10
819.374128275714952
 20
159.504689174288302
 30
0.0
 11
819.3814167085147346
 21
159.5301386361882976
 31
0.0
  0
ARC
  5
DD3D
  8
0
 10
819.3080336085268982
 20
160.0469969090204074
 30
0.0
 40
0.0725996426393495
 50
202.9996329032634037
 51
337.5930983215491779
  0
ARC
  5
DD3E
  8
0
 10
819.3083087887711145
 20
160.0124776184443931
 30
0.0
 40
0.0260981086981234
 50
35.5073421940816516
 51
148.4074057504666939
  0
ARC
  5
DD3F
  8
0
 10
819.3008494938593458
 20
160.0193933988869901
 30
0.0
 40
0.0162428223976449
 50
155.4201238342209876
 51
225.0587593210692035
  0
ARC
  5
DD40
  8
0
 10
819.3077103565982497
 20
160.0258683034782905
 30
0.0
 40
0.0256739042679807
 50
224.4281109176079951
 51
337.8292345809160224
  0
ARC
  5
DD41
  8
0
 10
819.3159891164966666
 20
160.0194567303462918
 30
0.0
 40
0.015839578922429
 50
348.0602295994187898
 51
31.088126226717069
  0
ARC
  5
DD42
  8
0
 10
819.3500169229548646
 20
160.0541956829713115
 30
0.0
 40
0.0337650044807902
 50
343.7949915018152183
 51
23.0440828172594614
  0
ARC
  5
DD43
  8
0
 10
819.3086468269204943
 20
160.0425932745185946
 30
0.0
 40
0.0765745912406229
 50
18.9122687024715788
 51
165.0161303754439928
  0
ARC
  5
DD44
  8
0
 10
819.2665645017137876
 20
160.0513766030250906
 30
0.0
 40
0.0337373762459863
 50
160.944319832408695
 51
196.8765854464444942
  0
LINE
  5
DD45
  8
0
 10
819.2412051033714988
 20
160.0186303968966968
 30
0.0
 11
819.23428011657154
 21
160.0415822662967003
 31
0.0
  0
LINE
  5
DD46
  8
0
 10
819.3751519871716482
 20
160.0193232507967878
 30
0.0
 11
819.3824404199715445
 21
160.0447727126968118
 31
0.0
  0
LINE
  5
DD47
  8
0
 10
818.7346458762473276
 20
156.7645038765975016
 30
0.0
 11
818.7447154352024654
 21
152.7301115586110996
 31
0.0
  0
LINE
  5
DD48
  8
0
 10
819.8787783010460544
 20
156.7640827748058996
 30
0.0
 11
819.8738441147564799
 21
152.7340324137402945
 31
0.0
  0
ARC
  5
DD49
  8
0
 10
818.7925087125953496
 20
152.7346666209409989
 30
0.0
 40
0.0480098527053683
 50
185.444278261221001
 51
207.3566616266718086
  0
ARC
  5
DD4A
  8
0
 10
818.9341327898372356
 20
152.801661723879505
 30
0.0
 40
0.2046573029410972
 50
205.7949492344829991
 51
238.3909372809000047
  0
ARC
  5
DD4B
  8
0
 10
819.1824731044424652
 20
153.3183046299801049
 30
0.0
 40
0.7770782771019463
 50
242.76645726246349
 51
267.3466285694462954
  0
ARC
  5
DD4C
  8
0
 10
819.3060002326146787
 20
154.4055268623050949
 30
0.0
 40
1.87028105325337
 50
265.1077740421949898
 51
270.0533490433656993
  0
ARC
  5
DD4D
  8
0
 10
819.8105377729036718
 20
152.7460500827764918
 30
0.0
 40
0.0644369248792696
 50
328.7321335117861736
 51
349.2512365426002248
  0
ARC
  5
DD4E
  8
0
 10
819.6813505740617529
 20
152.8016617298823121
 30
0.0
 40
0.2046573029410972
 50
301.6090636396853029
 51
334.2050516860966809
  0
ARC
  5
DD4F
  8
0
 10
819.4330102511556788
 20
153.3183046319927882
 30
0.0
 40
0.7770782771019463
 50
272.6533723511359995
 51
297.2335436581183785
  0
ARC
  5
DD50
  8
0
 10
819.3094831055148006
 20
154.4055268623330903
 30
0.0
 40
1.87028105325337
 50
269.9466518772135828
 51
274.8922268783763911
  0
LINE
  5
DD51
  8
0
 10
818.1927416894358203
 20
151.4332351108978969
 30
0.0
 11
818.1927416894358203
 21
153.5632351108978071
 31
0.0
  0
LINE
  5
DD52
  8
0
 10
820.3727416893357258
 20
151.3532351108977991
 30
0.0
 11
819.6060361169569433
 21
151.3532351108977991
 31
0.0
  0
LINE
  5
DD53
  8
0
 10
819.0111668901608937
 20
151.3532351108977991
 30
0.0
 11
818.2727416894357475
 21
151.3532351108977991
 31
0.0
  0
LINE
  5
DD54
  8
0
 10
820.4527416894356975
 20
153.5632351108941123
 30
0.0
 11
820.4527416893358804
 21
151.4332351108940884
 31
0.0
  0
LINE
  5
DD55
  8
0
 10
820.3727416894358839
 20
153.6432351108977912
 30
0.0
 11
819.8749572957542568
 21
153.6432351108977912
 31
0.0
  0
LINE
  5
DD56
  8
0
 10
818.7424363431563279
 20
153.6432351108977912
 30
0.0
 11
818.2727416894357475
 21
153.6432351108977912
 31
0.0
  0
ARC
  5
DD57
  8
0
 10
820.3727416894358839
 20
153.5632351108978924
 30
0.0
 40
0.08
 50
359.9999999973106242
 51
90.0
  0
ARC
  5
DD58
  8
0
 10
820.3727416893357258
 20
151.4332351108978116
 30
0.0
 40
0.08
 50
269.9999999999935199
 51
359.9999999973131253
  0
ARC
  5
DD59
  8
0
 10
818.2727416894357475
 20
151.4332351108978969
 30
0.0
 40
0.08
 50
180.0000000000023874
 51
270.0
  0
ARC
  5
DD5A
  8
0
 10
818.2727416894357475
 20
153.5632351108978071
 30
0.0
 40
0.08
 50
89.9999999999934914
 51
179.9999999999974989
  0
ARC
  5
DD5B
  8
0
 10
819.0365585826729102
 20
151.6554813122253904
 30
0.0
 40
0.1261633202590828
 50
182.1361624911801869
 51
220.7817892140483877
  0
ARC
  5
DD5C
  8
0
 10
819.1396650603785474
 20
151.7650123449045054
 30
0.0
 40
0.2762196115232398
 50
224.0173390072258996
 51
255.2992596408049906
  0
ARC
  5
DD5D
  8
0
 10
819.2983702456398305
 20
152.297159775345591
 30
0.0
 40
0.8314267046416079
 50
254.0265736141861055
 51
270.6458240683210192
  0
LINE
  5
DD5E
  8
0
 10
818.9104829374817882
 20
151.6507786461214948
 30
0.0
 11
818.8933471464212062
 21
151.997803897765607
 31
0.0
  0
LINE
  5
DD5F
  8
0
 10
818.6323531070360104
 20
152.242082501956105
 30
0.0
 11
818.6323531070360104
 21
152.754013350303893
 31
0.0
  0
ARC
  5
DD60
  8
0
 10
819.3049828970816861
 20
152.5002487192282956
 30
0.0
 40
0.7403399857717186
 50
139.2552354122719862
 51
150.9743673804761954
  0
ARC
  5
DD61
  8
0
 10
818.8345049891929648
 20
152.7613141013355005
 30
0.0
 40
0.202283673155727
 50
150.9743673804761954
 51
182.0683482855384909
  0
ARC
  5
DD62
  8
0
 10
819.3074329315785462
 20
152.4978441321586047
 30
0.0
 40
0.7432560017380521
 50
209.0203207899479878
 51
236.6964165825243072
  0
ARC
  5
DD63
  8
0
 10
818.8334886344954384
 20
152.234912736389191
 30
0.0
 40
0.2012632752013816
 50
177.9584738258562027
 51
209.0203207899486983
  0
ARC
  5
DD64
  8
0
 10
818.4930313344119668
 20
153.6533353851322943
 30
0.0
 40
1.9244032350090741
 50
272.8367571109483833
 51
282.3438635367887741
  0
ARC
  5
DD65
  8
0
 10
818.594577448480095
 20
151.7852474288148983
 30
0.0
 40
0.0543243896522599
 50
187.0022026460378868
 51
263.3336431404583777
  0
ARC
  5
DD66
  8
0
 10
820.2444000784247464
 20
151.7042107523629966
 30
0.0
 40
1.7053661533668729
 50
164.8887083786243863
 51
177.4990886755404063
  0
ARC
  5
DD67
  8
0
 10
818.8888735885916503
 20
152.0702464750330876
 30
0.0
 40
0.3012884436549255
 50
148.371784617651997
 51
164.8887083786243863
  0
LINE
  5
DD68
  8
0
 10
818.2084070420536364
 20
151.3856845783431879
 30
0.0
 11
818.5569589494078855
 21
151.7460557480825116
 31
0.0
  0
ARC
  5
DD69
  8
0
 10
818.4930313344119668
 20
151.3429974302634093
 30
0.0
 40
1.9244032350090741
 50
82.524057492386703
 51
87.1632428890450939
  0
ARC
  5
DD6A
  8
0
 10
818.594577448480095
 20
153.2110853865808053
 30
0.0
 40
0.0543243896522599
 50
96.6663568595416223
 51
172.9977973539619995
  0
ARC
  5
DD6B
  8
0
 10
820.2444000784247464
 20
153.2921220630327923
 30
0.0
 40
1.7053661533668729
 50
182.5009113244595937
 51
195.1112916213755
  0
ARC
  5
DD6C
  8
0
 10
818.8888735885916503
 20
152.9260863403625876
 30
0.0
 40
0.3012884436549255
 50
195.1112916213755
 51
211.6278448280066016
  0
LINE
  5
DD6D
  8
0
 10
818.2083495161118663
 20
153.6107077136771011
 30
0.0
 11
818.5569589494078855
 21
153.250277067313192
 31
0.0
  0
LINE
  5
DD6E
  8
0
 10
819.9831302658758432
 20
152.242082501956105
 30
0.0
 11
819.9831302658758432
 21
152.754013350303893
 31
0.0
  0
ARC
  5
DD6F
  8
0
 10
819.3105004758302812
 20
152.5002487192282956
 30
0.0
 40
0.7403399857717186
 50
29.0256326195238188
 51
40.744764587727957
  0
ARC
  5
DD70
  8
0
 10
819.7809783837185478
 20
152.7613141013355005
 30
0.0
 40
0.202283673155727
 50
357.9316517144615091
 51
29.0256326195238188
  0
ARC
  5
DD71
  8
0
 10
819.3080504413334211
 20
152.4978441321586047
 30
0.0
 40
0.7432560017380521
 50
303.3035834174756928
 51
330.9796792100519838
  0
ARC
  5
DD72
  8
0
 10
819.7819947384163015
 20
152.234912736389191
 30
0.0
 40
0.2012632752013816
 50
330.9796792100513017
 51
2.0415261741438022
  0
ARC
  5
DD73
  8
0
 10
820.1224520385000005
 20
153.6533353851322943
 30
0.0
 40
1.9244032350090741
 50
257.6561364632112259
 51
267.1632428890450797
  0
ARC
  5
DD74
  8
0
 10
820.0209059244315313
 20
151.7852474288148983
 30
0.0
 40
0.0543243896522599
 50
276.6663568595416223
 51
352.9977973539619143
  0
ARC
  5
DD75
  8
0
 10
818.3710832944869935
 20
151.7042107523629966
 30
0.0
 40
1.7053661533668729
 50
2.5009113244596102
 51
15.1112916213755604
  0
ARC
  5
DD76
  8
0
 10
819.7266097843202033
 20
152.0702464750330876
 30
0.0
 40
0.3012884436549255
 50
15.1112916213755604
 51
31.6282153823479888
  0
LINE
  5
DD77
  8
0
 10
820.4220310558823712
 20
151.370222744290686
 30
0.0
 11
820.0585244235038545
 21
151.7460557480825116
 31
0.0
  0
ARC
  5
DD78
  8
0
 10
820.1224520385000005
 20
151.3429974302634093
 30
0.0
 40
1.9244032350090741
 50
92.8367571109549061
 51
97.4759425076199904
  0
ARC
  5
DD79
  8
0
 10
820.0209059244315313
 20
153.2110853865808053
 30
0.0
 40
0.0543243896522599
 50
7.0022026460379472
 51
83.3336431404583635
  0
ARC
  5
DD7A
  8
0
 10
818.3710832944869935
 20
153.2921220630327923
 30
0.0
 40
1.7053661533668729
 50
344.8887083786244148
 51
357.4990886755396104
  0
ARC
  5
DD7B
  8
0
 10
819.7266097843202033
 20
152.9260863403625876
 30
0.0
 40
0.3012884436549255
 50
328.3721551719926879
 51
344.8887083786244148
  0
LINE
  5
DD7C
  8
0
 10
820.4221066746448514
 20
153.6261882540705983
 30
0.0
 11
820.0585244235038545
 21
153.250277067313192
 31
0.0
  0
ARC
  5
DD7D
  8
0
 10
819.5789247902390571
 20
151.6554813122253904
 30
0.0
 40
0.1261633202590828
 50
319.2182107859516123
 51
357.8638375088198131
  0
ARC
  5
DD7E
  8
0
 10
819.4758183125335336
 20
151.7650123449045054
 30
0.0
 40
0.2762196115232398
 50
284.7007403591882735
 51
315.9826609927740719
  0
ARC
  5
DD7F
  8
0
 10
819.3171131272722505
 20
152.297159775345591
 30
0.0
 40
0.8314267046416079
 50
269.3541759316789808
 51
285.9734263858139229
  0
LINE
  5
DD80
  8
0
 10
819.7050004354299517
 20
151.6507786461214096
 30
0.0
 11
819.7221362264907611
 21
151.997803897765607
 31
0.0
  0
LINE
  5
DD81
  8
0
 10
818.7327416894357839
 20
152.1569584551153866
 30
0.0
 11
818.7327416894357839
 21
152.6659271902219928
 31
0.0
  0
LINE
  5
DD82
  8
0
 10
818.9677416894357975
 20
152.0122674616349059
 30
0.0
 11
818.9677416894357975
 21
152.5714839900986135
 31
0.0
  0
ARC
  5
DD83
  8
0
 10
818.9373934238506081
 20
152.0146346974335927
 30
0.0
 40
0.0304404505445819
 50
244.4098311527015994
 51
355.5398261401800823
  0
ARC
  5
DD84
  8
0
 10
819.0729788907018474
 20
152.4700055540627091
 30
0.0
 40
0.5052147738961926
 50
238.8216111675934883
 51
252.8786262411526025
  0
ARC
  5
DD85
  8
0
 10
818.9251048100280741
 20
152.2229604423648937
 30
0.0
 40
0.217302295290688
 50
219.9286446823502104
 51
238.4574195304116984
  0
ARC
  5
DD86
  8
0
 10
818.8423238921988059
 20
152.1540905821582896
 30
0.0
 40
0.1096197238534307
 50
178.5008558577590918
 51
220.0954146345762013
  0
ARC
  5
DD87
  8
0
 10
818.9318023716174366
 20
152.5225856709396908
 30
0.0
 40
0.0372736160642562
 50
15.3768529880669291
 51
80.8311927202618534
  0
ARC
  5
DD88
  8
0
 10
819.0652653688965756
 20
152.9921340775939882
 30
0.0
 40
0.451149357131029
 50
235.903866196116013
 51
253.58073522422319
  0
ARC
  5
DD89
  8
0
 10
818.8892941086497785
 20
152.7297579542992025
 30
0.0
 40
0.1352365138072787
 50
207.5759936550927023
 51
235.3267540394249977
  0
ARC
  5
DD8A
  8
0
 10
818.8346172093564519
 20
152.6977129030792071
 30
0.0
 40
0.0720030741522892
 50
186.7521360711791942
 51
205.113714712519112
  0
ARC
  5
DD8B
  8
0
 10
818.8341870211256719
 20
152.6670654117833124
 30
0.0
 40
0.101451716939688
 50
149.1451828714392889
 51
180.6428344615709989
  0
LINE
  5
DD8C
  8
0
 10
819.8827416834759561
 20
152.1569584551153866
 30
0.0
 11
819.8827416834759561
 21
152.6659271902219928
 31
0.0
  0
LINE
  5
DD8D
  8
0
 10
819.6477416834758287
 20
152.0122674616349059
 30
0.0
 11
819.6477416834758287
 21
152.5714839900986135
 31
0.0
  0
ARC
  5
DD8E
  8
0
 10
819.6780899490612455
 20
152.0146346974335927
 30
0.0
 40
0.0304404505445819
 50
184.4601738598198892
 51
295.5901688472984006
  0
ARC
  5
DD8F
  8
0
 10
819.5425044822097789
 20
152.4700055540627091
 30
0.0
 40
0.5052147738961926
 50
287.1213737588471986
 51
301.1783888324064833
  0
ARC
  5
DD90
  8
0
 10
819.6903785628838932
 20
152.2229604423648937
 30
0.0
 40
0.217302295290688
 50
301.542580469588188
 51
320.0713553176498181
  0
ARC
  5
DD91
  8
0
 10
819.7731594807131614
 20
152.1540905821582896
 30
0.0
 40
0.1096197238534307
 50
319.9045853654238272
 51
1.499144142240898
  0
ARC
  5
DD92
  8
0
 10
819.685969646981107
 20
152.5200345733184122
 30
0.0
 40
0.0401995254080803
 50
101.8106574731198037
 51
161.9812968185474915
  0
ARC
  5
DD93
  8
0
 10
819.5502180040150506
 20
152.9921340775939882
 30
0.0
 40
0.451149357131029
 50
286.41926477577681
 51
304.0961338038840154
  0
ARC
  5
DD94
  8
0
 10
819.7261892642621888
 20
152.7297579542992025
 30
0.0
 40
0.1352365138072787
 50
304.6732459605748886
 51
332.4240063449066156
  0
ARC
  5
DD95
  8
0
 10
819.7808661635555154
 20
152.6977129030792071
 30
0.0
 40
0.0720030741522892
 50
334.8862852874809164
 51
353.2478639288207773
  0
ARC
  5
DD96
  8
0
 10
819.781296351786068
 20
152.6670654117833124
 30
0.0
 40
0.101451716939688
 50
359.3571655384290011
 51
30.4354400433852383
  0
LINE
  5
DD97
  8
0
 10
819.3416105202760491
 20
156.3084291212404082
 30
0.0
 11
819.2738728526359182
 21
156.3084291212404082
 31
0.0
  0
ARC
  5
DD98
  8
0
 10
819.3416105202760491
 20
156.3549291212403887
 30
0.0
 40
0.0465
 50
269.9999999999935199
 51
0.0
  0
ARC
  5
DD99
  8
0
 10
819.2738728526359182
 20
156.3549291212403887
 30
0.0
 40
0.0465
 50
180.0
 51
270.0
  0
LINE
  5
DD9A
  8
0
 10
807.3441890574580384
 20
136.426247656082694
 30
0.0
 11
807.5846932389672475
 21
136.182306492554801
 31
0.0
  0
LINE
  5
DD9B
  8
0
 10
809.6408218155391978
 20
136.4254930871065881
 30
0.0
 11
809.3986695117451973
 21
136.182306492554801
 31
0.0
  0
LINE
  5
DD9C
  8
0
 10
807.3434228459962014
 20
134.1280943284237139
 30
0.0
 11
807.5832446115307448
 21
134.371282870554694
 31
0.0
  0
LINE
  5
DD9D
  8
0
 10
809.6408238854540969
 20
134.128094048200893
 30
0.0
 11
809.4023410476086156
 21
134.371282870554694
 31
0.0
  0
LINE
  5
DD9E
  8
0
 10
813.2489367794006512
 20
134.1280962757861062
 30
0.0
 11
813.4923434980603361
 21
134.371282870554694
 31
0.0
  0
LINE
  5
DD9F
  8
0
 10
815.5463357490751832
 20
134.1280943284237139
 30
0.0
 11
815.3066189392927754
 21
134.371282870554694
 31
0.0
  0
LINE
  5
DDA0
  8
0
 10
815.546335668135157
 20
136.4254953434102902
 30
0.0
 11
815.3022025523152934
 21
136.182306492554801
 31
0.0
  0
LINE
  5
DDA1
  8
0
 10
813.2489344709365469
 20
136.4254949654747975
 30
0.0
 11
813.4889997136250486
 21
136.182306492554801
 31
0.0
  0
LINE
  5
DDA3
  8
0
 10
805.6696212672636648
 20
136.0560840995599108
 30
0.0
 11
805.6696212672636648
 21
134.4975052635496127
 31
0.0
  0
ARC
  5
DDA4
  8
0
 10
805.7289212672638996
 20
135.9982505079941006
 30
0.0
 40
0.0593
 50
92.9762946895233569
 51
180.0
  0
ARC
  5
DDA5
  8
0
 10
805.7289212672638996
 20
136.0560840995599108
 30
0.0
 40
0.0593
 50
93.4336303294371362
 51
179.9999999999992042
  0
ARC
  5
DDA6
  8
0
 10
805.7289212672638996
 20
134.5553388597058131
 30
0.0
 40
0.0593
 50
180.0
 51
267.0238276120314254
  0
LINE
  5
DDA7
  8
0
 10
810.9822814526776256
 20
134.1232513675979021
 30
0.0
 11
810.9822814526776256
 21
134.3836484081734
 31
0.0
  0
LINE
  5
DDA8
  8
0
 10
811.9074783030774825
 20
134.1232513675979021
 30
0.0
 11
810.9822814526776256
 21
134.1232513675979021
 31
0.0
  0
LINE
  5
DDA9
  8
0
 10
810.9970173106370339
 20
134.1026383770170867
 30
0.0
 11
811.0477163003241685
 21
133.0098593861447966
 31
0.0
  0
LINE
  5
DDAA
  8
0
 10
811.7634280180185442
 20
132.9348067139978866
 30
0.0
 11
811.1263317377364501
 21
132.9348067139978866
 31
0.0
  0
LINE
  5
DDAB
  8
0
 10
811.8927424451178467
 20
134.1026383770170867
 30
0.0
 11
811.8420434554307121
 21
133.0098593861447966
 31
0.0
  0
LINE
  5
DDAC
  8
0
 10
811.9074783030774825
 20
134.1232513675979021
 30
0.0
 11
811.9074783030774825
 21
134.3836484056826066
 31
0.0
  0
ARC
  5
DDAD
  8
0
 10
810.9826029093629813
 20
134.3949724773171113
 30
0.0
 40
0.0201929364107372
 50
225.7046818229231917
 51
269.0878548312106773
  0
ARC
  5
DDAE
  8
0
 10
811.4448798723069558
 20
132.3144246210551103
 30
0.0
 40
2.1203028979416412
 50
77.0162379936448929
 51
102.983761741755302
  0
ARC
  5
DDAF
  8
0
 10
811.9072870619654623
 20
134.3948390149379861
 30
0.0
 40
0.0200064742652768
 50
270.547696475980274
 51
314.2953179124739904
  0
ARC
  5
DDB0
  8
0
 10
811.0166961431276604
 20
134.1035513675979018
 30
0.0
 40
0.0197
 50
89.9999999999934914
 51
182.6563071484148111
  0
ARC
  5
DDB1
  8
0
 10
811.8730636126272202
 20
134.1035513675977882
 30
0.0
 40
0.0197
 50
357.3436928515876048
 51
89.9999999999934914
  0
ARC
  5
DDB2
  8
0
 10
811.7634280180185442
 20
133.0135067139977991
 30
0.0
 40
0.0787
 50
270.0
 51
357.3436928515852173
  0
ARC
  5
DDB3
  8
0
 10
811.1263317377364501
 20
133.0135067139977991
 30
0.0
 40
0.0787
 50
182.6563071484148111
 51
270.0
  0
ARC
  5
DDB4
  8
0
 10
794.046756694553892
 20
133.733412282795598
 30
0.0
 40
17.1201304869134496
 50
349.6075931862754942
 51
357.3263440361542962
  0
ARC
  5
DDB5
  8
0
 10
853.6395282515790086
 20
122.8042554415333001
 30
0.0
 40
43.4665420666167819
 50
169.6075931862754942
 51
171.9774680116751995
  0
ARC
  5
DDB6
  8
0
 10
829.0013974529076677
 20
126.2767999599351043
 30
0.0
 40
18.584901150376691
 50
171.9774680116751995
 51
176.8168673912327051
  0
ARC
  5
DDB7
  8
0
 10
815.8038895967249573
 20
127.010757886281894
 30
0.0
 40
5.3670001123279718
 50
176.8168673912327051
 51
197.6210297675544041
  0
ARC
  5
DDB8
  8
0
 10
813.0653698251896913
 20
126.1409418271447009
 30
0.0
 40
2.4936622422154309
 50
197.6210297675544041
 51
242.5938248735349134
  0
ARC
  5
DDB9
  8
0
 10
814.7743914453751586
 20
129.437109225981402
 30
0.0
 40
6.2065417742518694
 50
242.5938248735349134
 51
266.2509310695464251
  0
ARC
  5
DDBA
  8
0
 10
815.0235175152246256
 20
133.2389852002681891
 30
0.0
 40
10.0165712652843997
 50
266.2509310695464251
 51
282.8164912590224276
  0
ARC
  5
DDBB
  8
0
 10
815.5860554041455543
 20
130.7662599800887904
 30
0.0
 40
7.4806653342642901
 50
282.8164912590224276
 51
303.3794162780391162
  0
ARC
  5
DDBC
  8
0
 10
817.0750188255285593
 20
128.0284962667062132
 30
0.0
 40
4.3832009134197891
 50
306.818189486138408
 51
357.2244383181878788
  0
ARC
  5
DDBD
  8
0
 10
803.9426227359324457
 20
128.3489688812202019
 30
0.0
 40
17.5185566900604215
 50
358.2574180220349263
 51
16.5239767200816914
  0
ARC
  5
DDBE
  8
0
 10
872.8642773348971104
 20
147.9729082539546994
 30
0.0
 40
54.1438106081135899
 50
189.2992651759579132
 51
195.6890437154237077
  0
ARC
  5
DDBF
  8
0
 10
854.7410668374021725
 20
143.1640441816234102
 30
0.0
 40
35.52820842188342
 50
174.3961002776902092
 51
186.367554622345807
  0
ARC
  5
DDC0
  8
0
 10
731.3241914473243241
 20
153.5702054611298024
 30
0.0
 40
88.3312660910923029
 50
355.4958242251692013
 51
357.831037130169193
  0
ARC
  5
DDC1
  8
0
 10
782.8361423917385764
 20
151.2427722051054104
 30
0.0
 40
36.7700596493585934
 50
358.4172780823050175
 51
0.4334524480732186
  0
ARC
  5
DDC2
  8
0
 10
776.2502034755923432
 20
151.2650745036849003
 30
0.0
 40
42.7610542951730679
 50
359.2069158272283858
 51
0.3427265780228759
  0
ARC
  5
DDC3
  8
0
 10
782.2776266670302903
 20
151.1816380045729034
 30
0.0
 40
36.7330536334222728
 50
356.0994948633796753
 51
359.2069158272283858
  0
ARC
  5
DDC4
  8
0
 10
2956.1299299845650239
 20
2.964001188503786
 30
0.0
 40
2142.1662796314908519
 50
176.0994948633797037
 51
176.1784939511859989
  0
ARC
  5
DDC5
  8
0
 10
855.7606597590622641
 20
142.9298636556428903
 30
0.0
 40
37.1401111715809975
 50
175.666859686644699
 51
183.607893071730814
  0
ARC
  5
DDC6
  8
0
 10
846.033246631131874
 20
142.732292172841511
 30
0.0
 40
27.4226838934127706
 50
184.4748982333507001
 51
194.7350679532976869
  0
ARC
  5
DDC7
  8
0
 10
755.9385783425026375
 20
118.303735003067402
 30
0.0
 40
65.9261945498572146
 50
10.6231531289289194
 51
15.3517737155880507
  0
ARC
  5
DDC8
  8
0
 10
808.8182370997096768
 20
128.4912647168117985
 30
0.0
 40
12.0776871333442006
 50
0.684194275888178
 51
9.3676306735715418
  0
ARC
  5
DDC9
  8
0
 10
816.4483341329076893
 20
128.3146406771994918
 30
0.0
 40
4.4582889724502266
 50
320.3709188720806083
 51
4.1269207295690018
  0
ARC
  5
DDCA
  8
0
 10
815.9610816479862478
 20
129.6614510823636124
 30
0.0
 40
5.7387560144224743
 50
278.2909067006839905
 51
313.097796652706279
  0
ARC
  5
DDCB
  8
0
 10
815.113310902680837
 20
132.1980140082665116
 30
0.0
 40
8.3844168602850395
 50
257.5684457340199742
 51
281.5258776693610798
  0
ARC
  5
DDCC
  8
0
 10
813.6446092015860359
 20
126.5647621742317028
 30
0.0
 40
2.5766159962597852
 50
192.3200140623193022
 51
262.5017394037438976
  0
ARC
  5
DDCD
  8
0
 10
819.7294790381628218
 20
127.2319494941562965
 30
0.0
 40
8.6878059773003358
 50
168.8647534329813027
 51
188.0523177181829908
  0
ARC
  5
DDCE
  8
0
 10
682.8055772743157377
 20
150.5287258173140117
 30
0.0
 40
130.2069473988777872
 50
350.4426224453471832
 51
351.6707068734298218
  0
ARC
  5
DDCF
  8
0
 10
798.8178844958399623
 20
133.351925980491103
 30
0.0
 40
12.9314810199053696
 50
352.5118267857492924
 51
358.1515404329496164
  0
ENDSEC
  0
EOF
