  0
SECTION
  2
HEADER
  9
$ACADVER
  1
AC1009
  9
$INSBASE
 10
5128.5631467859702752
 20
604.9027904568564509
 30
0.0
  9
$EXTMIN
 10
5120.5840052626035686
 20
596.1898514371082456
 30
0.0
  9
$EXTMAX
 10
5133.0172430626298592
 20
605.7848337924083353
 30
0.0
  9
$LIMMIN
 10
0.0
 20
0.0
  9
$LIMMAX
 10
11.6929133858000007
 20
8.2677165353999982
  9
$ORTHOMODE
 70
     0
  9
$REGENMODE
 70
     1
  9
$FILLMODE
 70
     1
  9
$QTEXTMODE
 70
     0
  9
$MIRRTEXT
 70
     0
  9
$DRAGMODE
 70
     2
  9
$LTSCALE
 40
0.6431102362
  9
$OSMODE
 70
     7
  9
$ATTMODE
 70
     1
  9
$TEXTSIZE
 40
0.2
  9
$TRACEWID
 40
0.05
  9
$TEXTSTYLE
  7
STANDARD
  9
$CLAYER
  8
0
  9
$CELTYPE
  6
BYLAYER
  9
$CECOLOR
 62
   256
  9
$DIMSCALE
 40
1.0
  9
$DIMASZ
 40
0.1875
  9
$DIMEXO
 40
0.0625
  9
$DIMDLI
 40
0.4443307087
  9
$DIMRND
 40
0.0
  9
$DIMDLE
 40
0.0
  9
$DIMEXE
 40
0.125
  9
$DIMTP
 40
0.01
  9
$DIMTM
 40
0.01
  9
$DIMTXT
 40
2.0
  9
$DIMCEN
 40
0.1052362205
  9
$DIMTSZ
 40
0.0
  9
$DIMTOL
 70
     1
  9
$DIMLIM
 70
     0
  9
$DIMTIH
 70
     1
  9
$DIMTOH
 70
     1
  9
$DIMSE1
 70
     0
  9
$DIMSE2
 70
     0
  9
$DIMTAD
 70
     0
  9
$DIMZIN
 70
     0
  9
$DIMBLK
  1

  9
$DIMASO
 70
     1
  9
$DIMSHO
 70
     1
  9
$DIMPOST
  1
\X
  9
$DIMAPOST
  1

  9
$DIMALT
 70
     1
  9
$DIMALTD
 70
     2
  9
$DIMALTF
 40
25.3999999999999986
  9
$DIMLFAC
 40
1.0
  9
$DIMTOFL
 70
     0
  9
$DIMTVP
 40
0.0
  9
$DIMTIX
 70
     0
  9
$DIMSOXD
 70
     0
  9
$DIMSAH
 70
     0
  9
$DIMBLK1
  1

  9
$DIMBLK2
  1

  9
$DIMSTYLE
  2
STANDARD
  9
$DIMCLRD
 70
     0
  9
$DIMCLRE
 70
     0
  9
$DIMCLRT
 70
     0
  9
$DIMTFAC
 40
1.0
  9
$DIMGAP
 40
0.09
  9
$LUNITS
 70
     2
  9
$LUPREC
 70
     4
  9
$SKETCHINC
 40
0.1
  9
$FILLETRAD
 40
0.0
  9
$AUNITS
 70
     0
  9
$AUPREC
 70
     0
  9
$MENU
  1
.
  9
$ELEVATION
 40
0.0
  9
$PELEVATION
 40
0.0
  9
$THICKNESS
 40
0.0
  9
$LIMCHECK
 70
     0
  9
$BLIPMODE
 70
     0
  9
$CHAMFERA
 40
0.0
  9
$CHAMFERB
 40
0.0
  9
$SKPOLY
 70
     0
  9
$TDCREATE
 40
2458060.468368056230247
  9
$TDUPDATE
 40
2459498.9315856490284204
  9
$TDINDWG
 40
2.0660617361
  9
$TDUSRTIMER
 40
2.0660617361
  9
$USRTIMER
 70
     1
  9
$ANGBASE
 50
0.0
  9
$ANGDIR
 70
     0
  9
$PDMODE
 70
     0
  9
$PDSIZE
 40
0.3125
  9
$PLINEWID
 40
0.0
  9
$COORDS
 70
     1
  9
$SPLFRAME
 70
     0
  9
$SPLINETYPE
 70
     6
  9
$SPLINESEGS
 70
     8
  9
$ATTDIA
 70
     1
  9
$ATTREQ
 70
     1
  9
$HANDLING
 70
     1
  9
$HANDSEED
  5
22144
  9
$SURFTAB1
 70
     6
  9
$SURFTAB2
 70
     6
  9
$SURFTYPE
 70
     6
  9
$SURFU
 70
     6
  9
$SURFV
 70
     6
  9
$UCSNAME
  2

  9
$UCSORG
 10
0.0
 20
0.0
 30
0.0
  9
$UCSXDIR
 10
1.0
 20
0.0
 30
0.0
  9
$UCSYDIR
 10
0.0
 20
1.0
 30
0.0
  9
$PUCSNAME
  2

  9
$PUCSORG
 10
0.0
 20
0.0
 30
0.0
  9
$PUCSXDIR
 10
1.0
 20
0.0
 30
0.0
  9
$PUCSYDIR
 10
0.0
 20
1.0
 30
0.0
  9
$USERI1
 70
     0
  9
$USERI2
 70
     0
  9
$USERI3
 70
     0
  9
$USERI4
 70
     0
  9
$USERI5
 70
     0
  9
$USERR1
 40
0.0
  9
$USERR2
 40
0.0
  9
$USERR3
 40
0.0
  9
$USERR4
 40
0.0
  9
$USERR5
 40
0.0
  9
$WORLDVIEW
 70
     1
  9
$SHADEDGE
 70
     3
  9
$SHADEDIF
 70
    70
  9
$TILEMODE
 70
     1
  9
$MAXACTVP
 70
    64
  9
$PLIMCHECK
 70
     0
  9
$PEXTMIN
 10
1.0000000000000000E+20
 20
1.0000000000000000E+20
 30
1.0000000000000000E+20
  9
$PEXTMAX
 10
-1.0000000000000000E+20
 20
-1.0000000000000000E+20
 30
-1.0000000000000000E+20
  9
$PLIMMIN
 10
0.0
 20
0.0
  9
$PLIMMAX
 10
12.0
 20
9.0
  9
$UNITMODE
 70
     0
  9
$VISRETAIN
 70
     1
  9
$PLINEGEN
 70
     0
  9
$PSLTSCALE
 70
     1
  0
ENDSEC
  0
SECTION
  2
TABLES
  0
TABLE
  2
VPORT
 70
     1
  0
VPORT
  2
*ACTIVE
 70
     0
 10
0.0
 20
0.0
 11
1.0
 21
1.0
 12
1215.247731143376086
 22
468.3872840967924276
 13
0.0
 23
0.0
 14
1.0
 24
1.0
 15
0.0
 25
0.0
 16
0.0
 26
0.0
 36
60.4960186965801583
 17
3911.3653564453120453
 27
132.5796051025390057
 37
0.0
 40
9.7091887797407406
 41
2.2118055555555549
 42
50.0
 43
0.0
 44
0.0
 50
0.0
 51
0.0
 71
     0
 72
   100
 73
     1
 74
     1
 75
     0
 76
     0
 77
     0
 78
     0
  0
ENDTAB
  0
TABLE
  2
LTYPE
 70
     2
  0
LTYPE
  2
CONTINUOUS
 70
     0
  3
Solid line
 72
    65
 73
     0
 40
0.0
  0
LTYPE
  2
PHANTOM2
 70
     0
  3
___ _ _ ___ _ _ ___ _ _ ___ _ _
 72
    65
 73
     6
 40
1.25
 49
0.625
 49
-0.125
 49
0.125
 49
-0.125
 49
0.125
 49
-0.125
  0
ENDTAB
  0
TABLE
  2
LAYER
 70
     2
  0
LAYER
  2
0
 70
     0
 62
   255
  6
CONTINUOUS
  0
LAYER
  2
DEFPOINTS
 70
     0
 62
     7
  6
CONTINUOUS
  0
ENDTAB
  0
TABLE
  2
STYLE
 70
     1
  0
STYLE
  2
STANDARD
 70
     0
 40
0.0
 41
0.8
 50
0.0
 71
     0
 42
0.2
  3
txt
  4

  0
ENDTAB
  0
TABLE
  2
VIEW
 70
     0
  0
ENDTAB
  0
TABLE
  2
UCS
 70
     0
  0
ENDTAB
  0
TABLE
  2
APPID
 70
    11
  0
APPID
  2
ACAD
 70
     0
  0
APPID
  2
ACAD_MLEADERVER
 70
     0
  0
APPID
  2
ACAD_EXEMPT_FROM_CAD_STANDARDS
 70
     0
  0
APPID
  2
ACAD_NAV_VCDISPLAY
 70
     0
  0
APPID
  2
ACAECLAYERSTANDARD
 70
     0
  0
APPID
  2
ACCMTRANSPARENCY
 70
     0
  0
APPID
  2
ACAD_DSTYLE_DIMJAG
 70
     0
  0
APPID
  2
ACAD_DSTYLE_DIMTALN
 70
     0
  0
APPID
  2
ACDBATTR
 70
     0
  0
APPID
  2
ACADANNOTATIVE
 70
     0
  0
APPID
  2
DCO15
 70
     0
  0
ENDTAB
  0
TABLE
  2
DIMSTYLE
 70
     1
  0
DIMSTYLE
  2
STANDARD
 70
     0
  3

  4

  5

  6

  7

 40
1.0
 41
0.1875
 42
0.0625
 43
0.38
 44
0.125
 45
0.0
 46
0.0
 47
0.01
 48
0.01
140
0.15625
141
0.09
142
0.0
143
25.3999999999999986
144
1.0
145
0.0
146
1.0
147
0.09
 71
     1
 72
     0
 73
     1
 74
     1
 75
     0
 76
     0
 77
     0
 78
     4
170
     0
171
     2
172
     0
173
     0
174
     0
175
     0
176
     0
177
     0
178
     0
  0
ENDTAB
  0
ENDSEC
  0
SECTION
  2
BLOCKS
  0
BLOCK
  8
0
  2
$MODEL_SPACE
 70
     0
 10
0.0
 20
0.0
 30
0.0
  3
$MODEL_SPACE
  1

  0
ENDBLK
  5
21
  8
0
  0
BLOCK
 67
     1
  8
0
  2
$PAPER_SPACE
 70
     0
 10
0.0
 20
0.0
 30
0.0
  3
$PAPER_SPACE
  1

  0
ENDBLK
  5
1D
 67
     1
  8
0
  0
ENDSEC
  0
SECTION
  2
ENTITIES
  0
ATTDEF
  5
159BF
  8
DEFPOINTS
 10
5128.5631529174397656
 20
604.9061269458884453
 30
0.0
 40
0.001
  1
K-72645T-4
  3

  2
MODELNUMBER
 70
     0
1001
ACDBATTR
1070
     0
1070
     1
  0
ATTDEF
  5
159C0
  8
DEFPOINTS
 10
5128.5631529174397656
 20
604.904460105509429
 30
0.0
 40
0.001
  1
SYMBOL
  3

  2
TRADENAME
 70
     0
1001
ACDBATTR
1070
     0
1070
     1
  0
ATTDEF
  5
159C1
  8
DEFPOINTS
 10
5128.5631529174397656
 20
604.9027936125552287
 30
0.0
 40
0.001
  1
BATH AND SHOWER FAUCET
  3

  2
PRODUCT
 70
     0
1001
ACDBATTR
1070
     0
1070
     1
  0
ARC
  5
21F53
  8
0
 10
5128.5631467859702752
 20
600.7124443525149218
 30
0.0
 40
0.8905944310416135
 50
316.5291571461197009
 51
223.4708428538802991
  0
ARC
  5
21F54
  8
0
 10
5128.5631467859702752
 20
600.598316047640651
 30
0.0
 40
0.9339858418293989
 50
51.1914164006567489
 51
128.8085835993431942
  0
ARC
  5
21F55
  8
0
 10
5128.5219272355534486
 20
600.686133911077718
 30
0.0
 40
0.8400338143363519
 50
130.3718778483703034
 51
153.3012564587523059
  0
ARC
  5
21F56
  8
0
 10
5128.6526628640476702
 20
600.62584934319284
 30
0.0
 40
0.98392850641104
 50
153.5855642374781951
 51
174.9508973338843134
  0
ARC
  5
21F57
  8
0
 10
5125.2240369006767651
 20
599.8822488874293413
 30
0.0
 40
2.7023283585643232
 50
5.6316415610281307
 51
11.9856607907025303
  0
ARC
  5
21F58
  8
0
 10
5157.0448151175760358
 20
602.2597290256345559
 30
0.0
 40
29.2079727415189403
 50
184.1471988101299075
 51
184.8006704889714911
  0
ARC
  5
21F59
  8
0
 10
5119.3200247902832416
 20
599.0727849742376065
 30
0.0
 40
8.6512082454131587
 50
1.0855257367386091
 51
4.9238218097271282
  0
ARC
  5
21F5A
  8
0
 10
4910.0490301508898483
 20
594.9229629487441571
 30
0.0
 40
217.963340883725408
 50
1.0249993019704791
 51
1.134016260162781
  0
ARC
  5
21F5B
  8
0
 10
4249.4756044693040167
 20
568.9079913779169146
 30
0.0
 40
879.011046178961351
 50
1.8561239167448831
 51
1.9502365110006139
  0
ARC
  5
21F5C
  8
0
 10
5090.6943600525919464
 20
596.3749331003492671
 30
0.0
 40
37.3445846344526302
 50
0.2225118151392292
 51
1.540656053646394
  0
ARC
  5
21F5D
  8
0
 10
5128.1115532685207654
 20
596.5190288796302411
 30
0.0
 40
0.0728961808400572
 50
179.2659164051248126
 51
265.2219556665797882
  0
ARC
  5
21F5E
  8
0
 10
5128.6347344442483518
 20
601.2929311577579483
 30
0.0
 40
4.8753572808117092
 50
263.7678724991164927
 51
267.1133682515646797
  0
ARC
  5
21F5F
  8
0
 10
5128.6043663363861924
 20
600.686133911077718
 30
0.0
 40
0.8400338143363519
 50
26.6987435412476799
 51
49.6281221516296966
  0
ARC
  5
21F60
  8
0
 10
5128.4736307078901518
 20
600.62584934319284
 30
0.0
 40
0.98392850641104
 50
5.0491026661157061
 51
26.4144357625217907
  0
ARC
  5
21F61
  8
0
 10
5137.8062687816563994
 20
599.0727849742376065
 30
0.0
 40
8.6512082454131587
 50
175.0761781902727989
 51
178.9144742632614111
  0
ARC
  5
21F62
  8
0
 10
5347.0772634210488832
 20
594.9229629487441571
 30
0.0
 40
217.963340883725408
 50
178.8659837398371906
 51
178.9750006980262924
  0
ARC
  5
21F63
  8
0
 10
6007.6506891026356243
 20
568.9079913779169146
 30
0.0
 40
879.011046178961351
 50
178.049763488999389
 51
178.143876083255094
  0
ARC
  5
21F64
  8
0
 10
5166.4319335193476945
 20
596.3749331003492671
 30
0.0
 40
37.3445846344526302
 50
178.4593439463536129
 51
179.7774881848608004
  0
ARC
  5
21F65
  8
0
 10
5129.0147403034188756
 20
596.5190288796302411
 30
0.0
 40
0.0728961808400572
 50
274.7780443334200982
 51
0.7340835948752231
  0
ARC
  5
21F66
  8
0
 10
5128.4915591276921987
 20
601.2929311577579483
 30
0.0
 40
4.8753572808117092
 50
272.8866317484353203
 51
276.232127500883621
  0
ARC
  5
21F67
  8
0
 10
5128.5631467859702752
 20
598.0775174517289088
 30
0.0
 40
1.6628791006010739
 50
263.9959556296336132
 51
276.0040443703663868
  0
LINE
  5
21F68
  8
0
 10
5124.8984444836696639
 20
602.8554795960565116
 30
0.0
 11
5126.3224078802695658
 21
602.8554795960565116
 31
0.0
  0
LINE
  5
21F69
  8
0
 10
5130.8038856916700752
 20
602.8554795960565116
 30
0.0
 11
5132.2278490882699771
 21
602.8554795960565116
 31
0.0
  0
LINE
  5
21F6A
  8
0
 10
5124.8984444836696639
 20
602.8554795960565116
 30
0.0
 11
5124.8897133185701023
 21
602.6066567113565497
 31
0.0
  0
ARC
  5
21F6B
  8
0
 10
5124.6931354162834396
 20
602.6135546063065931
 30
0.0
 40
0.196698888207297
 50
267.5803103083197243
 51
357.9903225551593096
  0
ARC
  5
21F6C
  8
0
 10
5124.9430925682891029
 20
608.2604727886692899
 30
0.0
 40
5.8491460769485153
 50
265.1113229970237057
 51
267.4693552321995753
  0
ARC
  5
21F6D
  8
0
 10
5124.4098579665333091
 20
602.0351497547120516
 30
0.0
 40
0.398973221622972
 50
85.0003679209245746
 51
89.7606935755367061
  0
ARC
  5
21F6E
  8
0
 10
5124.4092366414670323
 20
602.3545679802099357
 30
0.0
 40
0.0795844037397182
 50
88.352768461086967
 51
154.3099229933189065
  0
ARC
  5
21F6F
  8
0
 10
5124.6610121967569285
 20
602.2299590864447509
 30
0.0
 40
0.3605045374885863
 50
153.8098994272897926
 51
162.3183264050232992
  0
ARC
  5
21F70
  8
0
 10
5127.3640507495829297
 20
601.2626029933794598
 30
0.0
 40
3.2312299373403812
 50
160.5330130906540091
 51
165.2691492549110137
  0
ARC
  5
21F71
  8
0
 10
5122.5796552418742067
 20
584.5685265793829331
 30
0.0
 40
16.1269835634276504
 50
76.7526495702436335
 51
79.9773706532939741
  0
ARC
  5
21F72
  8
0
 10
5163.5105739333694146
 20
807.8231267459766514
 30
0.0
 40
210.849045542438688
 50
259.2564745452003763
 51
259.5828881819560934
  0
ARC
  5
21F73
  8
0
 10
5124.2364160198640093
 20
600.8579122858235451
 30
0.0
 40
0.1904717601964245
 50
249.8216963227692133
 51
260.6793979068543194
  0
ARC
  5
21F74
  8
0
 10
5124.1967263548767733
 20
600.7536068818548074
 30
0.0
 40
0.0788878631822735
 50
185.7859729547880931
 51
250.7472262866870949
  0
ARC
  5
21F75
  8
0
 10
5124.3982225645986546
 20
600.7887737210949126
 30
0.0
 40
0.2832831248120735
 50
181.8748513259205026
 51
188.7552698404946057
  0
ARC
  5
21F76
  8
0
 10
5129.0224420525482856
 20
601.02306878095294
 30
0.0
 40
4.9133915432379647
 50
178.4933106227107089
 51
182.8413894181759929
  0
ARC
  5
21F77
  8
0
 10
5128.2361176016229365
 20
601.0592528911346335
 30
0.0
 40
4.1264166391464014
 50
165.617416091499905
 51
178.7084784120023073
  0
LINE
  5
21F78
  8
0
 10
5126.3224078802695658
 20
602.8554795960565116
 30
0.0
 11
5126.3300261484700968
 21
602.6298806224565396
 31
0.0
  0
ARC
  5
21F79
  8
0
 10
5126.5264373103382241
 20
602.6367243260482383
 30
0.0
 40
0.1965303558866887
 50
181.9955931035052004
 51
269.3464678565136978
  0
ARC
  5
21F7A
  8
0
 10
5126.5365931362721312
 20
600.5925338458148417
 30
0.0
 40
1.8477145004193041
 50
84.00817634371559
 51
90.384435697610229
  0
ARC
  5
21F7B
  8
0
 10
5126.5976904263907272
 20
601.2916540460703345
 30
0.0
 40
1.1461010949302859
 50
60.2862581497689618
 51
83.3975018823026204
  0
ARC
  5
21F7C
  8
0
 10
5122.5856009545577763
 20
594.2423987713980296
 30
0.0
 40
9.2571337423169204
 50
58.1858580127216598
 51
60.3452590947146206
  0
ARC
  5
21F7D
  8
0
 10
5129.1980586932495498
 20
604.9457187843865995
 30
0.0
 40
3.3240896420881398
 50
238.5892363408632946
 51
243.1189941325152972
  0
ARC
  5
21F7E
  8
0
 10
5128.3221431499787286
 20
603.3327274895442542
 30
0.0
 40
1.490257130548017
 50
245.1176508910492089
 51
265.2871021708718899
  0
ARC
  5
21F7F
  8
0
 10
5124.6781064482456713
 20
593.959930317518797
 30
0.0
 40
6.5055363101787922
 50
72.2115858421044692
 51
75.788392012886149
  0
ARC
  5
21F80
  8
0
 10
5125.6449614346420276
 20
596.9734244525412805
 30
0.0
 40
3.3407368747429298
 50
66.1174459139843407
 51
72.2115858421044692
  0
ARC
  5
21F81
  8
0
 10
5126.6809780500052511
 20
599.3942997551588405
 30
0.0
 40
0.7084588286306422
 50
48.7823187941627197
 51
63.4627634101575424
  0
ARC
  5
21F82
  8
0
 10
5125.2418746303537773
 20
597.7727798684423988
 30
0.0
 40
2.876475603495289
 50
41.4491052837563032
 51
48.5023441802707893
  0
ARC
  5
21F83
  8
0
 10
5126.6643259956890688
 20
598.8820241566700133
 30
0.0
 40
1.081641786323563
 50
40.3960494513937789
 51
47.2951072761620708
  0
ARC
  5
21F84
  8
0
 10
5125.9736124839118929
 20
598.3685376257669759
 30
0.0
 40
1.9412756367943269
 50
9.1393155753721391
 51
38.7262872174781521
  0
ARC
  5
21F85
  8
0
 10
5123.8402999538830045
 20
598.0350808887217227
 30
0.0
 40
4.1004819519192131
 50
0.3612900491352147
 51
9.0048620794003078
  0
ARC
  5
21F86
  8
0
 10
-769.3029548744569865
 20
531.5589281515918856
 30
0.0
 40
5897.6186081071919034
 50
0.6338507820500509
 51
0.6460853859276452
  0
ARC
  5
21F87
  8
0
 10
5128.5503435746195464
 20
596.8267078688080574
 30
0.0
 40
0.5961031281330841
 50
182.4070009335353859
 51
210.8646107858720882
  0
ARC
  5
21F88
  8
0
 10
5128.5630669339652741
 20
596.7567595708898125
 30
0.0
 40
0.5669081337817098
 50
212.658473374676106
 51
327.3320241523812228
  0
LINE
  5
21F89
  8
0
 10
5132.2278490882699771
 20
602.8554795960565116
 30
0.0
 11
5132.2382134115187
 21
602.5569102218081525
 31
0.0
  0
ARC
  5
21F8A
  8
0
 10
5132.4349715947973891
 20
602.5640605303615303
 30
0.0
 40
0.1968880636273697
 50
182.0812465879047863
 51
278.6299764847590268
  0
ARC
  5
21F8B
  8
0
 10
5133.2283300755152595
 20
599.7693349280764323
 30
0.0
 40
2.7099372828101171
 50
100.9242034485835973
 51
106.3710701505169993
  0
ARC
  5
21F8C
  8
0
 10
5132.7175308996820604
 20
602.3479564993524491
 30
0.0
 40
0.082254622699611
 50
29.9873318791004486
 51
91.9240506491208293
  0
ARC
  5
21F8D
  8
0
 10
5132.465281375181803
 20
602.2299590864447509
 30
0.0
 40
0.3605045374885863
 50
17.6816735949766617
 51
26.1901005727102216
  0
ARC
  5
21F8E
  8
0
 10
5129.7622428223567113
 20
601.2626029933794598
 30
0.0
 40
3.2312299373403812
 50
14.7308507450890094
 51
19.4669869093459802
  0
ARC
  5
21F8F
  8
0
 10
5134.5466383300654343
 20
584.5685265793829331
 30
0.0
 40
16.1269835634276504
 50
100.0226293467059975
 51
103.2473504297562954
  0
ARC
  5
21F90
  8
0
 10
5093.6157196385702264
 20
807.8231267459766514
 30
0.0
 40
210.849045542438688
 50
280.4171118180439066
 51
280.7435254547996237
  0
ARC
  5
21F91
  8
0
 10
5132.8898775520747222
 20
600.8579122858235451
 30
0.0
 40
0.1904717601964245
 50
279.3206020931456806
 51
290.1783036772307014
  0
ARC
  5
21F92
  8
0
 10
5132.9295672170628677
 20
600.7536068818548074
 30
0.0
 40
0.0788878631822735
 50
289.2527737133128767
 51
354.2140270452118216
  0
ARC
  5
21F93
  8
0
 10
5132.7280710073400769
 20
600.7887737210949126
 30
0.0
 40
0.2832831248120735
 50
351.2447301595053091
 51
358.1251486740795258
  0
ARC
  5
21F94
  8
0
 10
5128.1038515193931744
 20
601.02306878095294
 30
0.0
 40
4.9133915432379647
 50
357.1586105818240071
 51
1.506689377289274
  0
ARC
  5
21F95
  8
0
 10
5128.890175970317614
 20
601.0592528911346335
 30
0.0
 40
4.1264166391464014
 50
1.2915215879977029
 51
14.3825839085000702
  0
LINE
  5
21F96
  8
0
 10
5130.8038856916700752
 20
602.8554795960565116
 30
0.0
 11
5130.7834486489700794
 21
602.2710558955565148
 31
0.0
  0
ARC
  5
21F97
  8
0
 10
5132.4481871236939696
 20
593.959930317518797
 30
0.0
 40
6.5055363101787922
 50
104.2116079871137941
 51
107.7884141578955024
  0
ARC
  5
21F98
  8
0
 10
5131.4813321372976134
 20
596.9734244525412805
 30
0.0
 40
3.3407368747429298
 50
107.7884141578955024
 51
113.882554086015702
  0
ARC
  5
21F99
  8
0
 10
5130.4453155219343898
 20
599.3942997551588405
 30
0.0
 40
0.7084588286306422
 50
116.5372365898423936
 51
131.2176812058372093
  0
ARC
  5
21F9A
  8
0
 10
5131.8844189415840447
 20
597.7727798684423988
 30
0.0
 40
2.876475603495289
 50
131.4976558197292036
 51
138.5508947162437039
  0
ARC
  5
21F9B
  8
0
 10
5130.4619675762505722
 20
598.8820241566700133
 30
0.0
 40
1.081641786323563
 50
132.7048927238379008
 51
139.6039505486062069
  0
ARC
  5
21F9C
  8
0
 10
5131.152681088027748
 20
598.3685376257669759
 30
0.0
 40
1.9412756367943269
 50
141.2737127825218124
 51
170.8606844246278058
  0
ARC
  5
21F9D
  8
0
 10
5133.2859936180566365
 20
598.0350808887217227
 30
0.0
 40
4.1004819519192131
 50
170.9951379205996886
 51
179.6387099508646941
  0
ARC
  5
21F9E
  8
0
 10
11026.4292484463894652
 20
531.5589281515918856
 30
0.0
 40
5897.6186081071919034
 50
179.3539146140722949
 51
179.3661492179498964
  0
ARC
  5
21F9F
  8
0
 10
5128.575949997321004
 20
596.8267078688080574
 30
0.0
 40
0.5961031281330841
 50
329.1353892141278834
 51
357.592999066464472
  0
ARC
  5
21FA0
  8
0
 10
5128.6133405494447288
 20
606.203976809718597
 30
0.0
 40
4.3760610638123554
 50
264.5760974339696077
 51
274.9974497841186007
  0
ARC
  5
21FA1
  8
0
 10
5130.596437775103368
 20
602.2764278338511303
 30
0.0
 40
0.1870880131521402
 50
284.3020029063064271
 51
358.3546155844430245
  0
ARC
  5
21FA2
  8
0
 10
5130.4853706552949006
 20
602.8017721659412018
 30
0.0
 40
0.7239266481198185
 50
278.3232101157075249
 51
282.5484510712876727
  0
ARC
  5
21FA3
  8
0
 10
5150.3316551685866216
 20
475.0726381210205886
 30
0.0
 40
128.5378778794205061
 50
98.8347405915503572
 51
99.3532529753194922
  0
ARC
  5
21FA4
  8
0
 10
5128.5049580220156713
 20
607.4589265728960754
 30
0.0
 40
5.6356817469446394
 50
274.983725732043979
 51
279.5663923482351265
  0
CIRCLE
  5
21FA5
  8
0
 10
5126.5946428491697588
 20
601.6940900481065455
 30
0.0
 40
0.3110236220499996
  0
CIRCLE
  5
21FA6
  8
0
 10
5126.5946428491697588
 20
601.6940900481065455
 30
0.0
 40
0.4133858267499999
  0
ARC
  5
21FA8
  8
0
 10
5127.0110882835260782
 20
602.8559347097484533
 30
0.0
 40
0.2903065347365628
 50
313.1283163238363159
 51
46.8716836761614601
  0
LINE
  5
21FA9
  8
0
 10
5126.3372558785185902
 20
603.5255709652083169
 30
0.0
 11
5126.8246353063696006
 21
603.2867552383581824
 31
0.0
  0
ARC
  5
21FAA
  8
0
 10
5117.5566762888593075
 20
584.3725378923237486
 30
0.0
 40
21.0628270221094915
 50
63.1832347366223175
 51
63.8951642676234783
  0
ARC
  5
21FAB
  8
0
 10
5126.7389712849962962
 20
602.5371832981693387
 30
0.0
 40
0.7092306785584416
 50
48.4319979090502386
 51
63.1832347366223175
  0
LINE
  5
21FAC
  8
0
 10
5126.3579343555165906
 20
602.5355762415304071
 30
0.0
 11
5126.7449530308203975
 21
602.5446410944582567
 31
0.0
  0
ARC
  5
21FAD
  8
0
 10
5126.6563278050052759
 20
608.1328000603867849
 30
0.0
 40
5.588861696189797
 50
270.9086043831342749
 51
272.739296705706181
  0
ARC
  5
21FAE
  8
0
 10
5126.8914282963824007
 20
603.310520282640141
 30
0.0
 40
0.7608689073734111
 50
272.4103938737487169
 51
286.0064805640757868
  0
ARC
  5
21FAF
  8
0
 10
5126.9980818540489054
 20
602.874107433122731
 30
0.0
 40
0.3124748255579127
 50
289.2758399029651741
 51
312.5908599701190269
  0
ARC
  5
21FB0
  8
0
 10
5128.8289204240945764
 20
505.3123501895209984
 30
0.0
 40
97.8057800830395507
 50
91.2041543462787843
 51
91.4696873564073627
  0
ARC
  5
21FB1
  8
0
 10
5126.695095188754749
 20
606.8285551257464476
 30
0.0
 40
3.732848402816547
 50
271.2041543462788127
 51
276.8419543051056735
  0
ARC
  5
21FB2
  8
0
 10
5125.6103908785198655
 20
604.8990070208083125
 30
0.0
 40
0.7199999999999989
 50
354.7396756710281238
 51
185.2603243289686077
  0
ARC
  5
21FB3
  8
0
 10
5132.7804777376713901
 20
604.4971057995825277
 30
0.0
 40
7.894203679640964
 50
177.2933218900348038
 51
179.4186068714209057
  0
ARC
  5
21FB4
  8
0
 10
5160.5758769170079177
 20
604.114152511795055
 30
0.0
 40
35.692200322652873
 50
179.2566468799431902
 51
179.8191969737600004
  0
LINE
  5
21FB5
  8
0
 10
5124.8838543032197776
 20
604.2267829215082884
 30
0.0
 11
5124.8835258785202313
 21
603.4241480717081458
 31
0.0
  0
LINE
  5
21FB6
  8
0
 10
5124.8835258785202313
 20
603.4241480717081458
 30
0.0
 11
5124.8836019846203271
 21
603.422404956708192
 31
0.0
  0
LINE
  5
21FB7
  8
0
 10
5124.8836019846203271
 20
603.422404956708192
 30
0.0
 11
5124.9003147725197778
 21
603.2313769168082445
 31
0.0
  0
LINE
  5
21FB8
  8
0
 10
5124.9003147725197778
 20
603.2313769168082445
 30
0.0
 11
5124.9003908785198291
 21
603.2296338019082214
 31
0.0
  0
LINE
  5
21FB9
  8
0
 10
5124.9003908785198291
 20
603.2296338019082214
 30
0.0
 11
5124.9003908785198291
 21
602.8554795960565116
 31
0.0
  0
ARC
  5
21FBA
  8
0
 10
5125.6103946249304499
 20
604.9087703727284406
 30
0.0
 40
0.698987020631749
 50
60.875508580455147
 51
119.1244914195447961
  0
ARC
  5
21FBB
  8
0
 10
5125.6179857957877175
 20
604.8880429755389514
 30
0.0
 40
0.7207967131356254
 50
118.8497084895465008
 51
127.1574555685109971
  0
ARC
  5
21FBC
  8
0
 10
5125.6075052908718135
 20
604.9018718412936551
 30
0.0
 40
0.7034450990509298
 50
127.1574555685109971
 51
142.6707942113702927
  0
ARC
  5
21FBD
  8
0
 10
5125.618543146070806
 20
604.8929340722183952
 30
0.0
 40
0.7176419365074269
 50
142.6377640752351112
 51
161.7059359558703022
  0
ARC
  5
21FBE
  8
0
 10
5125.8901128207016882
 20
604.8289404827228282
 30
0.0
 40
0.9958741893575783
 50
163.1147708187986041
 51
177.6432195626343002
  0
ARC
  5
21FBF
  8
0
 10
5125.6103912835005758
 20
604.9495504832949564
 30
0.0
 40
0.6280809258134632
 50
59.0683840003340421
 51
120.9316159996658939
  0
ARC
  5
21FC0
  8
0
 10
5125.5823835889232214
 20
605.0010834985200745
 30
0.0
 40
0.5694858298740346
 50
121.179543705436501
 51
143.7634140114456898
  0
ARC
  5
21FC1
  8
0
 10
5125.5349741286745484
 20
605.0358284891341327
 30
0.0
 40
0.5107076766720803
 50
143.7634140114456898
 51
163.7284580471570052
  0
ARC
  5
21FC2
  8
0
 10
5125.3210446983366637
 20
605.0982705073796524
 30
0.0
 40
0.287851654076255
 50
163.7284580471537936
 51
184.6356126902470862
  0
ARC
  5
21FC3
  8
0
 10
5125.1594438672937031
 20
605.0966475653414136
 30
0.0
 40
0.1271641563118173
 50
189.7982805827363961
 51
245.7208865248082077
  0
ARC
  5
21FC4
  8
0
 10
5125.3787267085190251
 20
605.5689209037973342
 30
0.0
 40
0.6478566745408941
 50
245.2169862562352876
 51
263.4292578732823245
  0
ARC
  5
21FC5
  8
0
 10
5118.4403040193692505
 20
604.4971057995825277
 30
0.0
 40
7.894203679640964
 50
0.5813931285790807
 51
2.7066781099651989
  0
ARC
  5
21FC6
  8
0
 10
5090.6449048400318134
 20
604.114152511795055
 30
0.0
 40
35.692200322652873
 50
0.1808030262399977
 51
0.7433531200567363
  0
LINE
  5
21FC7
  8
0
 10
5126.3369274538199534
 20
604.2267829215082884
 30
0.0
 11
5126.3372558785185902
 21
603.4241480717081458
 31
0.0
  0
LINE
  5
21FC8
  8
0
 10
5126.3372558785185902
 20
603.4241480717081458
 30
0.0
 11
5126.3371797724203134
 21
603.422404956708192
 31
0.0
  0
LINE
  5
21FC9
  8
0
 10
5126.3371797724203134
 20
603.422404956708192
 30
0.0
 11
5126.3204669845199533
 21
603.2313769168082445
 31
0.0
  0
LINE
  5
21FCA
  8
0
 10
5126.3204669845199533
 20
603.2313769168082445
 30
0.0
 11
5126.3203908785199019
 21
603.2296338019082214
 31
0.0
  0
LINE
  5
21FCB
  8
0
 10
5126.3203908785199019
 20
603.2296338019082214
 30
0.0
 11
5126.3203908785199019
 21
602.8554795960565116
 31
0.0
  0
ARC
  5
21FCC
  8
0
 10
5125.6023997470038012
 20
604.8874788120346011
 30
0.0
 40
0.721485656204607
 50
52.8445285559811282
 51
61.14382837963214
  0
ARC
  5
21FCD
  8
0
 10
5125.6132764661679175
 20
604.9018718412936551
 30
0.0
 40
0.7034450990509298
 50
37.3292057886297215
 51
52.8425444314889887
  0
ARC
  5
21FCE
  8
0
 10
5125.6022386109689251
 20
604.8929340722183952
 30
0.0
 40
0.7176419365074269
 50
18.2940640441296409
 51
37.3622359247648816
  0
ARC
  5
21FCF
  8
0
 10
5125.3306689363389523
 20
604.8289404827228282
 30
0.0
 40
0.9958741893575783
 50
2.3567804373656669
 51
16.8852291812013391
  0
ARC
  5
21FD0
  8
0
 10
5125.6383900646078473
 20
605.0010762321103357
 30
0.0
 40
0.5694966613536714
 50
36.2366937203367314
 51
58.8200675527635681
  0
ARC
  5
21FD1
  8
0
 10
5125.6858076283651826
 20
605.0358284891341327
 30
0.0
 40
0.5107076766720803
 50
16.2715419528430409
 51
36.2365859885542605
  0
ARC
  5
21FD2
  8
0
 10
5125.8997370587030673
 20
605.0982705073796524
 30
0.0
 40
0.287851654076255
 50
355.3643873097527717
 51
16.2715419528461602
  0
ARC
  5
21FD3
  8
0
 10
5126.0613378897451184
 20
605.0966475653414136
 30
0.0
 40
0.1271641563118173
 50
294.2791134751918207
 51
350.2017194172636891
  0
ARC
  5
21FD4
  8
0
 10
5125.8420550485197964
 20
605.5689209037973342
 30
0.0
 40
0.6478566745408941
 50
276.5707421267176755
 51
294.7830137437646272
  0
ARC
  5
21FD5
  8
0
 10
5125.6103908785198655
 20
608.1895293261851521
 30
0.0
 40
3.2785021781769501
 50
264.6480258526148077
 51
275.3519741473851923
  0
LINE
  5
21FD6
  8
0
 10
5124.6259479271202508
 20
604.380597214608315
 30
0.0
 11
5124.8839417825201963
 21
604.2509957753081835
 31
0.0
  0
ARC
  5
21FD7
  8
0
 10
5123.9062301376197865
 20
601.98585388900824
 30
0.0
 40
2.5006162587999778
 50
66.9779408948214581
 51
90.0546766372166871
  0
ARC
  5
21FD8
  8
0
 10
5123.9061347083170403
 20
602.085853848298143
 30
0.0
 40
2.4006162539763949
 50
90.0546766233553768
 51
99.5632132323447934
  0
ARC
  5
21FD9
  8
0
 10
5122.9853908785198655
 20
604.8990070208083125
 30
0.0
 40
0.5593837412000113
 50
71.8732830184948739
 51
138.2182284691963901
  0
ARC
  5
21FDA
  8
0
 10
5123.9063049554260942
 20
607.7121044699999857
 30
0.0
 40
2.4006162580722412
 50
251.8732830184949023
 51
270.0975442771343751
  0
ARC
  5
21FDB
  8
0
 10
5123.9061347086253591
 20
607.8121043269145503
 30
0.0
 40
2.5006162599068742
 50
270.0975442771343751
 51
300.3290151316704168
  0
ARC
  5
21FDC
  8
0
 10
5125.6103908785198655
 20
604.8990070208083125
 30
0.0
 40
0.874383741199999
 50
326.0684358688027942
 51
120.3290151338471929
  0
ARC
  5
21FDD
  8
0
 10
5122.594371915103693
 20
605.2483977795498049
 30
0.0
 40
0.0350081773608715
 50
138.2221857995907897
 51
204.2868240870720911
  0
LINE
  5
21FDE
  8
0
 10
5122.562462035459248
 20
605.233998749610123
 30
0.0
 11
5122.5695200290501816
 21
605.2183687268025096
 31
0.0
  0
ARC
  5
21FDF
  8
0
 10
5122.6013874470618248
 20
605.2328838613531161
 30
0.0
 40
0.0350174451061244
 50
204.4885586151910957
 51
269.9865748551969205
  0
LINE
  5
21FE0
  8
0
 10
5122.6013792420199024
 20
605.1978664172081608
 30
0.0
 11
5122.6452865251976618
 21
605.1978664172081608
 31
0.0
  0
ARC
  5
21FE1
  8
0
 10
5122.5943588775862736
 20
605.248406735045819
 30
0.0
 40
0.0349999797430299
 50
204.3089653317024101
 51
270.0087211319632843
  0
LINE
  5
21FE2
  8
0
 10
5122.5943642050197013
 20
605.2134067557083199
 30
0.0
 11
5122.6427129674211756
 21
605.2134067557083199
 31
0.0
  0
ARC
  5
21FE3
  8
0
 10
5122.6427129674211756
 20
605.2333731622904907
 30
0.0
 40
0.0199664065821708
 50
270.0
 51
315.7625729345127183
  0
ARC
  5
21FE4
  8
0
 10
5122.9853908785198655
 20
604.8990070208083125
 30
0.0
 40
0.4527559054999984
 50
345.896970417772593
 51
194.1030296037320113
  0
ARC
  5
21FE5
  8
0
 10
5122.9853908785198655
 20
604.8990070208083125
 30
0.0
 40
0.4593264228999985
 50
344.669177892659377
 51
134.0221813657757934
  0
ARC
  5
21FE6
  8
0
 10
5122.783683792940792
 20
605.1107313627230724
 30
0.0
 40
0.1669210771100708
 50
134.7407468693567978
 51
139.3617264259345916
  0
ARC
  5
21FE7
  8
0
 10
5123.1821405850432711
 20
604.7024748106642846
 30
0.0
 40
0.2572363832685893
 50
17.1237924043046803
 51
28.9248652678352585
  0
ARC
  5
21FE8
  8
0
 10
5123.1400291920008385
 20
604.6012485808366819
 30
0.0
 40
0.3379780809790762
 50
28.1079003209527691
 51
50.3551406700840403
  0
ARC
  5
21FE9
  8
0
 10
5122.9853908785698877
 20
604.3044739795956275
 30
0.0
 40
0.6795398408949822
 50
83.0285966359023035
 51
96.9714033640977249
  0
ARC
  5
21FEA
  8
0
 10
5122.8051497359083442
 20
603.9242338456881498
 30
0.0
 40
1.086982921713298
 50
59.5713607441595911
 51
76.0133306461397069
  0
ARC
  5
21FEB
  8
0
 10
5122.9853908785698877
 20
604.1337111792415726
 30
0.0
 40
0.6795398446212105
 50
83.0285966743310411
 51
96.9714033256689447
  0
ARC
  5
21FEC
  8
0
 10
5123.6105052746515867
 20
605.7261811808025413
 30
0.0
 40
1.0663458684480329
 50
239.4111260894312068
 51
247.1820413927812012
  0
ARC
  5
21FED
  8
0
 10
5123.6101170563151754
 20
605.7250854017755728
 30
0.0
 40
1.065183987523278
 50
248.5954316589763096
 51
256.1797560117875037
  0
LINE
  5
21FEE
  8
0
 10
5123.3556683541200982
 20
604.8614964146081547
 30
0.0
 11
5123.3556695611168834
 21
604.6907385549861829
 31
0.0
  0
ARC
  5
21FEF
  8
0
 10
5123.1399274468913063
 20
604.4304180100813255
 30
0.0
 40
0.3380997573952341
 50
28.1099077182066885
 51
50.3495682003606575
  0
LINE
  5
21FF0
  8
0
 10
5123.438146784120363
 20
604.7604813805081676
 30
0.0
 11
5123.438146784120363
 21
604.5213894613252705
 31
0.0
  0
ARC
  5
21FF1
  8
0
 10
5122.9853908785698877
 20
604.5128801150028721
 30
0.0
 40
0.573664542324544
 50
65.4199154613266245
 51
114.5800845386734039
  0
ARC
  5
21FF2
  8
0
 10
5123.0551007175517952
 20
604.6764428074236548
 30
0.0
 40
0.3959541737435621
 50
46.1936556426514997
 51
64.7479678183357095
  0
ARC
  5
21FF3
  8
0
 10
5123.1419090718791267
 20
604.7669456598387114
 30
0.0
 40
0.2705490036898578
 50
13.8311058593371996
 51
46.1936556426514997
  0
ARC
  5
21FF4
  8
0
 10
5123.153054041879841
 20
604.6863476217151856
 30
0.0
 40
0.290494633861713
 50
28.9342013013233412
 51
39.0343225818148412
  0
ARC
  5
21FF5
  8
0
 10
5123.0327887805542559
 20
604.5464418312972157
 30
0.0
 40
0.4764538837057552
 50
55.1697326787767111
 51
68.8577001690284334
  0
ARC
  5
21FF6
  8
0
 10
5123.0969647648944374
 20
604.6386749658206554
 30
0.0
 40
0.3640905975761395
 50
39.3028546054101469
 51
55.1697326787767111
  0
LINE
  5
21FF7
  8
0
 10
5123.0678693085201303
 20
604.8082270864082375
 30
0.0
 11
5123.0678693085201303
 21
604.9789898830082393
 31
0.0
  0
ARC
  5
21FF8
  8
0
 10
5122.9853908785926251
 20
604.1535531027930119
 30
0.0
 40
0.6267642083153216
 50
73.1296720981525112
 51
106.870327901847503
  0
ARC
  5
21FF9
  8
0
 10
5123.0259910537261021
 20
604.2874332427945774
 30
0.0
 40
0.4868632929944031
 50
50.8978646505820294
 51
73.1296720981525112
  0
ARC
  5
21FFA
  8
0
 10
5123.1169105259914431
 20
604.4082602229465238
 30
0.0
 40
0.3358029923693703
 50
33.2754235876473174
 51
49.9337033800179668
  0
ARC
  5
21FFB
  8
0
 10
5123.1884752338237377
 20
604.4552255195662838
 30
0.0
 40
0.2502036553757156
 50
17.4448648926224301
 51
33.2754235876500388
  0
ARC
  5
21FFC
  8
0
 10
5122.9853908785698877
 20
604.1006765169197479
 30
0.0
 40
0.6239624793007349
 50
71.3899719513487554
 51
108.610028048651202
  0
ARC
  5
21FFD
  8
0
 10
5123.0229339210927719
 20
604.2199409248302118
 30
0.0
 40
0.4989593348920276
 50
58.82491225491124
 51
71.1051607992640271
  0
ARC
  5
21FFE
  8
0
 10
5123.078944803102786
 20
604.3125167012748307
 30
0.0
 40
0.3907581644376024
 50
40.5520690715981189
 51
58.82491225491124
  0
LINE
  5
21FFF
  8
0
 10
5123.5510148877938263
 20
604.3047066279932551
 30
0.0
 11
5124.8835258785202313
 21
603.6345478971082912
 31
0.0
  0
ARC
  5
22000
  8
0
 10
5124.1381517206891658
 20
606.9717985973267105
 30
0.0
 40
3.9002975356929581
 50
261.3782143674848726
 51
267.1725540809925974
  0
ARC
  5
22001
  8
0
 10
5124.7226588383400667
 20
618.7471411574565536
 30
0.0
 40
15.6901380279090894
 50
267.1618219531259797
 51
270.6490391327155862
  0
ARC
  5
22002
  8
0
 10
5124.2415038695380645
 20
608.080289095400417
 30
0.0
 40
5.5643843443330576
 50
262.9157514033130951
 51
267.8872407750719731
  0
ARC
  5
22003
  8
0
 10
5124.7326777566695455
 20
620.2105916009111297
 30
0.0
 40
17.7046023027398185
 50
267.7460084852071986
 51
270.4060420541313761
  0
ARC
  5
22004
  8
0
 10
5118.5487437567689994
 20
587.1994549774104826
 30
0.0
 40
16.1764251859375605
 50
69.1391193672759954
 51
71.5679253000735116
  0
ARC
  5
22005
  8
0
 10
5122.6267878302132885
 20
598.7382075364848788
 30
0.0
 40
2.0427825676084161
 50
162.5750704117689907
 51
197.4249295882308957
  0
ARC
  5
22006
  8
0
 10
5122.7057459712632408
 20
598.7145770170591277
 30
0.0
 40
2.1251939130467492
 50
149.6291056517653999
 51
162.6046826959619978
  0
ARC
  5
22007
  8
0
 10
5122.7630357835951145
 20
598.6597174405758324
 30
0.0
 40
2.2024352135114689
 50
125.7818955551084059
 51
149.1513197346957895
  0
ARC
  5
22008
  8
0
 10
5122.9347385555811343
 20
598.409209971434052
 30
0.0
 40
2.5060641768534571
 50
105.1915921877843942
 51
125.6177760931450962
  0
ARC
  5
22009
  8
0
 10
5122.238926551401164
 20
600.985945948588892
 30
0.0
 40
0.1630061915381906
 50
283.8802047722301154
 51
325.0258762347435209
  0
ARC
  5
2200A
  8
0
 10
5122.1823288164614496
 20
601.019077009488683
 30
0.0
 40
0.228435293261851
 50
326.3538854579816189
 51
359.2968801839572279
  0
ARC
  5
2200B
  8
0
 10
5142.0024564007317167
 20
600.9056893328016713
 30
0.0
 40
19.5920215832686999
 50
179.4438841697904081
 51
179.6766002125129091
  0
ARC
  5
2200C
  8
0
 10
5535.576475568834212
 20
600.6046877404120323
 30
0.0
 40
413.1654098402124191
 50
179.7623593128944037
 51
179.9318883209818125
  0
ARC
  5
2200D
  8
0
 10
4385.491162814971176
 20
605.2211448455550453
 30
0.0
 40
736.9291738915858332
 50
359.7743076077650812
 51
359.9341696074362744
  0
ARC
  5
2200E
  8
0
 10
5122.4716625107466825
 20
604.3741536532377268
 30
0.0
 40
0.0518130344106851
 50
150.2068928240865091
 51
179.6777923102642944
  0
ARC
  5
2200F
  8
0
 10
5122.7844468356461221
 20
604.1919499638598836
 30
0.0
 40
0.4137954927184004
 50
133.8155814836389936
 51
149.8319367549339063
  0
ARC
  5
22010
  8
0
 10
5122.9261194050095582
 20
604.0442955746908638
 30
0.0
 40
0.61842426770204
 50
121.4994513370176037
 51
133.8155814836389936
  0
ARC
  5
22011
  8
0
 10
5122.4353084229096567
 20
598.8436165633129349
 30
0.0
 40
1.8234793098761
 50
164.547092291123505
 51
195.4529077088764097
  0
ARC
  5
22012
  8
0
 10
5122.5284377654406853
 20
598.8174151335888382
 30
0.0
 40
1.920223329238165
 50
150.1712059184199859
 51
164.5339552747196876
  0
ARC
  5
22013
  8
0
 10
5122.7959743168676141
 20
598.8544901257735091
 30
0.0
 40
2.2526986819149428
 50
217.6801073407426941
 51
238.842874175381894
  0
ARC
  5
22014
  8
0
 10
5122.6935858432680106
 20
598.7570643687605525
 30
0.0
 40
2.112162976803782
 50
197.3703625898519931
 51
217.2861978659981048
  0
ARC
  5
22015
  8
0
 10
5122.9853908785698877
 20
599.4455300917803697
 30
0.0
 40
2.6778868573773389
 50
245.9046360413477998
 51
294.0953639586521149
  0
ARC
  5
22016
  8
0
 10
5122.8342210797127336
 20
599.1111697949153267
 30
0.0
 40
2.3109447193237762
 50
218.1996085717993878
 51
245.9416561981960001
  0
ARC
  5
22017
  8
0
 10
5122.5657132403848664
 20
598.8852829477096975
 30
0.0
 40
1.960279293345637
 50
195.6111579037257115
 51
217.8643680118476027
  0
ARC
  5
22018
  8
0
 10
5122.7886411720974138
 20
604.7024748106642846
 30
0.0
 40
0.2572363832685893
 50
151.0751347321647131
 51
162.8762075956952913
  0
ARC
  5
22019
  8
0
 10
5122.8307525651389369
 20
604.6012485808366819
 30
0.0
 40
0.3379780809790762
 50
129.6448593299159029
 51
151.8920996790471918
  0
ARC
  5
2201A
  8
0
 10
5123.1656320212314313
 20
603.9242338456881498
 30
0.0
 40
1.086982921713298
 50
103.9866693538602931
 51
120.4286392558403946
  0
ARC
  5
2201B
  8
0
 10
5122.3602764824881888
 20
605.7261811808025413
 30
0.0
 40
1.0663458684480329
 50
292.8179586072188272
 51
300.5888739105686795
  0
ARC
  5
2201C
  8
0
 10
5122.3606647008236905
 20
605.7250854017755728
 30
0.0
 40
1.0651839875232929
 50
283.8202439882123826
 51
291.4045683410237189
  0
LINE
  5
2201D
  8
0
 10
5122.6151134030196772
 20
604.8614964146081547
 30
0.0
 11
5122.6151121960219825
 21
604.6907385549861829
 31
0.0
  0
ARC
  5
2201E
  8
0
 10
5122.8308543102475596
 20
604.4304180100813255
 30
0.0
 40
0.3380997573952341
 50
129.650431799639307
 51
151.8900922817933008
  0
LINE
  5
2201F
  8
0
 10
5122.5326349730203219
 20
604.7604813805081676
 30
0.0
 11
5122.5326349730203219
 21
604.5213894613252705
 31
0.0
  0
ARC
  5
22020
  8
0
 10
5122.9156810395879802
 20
604.6764428074236548
 30
0.0
 40
0.3959541737435621
 50
115.2520321816643047
 51
133.8063443573485074
  0
ARC
  5
22021
  8
0
 10
5122.8288726852606487
 20
604.7669456598387114
 30
0.0
 40
0.2705490036898578
 50
133.8063443573485074
 51
166.1688941406627862
  0
ARC
  5
22022
  8
0
 10
5122.8177277152599345
 20
604.6863476217151856
 30
0.0
 40
0.290494633861713
 50
140.9656774181850949
 51
151.0657986986765877
  0
ARC
  5
22023
  8
0
 10
5122.93799297658461
 20
604.5464418312972157
 30
0.0
 40
0.4764538837057552
 50
111.1422998309714956
 51
124.8302673212233032
  0
ARC
  5
22024
  8
0
 10
5122.8738169922462475
 20
604.6386749658206554
 30
0.0
 40
0.3640905975761395
 50
124.8302673212233032
 51
140.6971453945897963
  0
LINE
  5
22025
  8
0
 10
5122.9029124486187357
 20
604.8082270864082375
 30
0.0
 11
5122.9029124486187357
 21
604.9789898830082393
 31
0.0
  0
ARC
  5
22026
  8
0
 10
5122.9447907034145828
 20
604.2874332427945774
 30
0.0
 40
0.4868632929944031
 50
106.870327901847503
 51
129.1021353494178925
  0
ARC
  5
22027
  8
0
 10
5122.8538712311492418
 20
604.4082602229465238
 30
0.0
 40
0.3358029923693703
 50
130.0662966199820119
 51
146.7245764123526897
  0
ARC
  5
22028
  8
0
 10
5122.7823065233160378
 20
604.4552255195662838
 30
0.0
 40
0.2502036553757156
 50
146.7245764123499043
 51
162.5551351073775947
  0
ARC
  5
22029
  8
0
 10
5122.947847836046094
 20
604.2199409248302118
 30
0.0
 40
0.4989593348920276
 50
108.8948392007360013
 51
121.1750877450887032
  0
ARC
  5
2202A
  8
0
 10
5122.8918369540369895
 20
604.3125167012748307
 30
0.0
 40
0.3907581644376024
 50
121.1750877450887032
 51
139.4479309284018882
  0
ARC
  5
2202B
  8
0
 10
5122.9853908785698877
 20
604.4106135458782774
 30
0.0
 40
0.620253412172495
 50
69.2996125960931977
 51
110.7003874039068023
  0
ARC
  5
2202C
  8
0
 10
5122.9853908785698877
 20
603.9661000237724693
 30
0.0
 40
0.7161315428745337
 50
57.7259651457179572
 51
122.274034854281993
  0
ARC
  5
2202D
  8
0
 10
5123.3439939269255774
 20
598.7382075364848788
 30
0.0
 40
2.0427825676084161
 50
342.5750704117691043
 51
17.424929588230949
  0
ARC
  5
2202E
  8
0
 10
5123.2650357858774441
 20
598.7145770170591277
 30
0.0
 40
2.1251939130467492
 50
17.3953173040379703
 51
30.3708943482345504
  0
ARC
  5
2202F
  8
0
 10
5123.207745973544661
 20
598.6597174405758324
 30
0.0
 40
2.2024352135114689
 50
30.8486802653041998
 51
54.2181044448915301
  0
ARC
  5
22030
  8
0
 10
5123.0360432015586412
 20
598.409209971434052
 30
0.0
 40
2.5060641768534571
 50
54.3822239068548683
 51
74.8084078122155489
  0
ARC
  5
22031
  8
0
 10
5123.7318552057386114
 20
600.985945948588892
 30
0.0
 40
0.1630061915381906
 50
214.9741237652565076
 51
256.1197952277698278
  0
ARC
  5
22032
  8
0
 10
5123.7884529406783258
 20
601.019077009488683
 30
0.0
 40
0.228435293261851
 50
180.7031198160428005
 51
213.6461145420184096
  0
ARC
  5
22033
  8
0
 10
5103.9683253564080587
 20
600.9056893328016713
 30
0.0
 40
19.5920215832686999
 50
0.3233997874870576
 51
0.5561158302095417
  0
ARC
  5
22034
  8
0
 10
4710.3943061883046539
 20
600.6046877404120323
 30
0.0
 40
413.1654098402124191
 50
0.0681116790182004
 51
0.2376406871054997
  0
ARC
  5
22035
  8
0
 10
5860.4796188955597245
 20
605.2211448454852416
 30
0.0
 40
736.9291738449770719
 50
180.0658303925604002
 51
180.2256923922446106
  0
ARC
  5
22036
  8
0
 10
5123.4991192463949119
 20
604.3741536532385226
 30
0.0
 40
0.0518130344086488
 50
0.3222076888823611
 51
29.7931071762115707
  0
ARC
  5
22037
  8
0
 10
5123.1863349214936534
 20
604.1919499638598836
 30
0.0
 40
0.4137954927184004
 50
30.1680632450661008
 51
46.1844185163609779
  0
ARC
  5
22038
  8
0
 10
5123.0446623521293077
 20
604.0442955746908638
 30
0.0
 40
0.61842426770204
 50
46.1844185163609779
 51
58.5005486629823466
  0
ARC
  5
22039
  8
0
 10
5123.5354733342301188
 20
598.8436165633129349
 30
0.0
 40
1.8234793098761
 50
344.5470922911234766
 51
15.4529077088764808
  0
ARC
  5
2203A
  8
0
 10
5123.4423439916990901
 20
598.8174151335888382
 30
0.0
 40
1.920223329238165
 50
15.4660447252803195
 51
29.828794081580039
  0
ARC
  5
2203B
  8
0
 10
5123.1748074402721613
 20
598.8544901257735091
 30
0.0
 40
2.2526986819149428
 50
301.157125824618106
 51
322.3198926592572775
  0
ARC
  5
2203C
  8
0
 10
5123.2771959138708553
 20
598.7570643687605525
 30
0.0
 40
2.112162976803782
 50
322.7138021340019236
 51
342.6296374101478932
  0
ARC
  5
2203D
  8
0
 10
5123.1365606774261323
 20
599.1111697949153267
 30
0.0
 40
2.3109447193237762
 50
294.0583438018040283
 51
321.8003914282006122
  0
ARC
  5
2203E
  8
0
 10
5123.4050685167549091
 20
598.8852829477096975
 30
0.0
 40
1.960279293345637
 50
322.1356319881523973
 51
344.3888420962741748
  0
ARC
  5
2203F
  8
0
 10
5122.9853908785698877
 20
599.2038724406877463
 30
0.0
 40
2.6497505963776149
 50
239.2466293809069953
 51
300.7533706190930047
  0
ARC
  5
22040
  8
0
 10
5124.3458158342682509
 20
604.4971057995825277
 30
0.0
 40
7.894203679640964
 50
0.5813931285790807
 51
2.7066781099651989
  0
ARC
  5
22041
  8
0
 10
5096.5504166549308138
 20
604.114152511795055
 30
0.0
 40
35.692200322652873
 50
0.1808030262399977
 51
0.7433531200567363
  0
LINE
  5
22042
  8
0
 10
5132.2424392687189538
 20
604.2267829215082884
 30
0.0
 11
5132.2427676934203191
 21
603.4241480717081458
 31
0.0
  0
LINE
  5
22043
  8
0
 10
5132.2426915873202233
 20
603.422404956708192
 30
0.0
 11
5132.2259787994198632
 21
603.2313769168082445
 31
0.0
  0
LINE
  5
22044
  8
0
 10
5132.2259787994198632
 20
603.2313769168082445
 30
0.0
 11
5132.2259026934198118
 21
603.2296338019082214
 31
0.0
  0
LINE
  5
22045
  8
0
 10
5132.2259026934198118
 20
603.2296338019082214
 30
0.0
 11
5132.2259026934198118
 21
602.8554795960565116
 31
0.0
  0
ARC
  5
22046
  8
0
 10
5131.5158989470101005
 20
604.9087703727284406
 30
0.0
 40
0.698987020631749
 50
60.875508580455147
 51
119.1244914195447961
  0
ARC
  5
22047
  8
0
 10
5131.508307776152833
 20
604.8880429755389514
 30
0.0
 40
0.7207967131356254
 50
52.8425444314889887
 51
61.1502915104534779
  0
ARC
  5
22048
  8
0
 10
5131.518788281066918
 20
604.9018718412936551
 30
0.0
 40
0.7034450990509298
 50
37.3292057886297215
 51
52.8425444314889887
  0
ARC
  5
22049
  8
0
 10
5131.507750425868835
 20
604.8929340722183952
 30
0.0
 40
0.7176419365074269
 50
18.2940640441296409
 51
37.3622359247648816
  0
ARC
  5
2204A
  8
0
 10
5131.2361807512379528
 20
604.8289404827228282
 30
0.0
 40
0.9958741893575783
 50
2.3567804373656669
 51
16.8852291812013391
  0
ARC
  5
2204B
  8
0
 10
5131.5159022884390652
 20
604.9495504832949564
 30
0.0
 40
0.6280809258134632
 50
59.0683840003340421
 51
120.9316159996658939
  0
ARC
  5
2204C
  8
0
 10
5131.5439099830164196
 20
605.0010834985200745
 30
0.0
 40
0.5694858298740346
 50
36.2365859885542605
 51
58.8204562945635274
  0
ARC
  5
2204D
  8
0
 10
5131.5913194432650926
 20
605.0358284891341327
 30
0.0
 40
0.5107076766720803
 50
16.2715419528430409
 51
36.2365859885542605
  0
ARC
  5
2204E
  8
0
 10
5131.8052488736029773
 20
605.0982705073796524
 30
0.0
 40
0.287851654076255
 50
355.3643873097527717
 51
16.2715419528461602
  0
ARC
  5
2204F
  8
0
 10
5131.9668497046450284
 20
605.0966475653414136
 30
0.0
 40
0.1271641563118173
 50
294.2791134751918207
 51
350.2017194172636891
  0
ARC
  5
22050
  8
0
 10
5131.7475668634197064
 20
605.5689209037973342
 30
0.0
 40
0.6478566745408941
 50
276.5707421267176755
 51
294.7830137437646272
  0
ARC
  5
22051
  8
0
 10
5138.6859895525722095
 20
604.4971057995825277
 30
0.0
 40
7.894203679640964
 50
177.2933218900348038
 51
179.4186068714209057
  0
ARC
  5
22052
  8
0
 10
5166.4813887319087371
 20
604.114152511795055
 30
0.0
 40
35.692200322652873
 50
179.2566468799431902
 51
179.8191969737600004
  0
LINE
  5
22053
  8
0
 10
5130.7893661181187781
 20
604.2267829215082884
 30
0.0
 11
5130.7890376934201413
 21
603.4241480717081458
 31
0.0
  0
LINE
  5
22054
  8
0
 10
5130.7891137995202371
 20
603.422404956708192
 30
0.0
 11
5130.8058265874187782
 21
603.2313769168082445
 31
0.0
  0
LINE
  5
22055
  8
0
 10
5130.8058265874187782
 20
603.2313769168082445
 30
0.0
 11
5130.8059026934197391
 21
603.2296338019082214
 31
0.0
  0
LINE
  5
22056
  8
0
 10
5130.8059026934197391
 20
603.2296338019082214
 30
0.0
 11
5130.8059026934197391
 21
602.8554795960565116
 31
0.0
  0
ARC
  5
22057
  8
0
 10
5131.5238938249367493
 20
604.8874788120346011
 30
0.0
 40
0.721485656204607
 50
118.8561716203678031
 51
127.1554714440188008
  0
ARC
  5
22058
  8
0
 10
5131.5130171057708139
 20
604.9018718412936551
 30
0.0
 40
0.7034450990509298
 50
127.1574555685109971
 51
142.6707942113702927
  0
ARC
  5
22059
  8
0
 10
5131.5240549609707159
 20
604.8929340722183952
 30
0.0
 40
0.7176419365074269
 50
142.6377640752351112
 51
161.7059359558703022
  0
ARC
  5
2205A
  8
0
 10
5131.7956246356015981
 20
604.8289404827228282
 30
0.0
 40
0.9958741893575783
 50
163.1147708187986041
 51
177.6432195626343002
  0
ARC
  5
2205B
  8
0
 10
5131.4879035073308842
 20
605.0010762321103357
 30
0.0
 40
0.5694966613536714
 50
121.1799324472363963
 51
143.7633062796633112
  0
ARC
  5
2205C
  8
0
 10
5131.4404859435753679
 20
605.0358284891341327
 30
0.0
 40
0.5107076766720803
 50
143.7634140114456898
 51
163.7284580471570052
  0
ARC
  5
2205D
  8
0
 10
5131.2265565132383927
 20
605.0982705073796524
 30
0.0
 40
0.287851654076255
 50
163.7284580471537936
 51
184.6356126902470862
  0
ARC
  5
2205E
  8
0
 10
5131.064955682195432
 20
605.0966475653414136
 30
0.0
 40
0.1271641563118173
 50
189.7982805827363961
 51
245.7208865248082077
  0
ARC
  5
2205F
  8
0
 10
5131.2842385234189351
 20
605.5689209037973342
 30
0.0
 40
0.6478566745408941
 50
245.2169862562352876
 51
263.4292578732823245
  0
ARC
  5
22060
  8
0
 10
5131.515902693418866
 20
608.1895293261851521
 30
0.0
 40
3.2785021781769501
 50
264.6480258526148077
 51
275.3519741473851923
  0
LINE
  5
22061
  8
0
 10
5124.9003908785198291
 20
603.2296338019082214
 30
0.0
 11
5126.3203908785199019
 21
603.2296338019082214
 31
0.0
  0
LINE
  5
22062
  8
0
 10
5124.8836019846203271
 20
603.422404956708192
 30
0.0
 11
5126.3371797725203578
 21
603.422404956708192
 31
0.0
  0
LINE
  5
22063
  8
0
 10
5132.2259026934198118
 20
603.2296338019082214
 30
0.0
 11
5130.8059026934197391
 21
603.2296338019082214
 31
0.0
  0
LINE
  5
22064
  8
0
 10
5132.2426915873202233
 20
603.422404956708192
 30
0.0
 11
5130.7891137994201927
 21
603.422404956708192
 31
0.0
  0
ARC
  5
22065
  8
0
 10
5131.9022566712628759
 20
599.8822488874293413
 30
0.0
 40
2.7023283585643232
 50
168.0143392092973897
 51
174.3683584389719101
  0
ARC
  5
22066
  8
0
 10
5100.0814784543654241
 20
602.2597290256345559
 30
0.0
 40
29.2079727415189403
 50
355.1993295110285089
 51
355.8528011898700925
  0
ARC
  5
22067
  8
0
 10
5128.5631467859702752
 20
600.5875559041368206
 30
0.0
 40
0.7104650987893892
 50
348.2959147946777989
 51
191.7040852053222011
  0
ARC
  5
22068
  8
0
 10
5125.6619643766271111
 20
603.5192974384990521
 30
0.0
 40
1.473017565097694
 50
228.4437602581577096
 51
242.2633117727405931
  0
ARC
  5
22069
  8
0
 10
5125.5708459396146282
 20
603.1620936079144712
 30
0.0
 40
1.1177330166013131
 50
237.8712341428258981
 51
300.4630260850195782
  0
ARC
  5
2206A
  8
0
 10
5131.7217457357828607
 20
593.6895819543722155
 30
0.0
 40
10.1778171042293
 50
120.7087578074670944
 51
123.2755889394904045
  0
ARC
  5
2206B
  8
0
 10
5122.3423377813587649
 20
598.5725256974363901
 30
0.0
 40
4.7378517404717391
 50
72.3914836100854444
 51
75.19067846221661
  0
LINE
  5
2206C
  8
0
 10
5125.6904408785203486
 20
605.7697187551813158
 30
0.0
 11
5125.6904408785203486
 21
605.7747837924082432
 31
0.0
  0
LINE
  5
2206D
  8
0
 10
5125.6904408785203486
 20
605.7747837924082432
 30
0.0
 11
5125.680390878518665
 21
605.7848337924083353
 31
0.0
  0
LINE
  5
2206E
  8
0
 10
5125.680390878518665
 20
605.7848337924083353
 30
0.0
 11
5125.5403908785201565
 21
605.7848337924083353
 31
0.0
  0
LINE
  5
2206F
  8
0
 10
5125.5403908785201565
 20
605.7848337924083353
 30
0.0
 11
5125.5303408785202919
 21
605.7747837924082432
 31
0.0
  0
LINE
  5
22070
  8
0
 10
5125.5303408785202919
 20
605.7747837924082432
 30
0.0
 11
5125.5303408785202919
 21
605.7697187551813158
 31
0.0
  0
LINE
  5
22071
  8
0
 10
5125.5303408785202919
 20
605.7747837924082432
 30
0.0
 11
5125.6904408785203486
 21
605.7747837924082432
 31
0.0
  0
ARC
  5
22072
  8
0
 10
5130.4817545670366599
 20
605.1790066711615736
 30
0.0
 40
3.4387817717959401
 50
290.2476066874995126
 51
305.2109228395174796
  0
ARC
  5
22073
  8
0
 10
5131.3014991939317042
 20
603.4083542251742074
 30
0.0
 40
1.5020049922079559
 50
241.7323929297737095
 51
284.2743303568374813
  0
LINE
  5
22074
  8
0
 10
5126.4811026128927551
 20
604.8189570208082841
 30
0.0
 11
5126.4861676502196133
 21
604.8189570208082841
 31
0.0
  0
LINE
  5
22075
  8
0
 10
5126.4861676502196133
 20
604.8189570208082841
 30
0.0
 11
5126.4962176502203874
 21
604.8290070208081488
 31
0.0
  0
LINE
  5
22076
  8
0
 10
5126.4962176502203874
 20
604.8290070208081488
 30
0.0
 11
5126.4962176502203874
 21
604.9690070208082489
 31
0.0
  0
LINE
  5
22077
  8
0
 10
5126.4962176502203874
 20
604.9690070208082489
 30
0.0
 11
5126.4861676502196133
 21
604.9790570208083409
 31
0.0
  0
LINE
  5
22078
  8
0
 10
5126.4861676502196133
 20
604.9790570208083409
 30
0.0
 11
5126.4811026128927551
 21
604.9790570208083409
 31
0.0
  0
LINE
  5
22079
  8
0
 10
5126.4861676502196133
 20
604.9790570208083409
 30
0.0
 11
5126.4861676502196133
 21
604.8189570208082841
 31
0.0
  0
LINE
  5
2207A
  8
0
 10
5130.7972959308954159
 20
604.7920035428310257
 30
0.0
 11
5130.7887176498197732
 21
604.8005818240083045
 31
0.0
  0
LINE
  5
2207B
  8
0
 10
5130.7887176498197732
 20
604.8005818240083045
 30
0.0
 11
5130.7887176498197732
 21
604.9974322176083206
 31
0.0
  0
LINE
  5
2207C
  8
0
 10
5130.7887176498197732
 20
604.9974322176083206
 30
0.0
 11
5130.8084026892202019
 21
605.0171172570082945
 31
0.0
  0
LINE
  5
2207D
  8
0
 10
5130.8084026892202019
 20
605.0171172570082945
 30
0.0
 11
5130.8176906385206166
 21
605.0171172570082945
 31
0.0
  0
LINE
  5
2207E
  8
0
 10
5130.8084026892202019
 20
605.0171172570082945
 30
0.0
 11
5130.8084026892202019
 21
604.9599299082887001
 31
0.0
  0
ENDSEC
  0
EOF
