  0
SECTION
  2
HEADER
  9
$ACADVER
  1
AC1009
  9
$INSBASE
 10
4452.4641241349036136
 20
267.6900667561112073
 30
0.0
  9
$EXTMIN
 10
4442.7828998184986631
 20
250.7123648949275889
 30
-0.0000000000112498
  9
$EXTMAX
 10
4452.7085300667422416
 20
292.0772381148224213
 30
0.0000000000002956
  9
$LIMMIN
 10
0.0
 20
0.0
  9
$LIMMAX
 10
11.6929133858000007
 20
8.2677165353999982
  9
$ORTHOMODE
 70
     0
  9
$REGENMODE
 70
     1
  9
$FILLMODE
 70
     1
  9
$QTEXTMODE
 70
     0
  9
$MIRRTEXT
 70
     0
  9
$DRAGMODE
 70
     2
  9
$LTSCALE
 40
0.6431102362
  9
$OSMODE
 70
   575
  9
$ATTMODE
 70
     1
  9
$TEXTSIZE
 40
0.2
  9
$TRACEWID
 40
0.05
  9
$TEXTSTYLE
  7
STANDARD
  9
$CLAYER
  8
0
  9
$CELTYPE
  6
BYLAYER
  9
$CECOLOR
 62
   256
  9
$DIMSCALE
 40
1.0
  9
$DIMASZ
 40
0.1875
  9
$DIMEXO
 40
0.0625
  9
$DIMDLI
 40
0.4443307087
  9
$DIMRND
 40
0.0
  9
$DIMDLE
 40
0.0
  9
$DIMEXE
 40
0.125
  9
$DIMTP
 40
0.01
  9
$DIMTM
 40
0.01
  9
$DIMTXT
 40
2.0
  9
$DIMCEN
 40
0.1052362205
  9
$DIMTSZ
 40
0.0
  9
$DIMTOL
 70
     1
  9
$DIMLIM
 70
     0
  9
$DIMTIH
 70
     1
  9
$DIMTOH
 70
     1
  9
$DIMSE1
 70
     0
  9
$DIMSE2
 70
     0
  9
$DIMTAD
 70
     0
  9
$DIMZIN
 70
     0
  9
$DIMBLK
  1

  9
$DIMASO
 70
     1
  9
$DIMSHO
 70
     1
  9
$DIMPOST
  1
\X
  9
$DIMAPOST
  1

  9
$DIMALT
 70
     1
  9
$DIMALTD
 70
     2
  9
$DIMALTF
 40
25.3999999999999986
  9
$DIMLFAC
 40
1.0
  9
$DIMTOFL
 70
     0
  9
$DIMTVP
 40
0.0
  9
$DIMTIX
 70
     0
  9
$DIMSOXD
 70
     0
  9
$DIMSAH
 70
     0
  9
$DIMBLK1
  1

  9
$DIMBLK2
  1

  9
$DIMSTYLE
  2
STANDARD
  9
$DIMCLRD
 70
     0
  9
$DIMCLRE
 70
     0
  9
$DIMCLRT
 70
     0
  9
$DIMTFAC
 40
1.0
  9
$DIMGAP
 40
0.09
  9
$LUNITS
 70
     2
  9
$LUPREC
 70
     4
  9
$SKETCHINC
 40
0.1
  9
$FILLETRAD
 40
0.0
  9
$AUNITS
 70
     0
  9
$AUPREC
 70
     0
  9
$MENU
  1
.
  9
$ELEVATION
 40
0.0
  9
$PELEVATION
 40
0.0
  9
$THICKNESS
 40
0.0
  9
$LIMCHECK
 70
     0
  9
$BLIPMODE
 70
     0
  9
$CHAMFERA
 40
0.0
  9
$CHAMFERB
 40
0.0
  9
$SKPOLY
 70
     0
  9
$TDCREATE
 40
2458060.468368056230247
  9
$TDUPDATE
 40
2459469.5915740737691522
  9
$TDINDWG
 40
0.6073797453999999
  9
$TDUSRTIMER
 40
0.6073797453999999
  9
$USRTIMER
 70
     1
  9
$ANGBASE
 50
0.0
  9
$ANGDIR
 70
     0
  9
$PDMODE
 70
     0
  9
$PDSIZE
 40
0.3125
  9
$PLINEWID
 40
0.0
  9
$COORDS
 70
     2
  9
$SPLFRAME
 70
     0
  9
$SPLINETYPE
 70
     6
  9
$SPLINESEGS
 70
     8
  9
$ATTDIA
 70
     1
  9
$ATTREQ
 70
     1
  9
$HANDLING
 70
     1
  9
$HANDSEED
  5
29529
  9
$SURFTAB1
 70
     6
  9
$SURFTAB2
 70
     6
  9
$SURFTYPE
 70
     6
  9
$SURFU
 70
     6
  9
$SURFV
 70
     6
  9
$UCSNAME
  2

  9
$UCSORG
 10
0.0
 20
0.0
 30
0.0
  9
$UCSXDIR
 10
1.0
 20
0.0
 30
0.0
  9
$UCSYDIR
 10
0.0
 20
1.0
 30
0.0
  9
$PUCSNAME
  2

  9
$PUCSORG
 10
0.0
 20
0.0
 30
0.0
  9
$PUCSXDIR
 10
1.0
 20
0.0
 30
0.0
  9
$PUCSYDIR
 10
0.0
 20
1.0
 30
0.0
  9
$USERI1
 70
     0
  9
$USERI2
 70
     0
  9
$USERI3
 70
     0
  9
$USERI4
 70
     0
  9
$USERI5
 70
     0
  9
$USERR1
 40
0.0
  9
$USERR2
 40
0.0
  9
$USERR3
 40
0.0
  9
$USERR4
 40
0.0
  9
$USERR5
 40
0.0
  9
$WORLDVIEW
 70
     1
  9
$SHADEDGE
 70
     3
  9
$SHADEDIF
 70
    70
  9
$TILEMODE
 70
     1
  9
$MAXACTVP
 70
    64
  9
$PLIMCHECK
 70
     0
  9
$PEXTMIN
 10
1.0000000000000000E+20
 20
1.0000000000000000E+20
 30
1.0000000000000000E+20
  9
$PEXTMAX
 10
-1.0000000000000000E+20
 20
-1.0000000000000000E+20
 30
-1.0000000000000000E+20
  9
$PLIMMIN
 10
0.0
 20
0.0
  9
$PLIMMAX
 10
12.0
 20
9.0
  9
$UNITMODE
 70
     0
  9
$VISRETAIN
 70
     1
  9
$PLINEGEN
 70
     0
  9
$PSLTSCALE
 70
     1
  0
ENDSEC
  0
SECTION
  2
TABLES
  0
TABLE
  2
VPORT
 70
     1
  0
VPORT
  2
*ACTIVE
 70
     0
 10
0.0
 20
0.0
 11
1.0
 21
1.0
 12
536.3803588524508541
 22
138.8151962917409037
 13
0.0
 23
0.0
 14
1.0
 24
1.0
 15
0.0
 25
0.0
 16
0.0
 26
0.0
 36
60.4960186965801583
 17
3911.3653564453120453
 27
132.5796051025390057
 37
0.0
 40
57.212171919627572
 41
2.4808306709265171
 42
50.0
 43
0.0
 44
0.0
 50
0.0
 51
0.0
 71
     0
 72
   100
 73
     1
 74
     1
 75
     0
 76
     0
 77
     0
 78
     0
  0
ENDTAB
  0
TABLE
  2
LTYPE
 70
     2
  0
LTYPE
  2
CONTINUOUS
 70
     0
  3
Solid line
 72
    65
 73
     0
 40
0.0
  0
LTYPE
  2
PHANTOM2
 70
     0
  3
___ _ _ ___ _ _ ___ _ _ ___ _ _
 72
    65
 73
     6
 40
1.25
 49
0.625
 49
-0.125
 49
0.125
 49
-0.125
 49
0.125
 49
-0.125
  0
ENDTAB
  0
TABLE
  2
LAYER
 70
     2
  0
LAYER
  2
0
 70
     0
 62
   255
  6
CONTINUOUS
  0
LAYER
  2
DEFPOINTS
 70
     0
 62
     7
  6
CONTINUOUS
  0
ENDTAB
  0
TABLE
  2
STYLE
 70
     1
  0
STYLE
  2
STANDARD
 70
     0
 40
0.0
 41
0.8
 50
0.0
 71
     0
 42
0.2
  3
txt
  4

  0
ENDTAB
  0
TABLE
  2
VIEW
 70
     0
  0
ENDTAB
  0
TABLE
  2
UCS
 70
     0
  0
ENDTAB
  0
TABLE
  2
APPID
 70
    11
  0
APPID
  2
ACAD
 70
     0
  0
APPID
  2
ACAD_MLEADERVER
 70
     0
  0
APPID
  2
ACAD_EXEMPT_FROM_CAD_STANDARDS
 70
     0
  0
APPID
  2
ACAD_NAV_VCDISPLAY
 70
     0
  0
APPID
  2
ACAECLAYERSTANDARD
 70
     0
  0
APPID
  2
ACCMTRANSPARENCY
 70
     0
  0
APPID
  2
ACAD_DSTYLE_DIMJAG
 70
     0
  0
APPID
  2
ACAD_DSTYLE_DIMTALN
 70
     0
  0
APPID
  2
ACDBATTR
 70
     0
  0
APPID
  2
ACADANNOTATIVE
 70
     0
  0
APPID
  2
DCO15
 70
     0
  0
ENDTAB
  0
TABLE
  2
DIMSTYLE
 70
     1
  0
DIMSTYLE
  2
STANDARD
 70
     0
  3

  4

  5

  6

  7

 40
1.0
 41
0.1875
 42
0.0625
 43
0.38
 44
0.125
 45
0.0
 46
0.0
 47
0.01
 48
0.01
140
0.15625
141
0.09
142
0.0
143
25.3999999999999986
144
1.0
145
0.0
146
1.0
147
0.09
 71
     1
 72
     0
 73
     1
 74
     1
 75
     0
 76
     0
 77
     0
 78
     4
170
     0
171
     2
172
     0
173
     0
174
     0
175
     0
176
     0
177
     0
178
     0
  0
ENDTAB
  0
ENDSEC
  0
SECTION
  2
BLOCKS
  0
BLOCK
  8
0
  2
$MODEL_SPACE
 70
     0
 10
0.0
 20
0.0
 30
0.0
  3
$MODEL_SPACE
  1

  0
ENDBLK
  5
21
  8
0
  0
BLOCK
 67
     1
  8
0
  2
$PAPER_SPACE
 70
     0
 10
0.0
 20
0.0
 30
0.0
  3
$PAPER_SPACE
  1

  0
ENDBLK
  5
1D
 67
     1
  8
0
  0
BLOCK
  8
0
  2
_CLOSED
 70
     0
 10
0.0
 20
0.0
 30
0.0
  3
_CLOSED
  1

  0
LINE
  5
255C2
  8
0
  6
BYBLOCK
 62
     0
 10
0.0
 20
0.0
 30
0.0
 11
-1.0
 21
0.1666666667
 31
0.0
  0
LINE
  5
255C3
  8
0
  6
BYBLOCK
 62
     0
 10
-1.0
 20
0.1666666667
 30
0.0
 11
-1.0
 21
-0.1666666667
 31
0.0
  0
LINE
  5
255C4
  8
0
  6
BYBLOCK
 62
     0
 10
-1.0
 20
-0.1666666667
 30
0.0
 11
0.0
 21
0.0
 31
0.0
  0
LINE
  5
255C5
  8
0
  6
BYBLOCK
 62
     0
 10
-1.0
 20
0.0
 30
0.0
 11
0.0
 21
0.0
 31
0.0
  0
ENDBLK
  5
255C6
  8
0
  6
BYBLOCK
 62
     0
  0
BLOCK
  8
0
  2
_FILLED
 70
     0
 10
0.0
 20
0.0
 30
0.0
  3
_FILLED
  1

  0
SOLID
  5
27054
  8
0
  6
BYBLOCK
 62
     0
 10
0.0
 20
0.0
 30
0.0
 11
-1.0
 21
0.1666666667
 31
0.0
 12
-1.0
 22
-0.1666666667
 32
0.0
 13
-1.0
 23
-0.1666666667
 33
0.0
  0
ENDBLK
  5
27055
  8
0
  6
BYBLOCK
 62
     0
  0
ENDSEC
  0
SECTION
  2
ENTITIES
  0
ATTDEF
  5
20106
  8
DEFPOINTS
 10
4452.46433296125997
 20
267.6936645851167782
 30
0.0
 40
0.001
  1
K-72646T-9
  3

  2
MODELNUMBER
 70
     0
1001
ACDBATTR
1070
     0
1070
     1
  0
ATTDEF
  5
20107
  8
DEFPOINTS
 10
4452.4643348501149376
 20
267.6919997667924918
 30
0.0
 40
0.001
  1
OBLO
  3

  2
TRADENAME
 70
     0
1001
ACDBATTR
1070
     0
1070
     1
  0
ATTDEF
  5
20108
  8
DEFPOINTS
 10
4452.46433296125997
 20
267.6903312517833911
 30
0.0
 40
0.001
  1
BATH AND SHOWER FAUCET 
  3

  2
PRODUCT
 70
     0
1001
ACDBATTR
1070
     0
1070
     1
  0
LINE
  5
29119
  8
0
 10
4443.556089991020599
 20
290.8586920399307019
 30
0.0
 11
4443.5710479017679972
 21
290.8831782727456243
 31
0.0
  0
LINE
  5
2911A
  8
0
 10
4443.4973472122237581
 20
290.9664386362853747
 30
0.0
 11
4443.5168972776045848
 21
290.9964328634806066
 31
0.0
  0
LINE
  5
2911B
  8
0
 10
4443.3680445157424401
 20
291.055822872931401
 30
0.0
 11
4443.3948782074885457
 21
291.0965388471266238
 31
0.0
  0
LINE
  5
2911C
  8
0
 10
4443.0425480540743592
 20
291.5004033610779857
 30
0.0
 11
4443.0458500395043302
 21
291.5052555917275754
 31
0.0
  0
LINE
  5
2911D
  8
0
 10
4443.4534726521142147
 20
291.0765680121198784
 30
0.0
 11
4443.4799641126355709
 21
291.1151441627119993
 31
0.0
  0
LINE
  5
2911E
  8
0
 10
4444.1843129902272267
 20
290.1897749740624022
 30
0.0
 11
4444.1988761356697069
 21
290.214463168840723
 31
0.0
  0
LINE
  5
2911F
  8
0
 10
4444.2745566208141099
 20
290.1276695820563987
 30
0.0
 11
4444.2892911629187438
 21
290.152648337341418
 31
0.0
  0
LINE
  5
29120
  8
0
 10
4444.3179608431391898
 20
290.3334281563081163
 30
0.0
 11
4444.3393389320835922
 21
290.3693929231550896
 31
0.0
  0
LINE
  5
29121
  8
0
 10
4444.4798131135630683
 20
290.2872831866794172
 30
0.0
 11
4444.5003729182972165
 21
290.3216525506558128
 31
0.0
  0
LINE
  5
29122
  8
0
 10
4444.0105927995846287
 20
290.5453397082055744
 30
0.0
 11
4444.0336233931402603
 21
290.5836585547212962
 31
0.0
  0
LINE
  5
29123
  8
0
 10
4443.7666651046638435
 20
290.7135131544062006
 30
0.0
 11
4443.7818283919214082
 21
290.7385227872492237
 31
0.0
  0
LINE
  5
29124
  8
0
 10
4443.6297755538744241
 20
290.8538328671153863
 30
0.0
 11
4443.6352900633046374
 21
290.8628775445790779
 31
0.0
  0
LINE
  5
29125
  8
0
 10
4444.1239205630217839
 20
290.3341537938733268
 30
0.0
 11
4444.1383095829605736
 21
290.3576017974921228
 31
0.0
  0
LINE
  5
29126
  8
0
 10
4444.0818317799767101
 20
290.5623973297671228
 30
0.0
 11
4444.104550567759361
 21
290.5990644234503861
 31
0.0
  0
LINE
  5
29127
  8
0
 10
4444.2395964983952581
 20
290.5321205264625064
 30
0.0
 11
4444.2615396775318004
 21
290.5672781190831984
 31
0.0
  0
LINE
  5
29128
  8
0
 10
4443.9276369391373009
 20
290.5126874548544151
 30
0.0
 11
4443.9499117708510312
 21
290.5482853584942973
 31
0.0
  0
LINE
  5
29129
  8
0
 10
4444.227099635486411
 20
290.3065981384023075
 30
0.0
 11
4444.2444858730978012
 21
290.3343834710505007
 31
0.0
  0
LINE
  5
2912A
  8
0
 10
4444.1379249306955899
 20
290.2744951902781736
 30
0.0
 11
4444.1415583932521258
 21
290.2802464251274728
 31
0.0
  0
LINE
  5
2912B
  8
0
 10
4443.7432993656711915
 20
290.7964171381930214
 30
0.0
 11
4443.7679309072173055
 21
290.8350166811222266
 31
0.0
  0
LINE
  5
2912C
  8
0
 10
4443.8012911842715766
 20
290.8356786333314972
 30
0.0
 11
4443.8257164872411522
 21
290.8727652656446026
 31
0.0
  0
LINE
  5
2912D
  8
0
 10
4445.2114468232139188
 20
289.8590598273802925
 30
0.0
 11
4445.2283753761876142
 21
289.8897605931466046
 31
0.0
  0
LINE
  5
2912E
  8
0
 10
4445.2963008712704323
 20
289.7228746730303897
 30
0.0
 11
4445.3127344700951653
 21
289.7524531221419011
 31
0.0
  0
LINE
  5
2912F
  8
0
 10
4445.3067784075783493
 20
289.6517004057604936
 30
0.0
 11
4445.321784698186093
 21
289.6778697268047722
 31
0.0
  0
LINE
  5
29130
  8
0
 10
4444.8982905251223201
 20
289.9980031561174769
 30
0.0
 11
4444.9166848235499856
 21
290.0299292759669925
 31
0.0
  0
LINE
  5
29131
  8
0
 10
4444.9994059325090348
 20
289.8636141480636752
 30
0.0
 11
4445.0172430152651941
 21
289.8943724771568213
 31
0.0
  0
LINE
  5
29132
  8
0
 10
4444.6586825414469786
 20
290.0985215705621272
 30
0.0
 11
4444.678269195131179
 21
290.1318810125836762
 31
0.0
  0
LINE
  5
29133
  8
0
 10
4444.7255004111939343
 20
290.1956006815514115
 30
0.0
 11
4444.7448520457346604
 21
290.2285587838243259
 31
0.0
  0
LINE
  5
29134
  8
0
 10
4444.3994142184201337
 20
290.0417428867067997
 30
0.0
 11
4444.4071719948706232
 21
290.0548942694621246
 31
0.0
  0
LINE
  5
29135
  8
0
 10
4444.4318884588856235
 20
290.0193942898148975
 30
0.0
 11
4444.4440598047076492
 21
290.0400277827740183
 31
0.0
  0
LINE
  5
29136
  8
0
 10
4444.5691108309365518
 20
289.9249582709396122
 30
0.0
 11
4444.5770486972469371
 21
289.938414951180107
 31
0.0
  0
LINE
  5
29137
  8
0
 10
4444.8707675037521767
 20
289.7173590667744065
 30
0.0
 11
4444.8787510289539568
 21
289.7308931502155929
 31
0.0
  0
LINE
  5
29138
  8
0
 10
4444.6859031000758478
 20
289.9908509798863179
 30
0.0
 11
4444.6958740012241833
 21
290.0067856985444905
 31
0.0
  0
LINE
  5
29139
  8
0
 10
4445.0893680995677641
 20
289.7131875949376081
 30
0.0
 11
4445.0928914789010378
 21
289.7188183857621766
 31
0.0
  0
LINE
  5
2913A
  8
0
 10
4444.864226496615629
 20
289.7574519207652202
 30
0.0
 11
4444.8610967300592165
 21
289.7525658674231863
 31
0.0
  0
LINE
  5
2913B
  8
0
 10
4444.9108270814103889
 20
289.7426177596224193
 30
0.0
 11
4444.9145541167581541
 21
289.7482731204221977
 31
0.0
  0
LINE
  5
2913C
  8
0
 10
4445.9978185101299459
 20
289.3144897674022218
 30
0.0
 11
4446.01118306513672
 21
289.3414345075285041
 31
0.0
  0
LINE
  5
2913D
  8
0
 10
4446.0102107883440112
 20
289.2293884919668017
 30
0.0
 11
4446.0233676992238543
 21
289.2547053357911864
 31
0.0
  0
LINE
  5
2913E
  8
0
 10
4445.6498631761223805
 20
289.5554468159202202
 30
0.0
 11
4445.6647503949488964
 21
289.5840676781202774
 31
0.0
  0
LINE
  5
2913F
  8
0
 10
4445.8808791893779926
 20
289.3187870455109874
 30
0.0
 11
4445.8946069452977099
 21
289.3448802998674978
 31
0.0
  0
LINE
  5
29140
  8
0
 10
4445.6348801817839558
 20
289.4888316824939807
 30
0.0
 11
4445.6497214752016589
 21
289.5163965629776044
 31
0.0
  0
LINE
  5
29141
  8
0
 10
4445.707326782590826
 20
289.3755483081239959
 30
0.0
 11
4445.7216606175315974
 21
289.4009159199555938
 31
0.0
  0
LINE
  5
29142
  8
0
 10
4445.5507115793971025
 20
289.4835242523857914
 30
0.0
 11
4445.5658051821455956
 21
289.5100827305803932
 31
0.0
  0
LINE
  5
29143
  8
0
 10
4446.3333085776248481
 20
289.0956497379360144
 30
0.0
 11
4446.360261009853275
 21
289.1357880338428004
 31
0.0
  0
LINE
  5
29144
  8
0
 10
4446.1090937679527997
 20
289.2489776412991773
 30
0.0
 11
4446.1356619498510554
 21
289.2875009924450751
 31
0.0
  0
LINE
  5
29145
  8
0
 10
4446.2212320496228131
 20
289.1597824920800122
 30
0.0
 11
4446.2336640702706063
 21
289.1856405830013728
 31
0.0
  0
LINE
  5
29146
  8
0
 10
4444.1319646385245505
 20
290.2928539133949926
 30
0.0
 11
4444.1230006921414315
 21
290.3280943854531984
 31
0.0
  0
LINE
  5
29147
  8
0
 10
4444.5944874663045994
 20
266.0653201737409859
 30
0.0
 11
4444.6812292344038724
 21
265.9317631838410989
 31
0.0
  0
LINE
  5
29148
  8
0
 10
4444.7834250417054136
 20
265.7744114870411067
 30
0.0
 11
4444.8970783458044025
 21
265.5994185913410206
 31
0.0
  0
LINE
  5
29149
  8
0
 10
4444.9992741531041247
 20
265.4420668945409716
 30
0.0
 11
4445.0860159213043517
 21
265.3085099046410278
 31
0.0
  0
LINE
  5
2914A
  8
0
 10
4444.3186655778035856
 20
266.5044943809410256
 30
0.0
 11
4445.1488903124036369
 21
265.2117133868410974
 31
0.0
  0
LINE
  5
2914B
  8
0
 10
4448.4340981950035712
 20
266.0567361483409741
 30
0.0
 11
4449.6270107506061322
 21
266.0567361483409741
 31
0.0
  0
LINE
  5
2914C
  8
0
 10
4448.4193490737052343
 20
266.3018022493409944
 30
0.0
 11
4449.6417590417049723
 21
266.3018022493409944
 31
0.0
  0
LINE
  5
2914D
  8
0
 10
4449.5591128533051233
 20
266.335193476941015
 30
0.0
 11
4448.5019952622051278
 21
266.335193476941015
 31
0.0
  0
LINE
  5
2914E
  8
0
 10
4448.3947272861050806
 20
266.0961062271410924
 30
0.0
 11
4448.3947272861050806
 21
266.2652989479410053
 31
0.0
  0
LINE
  5
2914F
  8
0
 10
4448.5266170498043721
 20
266.3716967783410041
 30
0.0
 11
4448.5266170498043721
 21
266.7142164633410175
 31
0.0
  0
LINE
  5
29150
  8
0
 10
4444.5944874663045994
 20
266.0653201737409859
 30
0.0
 11
4444.5988739495405753
 21
266.0681690797645729
 31
0.0
  0
LINE
  5
29151
  8
0
 10
4444.6552515268313073
 20
265.980380969658313
 30
0.0
 11
4444.6513141182913387
 21
265.9778237259322964
 31
0.0
  0
LINE
  5
29152
  8
0
 10
4444.6812292344038724
 20
265.9317631838410989
 30
0.0
 11
4444.6849302376122068
 21
265.9341668885455761
 31
0.0
  0
LINE
  5
29153
  8
0
 10
4444.7834250417054136
 20
265.7744114870411067
 30
0.0
 11
4444.7863184387324509
 21
265.7762906726587744
 31
0.0
  0
LINE
  5
29154
  8
0
 10
4444.8990735933866745
 20
265.600714452329612
 30
0.0
 11
4444.8970783458044025
 21
265.5994185913410206
 31
0.0
  0
LINE
  5
29155
  8
0
 10
4445.0004617945069185
 20
265.4428382364426966
 30
0.0
 11
4444.9992741531041247
 21
265.4420668945409716
 31
0.0
  0
LINE
  5
29156
  8
0
 10
4445.0291892692430338
 20
265.3960063524655766
 30
0.0
 11
4445.0301405052869086
 21
265.3966241553300733
 31
0.0
  0
LINE
  5
29157
  8
0
 10
4445.0865180825776406
 20
265.3088360452238135
 30
0.0
 11
4445.0860159213043517
 21
265.3085099046410278
 31
0.0
  0
LINE
  5
29158
  8
0
 10
4448.4707941748047233
 20
266.6974630425410169
 30
0.0
 11
4448.5089005149038712
 21
266.6974630425410169
 31
0.0
  0
LINE
  5
29159
  8
0
 10
4449.552207600503607
 20
266.6974630425410169
 30
0.0
 11
4450.0854968386893233
 21
266.6974630425410169
 31
0.0
  0
LINE
  5
2915A
  8
0
 10
4449.5344910656040156
 20
266.7142164633410175
 30
0.0
 11
4448.5266170498043721
 21
266.7142164633410175
 31
0.0
  0
LINE
  5
2915B
  8
0
 10
4448.6947865651500251
 20
266.86133180034102
 30
0.0
 11
4449.3663366042255802
 21
266.86133180034102
 31
0.0
  0
LINE
  5
2915C
  8
0
 10
4448.7187038788588325
 20
266.8810168915409804
 30
0.0
 11
4449.3424252077902565
 21
266.8810168915409804
 31
0.0
  0
LINE
  5
2915D
  8
0
 10
4450.5896414864528197
 20
267.0503081782409822
 30
0.0
 11
4451.2239666493051118
 21
267.0503081782409822
 31
0.0
  0
LINE
  5
2915E
  8
0
 10
4450.5468014147054419
 20
267.4440089656409896
 30
0.0
 11
4450.9405020877038623
 21
267.4440089656409896
 31
0.0
  0
LINE
  5
2915F
  8
0
 10
4451.3020196780053084
 20
266.5084092915409997
 30
0.0
 11
4452.4641241349036136
 21
266.4982625579111755
 31
0.0
  0
LINE
  5
29160
  8
0
 10
4449.5591128533051233
 20
266.335193476941015
 30
0.0
 11
4449.6417590417049723
 21
266.3018022493409944
 31
0.0
  0
LINE
  5
29161
  8
0
 10
4444.5888940218683274
 20
290.1244092900756755
 30
0.0
 11
4444.5974876926156867
 21
290.1155323946570093
 31
0.0
  0
LINE
  5
29162
  8
0
 10
4443.2454072971104324
 20
291.2528293185990265
 30
0.0
 11
4443.1815693376493073
 21
291.3243392604671271
 31
0.0
  0
LINE
  5
29163
  8
0
 10
4448.5915776798037768
 20
266.7142164633410175
 30
0.0
 11
4448.5915776798037768
 21
266.7729133086983779
 31
0.0
  0
LINE
  5
29164
  8
0
 10
4449.4695304357037458
 20
266.7142164633410175
 30
0.0
 11
4449.4695304357037458
 21
266.7729136437080797
 31
0.0
  0
LINE
  5
29165
  8
0
 10
4449.5344910656040156
 20
266.3716967783410041
 30
0.0
 11
4449.5344910656040156
 21
266.7142164633410175
 31
0.0
  0
LINE
  5
29166
  8
0
 10
4449.6663808294051705
 20
266.0961062271410924
 30
0.0
 11
4449.6663808294051705
 21
266.2652989479410053
 31
0.0
  0
LINE
  5
29167
  8
0
 10
4450.5271162609051316
 20
268.3101505870411074
 30
0.0
 11
4450.5468014147054419
 21
268.3298357373409999
 31
0.0
  0
LINE
  5
29168
  8
0
 10
4448.5019952622051278
 20
266.335193476941015
 30
0.0
 11
4448.4193490737052343
 21
266.3018022493409944
 31
0.0
  0
LINE
  5
29169
  8
0
 10
4448.1287756464671475
 20
267.6408593593411069
 30
0.0
 11
4448.1366701783517783
 21
267.6408593593411069
 31
0.0
  0
LINE
  5
2916A
  8
0
 10
4448.1287756464598715
 20
267.7392845562409889
 30
0.0
 11
4448.1366701783472308
 21
267.7392845562409889
 31
0.0
  0
LINE
  5
2916B
  8
0
 10
4450.9405020877038623
 20
267.9361349499409926
 30
0.0
 11
4450.5468014147054419
 21
267.9361349499409926
 31
0.0
  0
LINE
  5
2916C
  8
0
 10
4450.5468014147054419
 20
268.3298357373409999
 30
0.0
 11
4451.2239666493051118
 21
268.3298357373409999
 31
0.0
  0
LINE
  5
2916D
  8
0
 10
4445.13452121255159
 20
289.7514947997605077
 30
0.0
 11
4445.1345229029302573
 21
289.7514931277843857
 31
0.0
  0
LINE
  5
2916E
  8
0
 10
4450.5271162609051316
 20
267.2750404784944749
 30
0.0
 11
4450.5271162609051316
 21
267.8349046142409975
 31
0.0
  0
LINE
  5
2916F
  8
0
 10
4450.5271162609051316
 20
267.8349046142409975
 30
0.0
 11
4450.5271162609051316
 21
268.3101505870411074
 31
0.0
  0
LINE
  5
29170
  8
0
 10
4450.5468014147054419
 20
268.3298357373409999
 30
0.0
 11
4450.5468014147054419
 21
267.9361349499409926
 31
0.0
  0
LINE
  5
29171
  8
0
 10
4450.5468014147054419
 20
267.4440089656409896
 30
0.0
 11
4450.5468014147054419
 21
267.1806716220918929
 31
0.0
  0
LINE
  5
29172
  8
0
 10
4451.3020196780053084
 20
268.8717346240410961
 30
0.0
 11
4452.4641241349036136
 21
268.8818709543111254
 31
0.0
  0
LINE
  5
29173
  8
0
 10
4444.1414099217654439
 20
290.2800114166798835
 30
0.0
 11
4444.1381086747769587
 21
290.2828665835144761
 31
0.0
  0
LINE
  5
29174
  8
0
 10
4444.1368259745304385
 20
290.3676085157554212
 30
0.0
 11
4444.1328800248738844
 21
290.3711170099264791
 31
0.0
  0
LINE
  5
29175
  8
0
 10
4444.5706796064587252
 20
290.1402710424918041
 30
0.0
 11
4444.5888940218683274
 21
290.1244092900756755
 31
0.0
  0
LINE
  5
29176
  8
0
 10
4443.6297755538744241
 20
290.8538328671153863
 30
0.0
 11
4443.5971517058569589
 21
290.8854492898507829
 31
0.0
  0
LINE
  5
29177
  8
0
 10
4450.9405020877038623
 20
267.9361349499409926
 30
0.0
 11
4450.9405020877038623
 21
267.4440089656409896
 31
0.0
  0
LINE
  5
29178
  8
0
 10
4451.2239666493051118
 20
268.7929951118409804
 30
0.0
 11
4451.2239666493051118
 21
266.5871464508409758
 31
0.0
  0
LINE
  5
29179
  8
0
 10
4444.8773961676315594
 20
289.7377154294140951
 30
0.0
 11
4444.8786170789508105
 21
289.7367439317541198
 31
0.0
  0
LINE
  5
2917A
  8
0
 10
4443.1574362182500408
 20
291.2525948702390792
 30
0.0
 11
4443.2206808442297188
 21
291.2003939346075185
 31
0.0
  0
LINE
  5
2917B
  8
0
 10
4452.4639005144053954
 20
284.223617079017572
 30
0.0
 11
4452.4639005144053954
 21
286.211038800931874
 31
0.0
  0
LINE
  5
2917C
  8
0
 10
4452.4641241349036136
 20
266.4982625579111755
 30
0.0
 11
4452.4641241349036136
 21
268.8818709543111254
 31
0.0
  0
LINE
  5
2917D
  8
0
 10
4444.6131882450972626
 20
289.9146022178848057
 30
0.0
 11
4444.7035908789321184
 21
289.8580977365388094
 31
0.0
  0
LINE
  5
2917E
  8
0
 10
4444.5626695835153441
 20
289.947889502488124
 30
0.0
 11
4444.6131882450972626
 21
289.9146022178848057
 31
0.0
  0
LINE
  5
2917F
  8
0
 10
4445.7161348453810206
 20
289.3433015635495735
 30
0.0
 11
4445.8371836491369322
 21
289.2617381292237724
 31
0.0
  0
LINE
  5
29180
  8
0
 10
4444.1877934714802905
 20
290.1740421625112276
 30
0.0
 11
4444.278030437225425
 21
290.1119413572905046
 31
0.0
  0
LINE
  5
29181
  8
0
 10
4444.2780370988793948
 20
290.1119367728036877
 30
0.0
 11
4444.3798828755952854
 21
290.0418468191256238
 31
0.0
  0
LINE
  5
29182
  8
0
 10
4444.40289295517141
 20
290.0260113524986991
 30
0.0
 11
4444.5372147104808391
 21
289.9335715291824158
 31
0.0
  0
LINE
  5
29183
  8
0
 10
4444.572589543243339
 20
289.9092266769222874
 30
0.0
 11
4444.6744388532270023
 21
289.8391342917510087
 31
0.0
  0
LINE
  5
29184
  8
0
 10
4444.874244607080982
 20
289.7016285798820832
 30
0.0
 11
4445.0555449782887081
 21
289.5768582160981737
 31
0.0
  0
LINE
  5
29185
  8
0
 10
4444.5879729596408652
 20
289.9407703818671962
 30
0.0
 11
4444.8448430278131127
 21
289.76400659138028
 31
0.0
  0
LINE
  5
29186
  8
0
 10
4445.1100674562640052
 20
289.5986280147502043
 30
0.0
 11
4444.905119925737381
 21
289.7396722816631041
 31
0.0
  0
LINE
  5
29187
  8
0
 10
4444.6628016971790203
 20
289.9064349491143275
 30
0.0
 11
4444.1390460701413758
 21
290.2668819779106002
 31
0.0
  0
LINE
  5
29188
  8
0
 10
4445.121625745979145
 20
289.6057670553203138
 30
0.0
 11
4444.9145541155039609
 21
289.7482731212846829
 31
0.0
  0
LINE
  5
29189
  8
0
 10
4444.6704894057002093
 20
289.9162377118569225
 30
0.0
 11
4444.1415583932521258
 21
290.2802464251274728
 31
0.0
  0
LINE
  5
2918A
  8
0
 10
4444.1239205626307012
 20
290.3341537932258234
 30
0.0
 11
4445.1761716320606865
 21
289.6099978092616993
 31
0.0
  0
LINE
  5
2918B
  8
0
 10
4443.932063538055445
 20
290.4913580153306043
 30
0.0
 11
4444.1115387361032845
 21
290.3678437301867916
 31
0.0
  0
LINE
  5
2918C
  8
0
 10
4444.2315216791812418
 20
290.2852718339626108
 30
0.0
 11
4444.4110031540012642
 21
290.1617532290687222
 31
0.0
  0
LINE
  5
2918D
  8
0
 10
4444.6903252671154405
 20
289.9695246007835863
 30
0.0
 11
4444.8698093380071441
 21
289.8460042094039864
 31
0.0
  0
LINE
  5
2918E
  8
0
 10
4445.0937944958059234
 20
289.6918583054215901
 30
0.0
 11
4445.4326112908629511
 21
289.4586856180757195
 31
0.0
  0
LINE
  5
2918F
  8
0
 10
4444.2266337694636604
 20
290.3058027722386782
 30
0.0
 11
4444.1368259745304385
 21
290.3676085157554212
 31
0.0
  0
LINE
  5
29190
  8
0
 10
4445.0889022320743607
 20
289.7123922249767247
 30
0.0
 11
4444.8907318611236406
 21
289.8487724712314844
 31
0.0
  0
LINE
  5
29191
  8
0
 10
4444.6854372325169606
 20
289.990055609874787
 30
0.0
 11
4444.4319283920121961
 21
290.1645196225043151
 31
0.0
  0
LINE
  5
29192
  8
0
 10
4443.8704014444529093
 20
290.637050680918378
 30
0.0
 11
4444.0088432189013474
 21
290.5417754805187087
 31
0.0
  0
LINE
  5
29193
  8
0
 10
4444.1144450246965789
 20
290.4691006144913104
 30
0.0
 11
4444.3163482727013616
 21
290.3301514164072046
 31
0.0
  0
LINE
  5
29194
  8
0
 10
4444.4219468518140275
 20
290.2574788006452877
 30
0.0
 11
4444.6572164128865552
 21
290.0955670280529262
 31
0.0
  0
LINE
  5
29195
  8
0
 10
4444.7628250175075664
 20
290.0228874847798011
 30
0.0
 11
4444.9980913657345809
 21
289.8609779144265985
 31
0.0
  0
LINE
  5
29196
  8
0
 10
4445.1037016884565674
 20
289.7882971876695137
 30
0.0
 11
4445.305599958667699
 21
289.6493514363604049
 31
0.0
  0
LINE
  5
29197
  8
0
 10
4445.411204341247867
 20
289.5766750300808212
 30
0.0
 11
4445.5496439792968886
 21
289.4814011740161845
 31
0.0
  0
LINE
  5
29198
  8
0
 10
4443.0213101627477954
 20
291.5221438602359854
 30
0.0
 11
4446.6796442073136859
 21
289.0044895030749217
 31
0.0
  0
LINE
  5
29199
  8
0
 10
4442.9578110203628967
 20
291.6195968089803046
 30
0.0
 11
4446.7809455574542881
 21
288.9885272543825181
 31
0.0
  0
LINE
  5
2919A
  8
0
 10
4443.043212532533289
 20
291.4862292846021887
 30
0.0
 11
4446.6364515781242517
 21
289.013362345025314
 31
0.0
  0
LINE
  5
2919B
  8
0
 10
4443.5625193476171262
 20
290.8271551798309247
 30
0.0
 11
4443.6819410941034221
 21
290.743227513127124
 31
0.0
  0
LINE
  5
2919C
  8
0
 10
4452.0706374636047258
 20
284.2270490336176181
 30
0.0
 11
4452.4639005144053954
 21
284.223617079017572
 31
0.0
  0
LINE
  5
2919D
  8
0
 10
4444.56614553061263
 20
289.9521272392786955
 30
0.0
 11
4444.6184672850267816
 21
289.9249041199801127
 31
0.0
  0
LINE
  5
2919E
  8
0
 10
4444.5359902183490703
 20
290.1626681567404944
 30
0.0
 11
4444.553275336095794
 21
290.1527865675276985
 31
0.0
  0
LINE
  5
2919F
  8
0
 10
4444.662801698333169
 20
289.9064349492870178
 30
0.0
 11
4444.6640956698010996
 21
289.9057386485357029
 31
0.0
  0
LINE
  5
291A0
  8
0
 10
4443.2653235908819624
 20
292.0663311639165727
 30
0.0
 11
4447.0141996797456159
 21
289.4862508156098215
 31
0.0
  0
LINE
  5
291A1
  8
0
 10
4450.6666244479038141
 20
286.2706090512410242
 30
0.0
 11
4450.7101597410046452
 21
286.218140225341017
 31
0.0
  0
LINE
  5
291A2
  8
0
 10
4444.6184672850267816
 20
289.9249041199801127
 30
0.0
 11
4444.6640956698010996
 21
289.9057386485357029
 31
0.0
  0
LINE
  5
291A3
  8
0
 10
4445.8792611189646777
 20
289.3149084808806037
 30
0.0
 11
4445.8380749930511229
 21
289.3340873364296044
 31
0.0
  0
LINE
  5
291A4
  8
0
 10
4445.4849128702780945
 20
289.4979324383709809
 30
0.0
 11
4445.3039975208212127
 21
289.584053399166919
 31
0.0
  0
LINE
  5
291A5
  8
0
 10
4451.0905230658208893
 20
286.2016330782362843
 30
0.0
 11
4452.4639005144053954
 21
286.211038800931874
 31
0.0
  0
LINE
  5
291A6
  8
0
 10
4443.3956660471330906
 20
291.0962078677079035
 30
0.0
 11
4443.3948782074885457
 21
291.0965388471266238
 31
0.0
  0
LINE
  5
291A7
  8
0
 10
4445.0224555079121274
 20
289.806226675052983
 30
0.0
 11
4445.0224215905045639
 21
289.8062322023131969
 31
0.0
  0
LINE
  5
291A8
  8
0
 10
4446.6114229166241785
 20
288.9586117772224725
 30
0.0
 11
4446.6551043305589701
 21
289.021377771583218
 31
0.0
  0
LINE
  5
291A9
  8
0
 10
4445.1347230378696622
 20
289.6027585859150122
 30
0.0
 11
4445.1708405749495796
 21
289.6069741666797199
 31
0.0
  0
LINE
  5
291AA
  8
0
 10
4446.1202327704213531
 20
289.1617752908995271
 30
0.0
 11
4446.1486775298153589
 21
289.2013828974858143
 31
0.0
  0
LINE
  5
291AB
  8
0
 10
4445.7598539074133441
 20
289.4878017271486783
 30
0.0
 11
4445.7857689087049948
 21
289.5238631998763026
 31
0.0
  0
LINE
  5
291AC
  8
0
 10
4445.9905578514108129
 20
289.2506186612548049
 30
0.0
 11
4446.0115898106323584
 21
289.2795930536439073
 31
0.0
  0
LINE
  5
291AD
  8
0
 10
4445.7438977304618675
 20
289.4196114313145927
 30
0.0
 11
4445.7711521367727983
 21
289.4564059267534049
 31
0.0
  0
LINE
  5
291AE
  8
0
 10
4445.8689364864403615
 20
289.2669981197668108
 30
0.0
 11
4445.8864031118982894
 21
289.2896366722869743
 31
0.0
  0
LINE
  5
291AF
  8
0
 10
4445.8072304539136894
 20
289.29417696765762
 30
0.0
 11
4445.8445711270396714
 21
289.342492814689308
 31
0.0
  0
LINE
  5
291B0
  8
0
 10
4445.6581169073524507
 20
289.4118217795031001
 30
0.0
 11
4445.676063921298919
 21
289.4349231797733069
 31
0.0
  0
LINE
  5
291B1
  8
0
 10
4445.1175919877177876
 20
289.6003228276405821
 30
0.0
 11
4445.121625745979145
 21
289.6057670553203138
 31
0.0
  0
LINE
  5
291B2
  8
0
 10
4445.4541141231948131
 20
289.4621705018245734
 30
0.0
 11
4445.4801719241413593
 21
289.4967056671936803
 31
0.0
  0
LINE
  5
291B3
  8
0
 10
4445.29477335055617
 20
289.5718283366413743
 30
0.0
 11
4445.3178686846958954
 21
289.6024372581809985
 31
0.0
  0
LINE
  5
291B4
  8
0
 10
4444.8913083458910478
 20
289.8494917147003207
 30
0.0
 11
4444.9069582488391461
 21
289.870232988579005
 31
0.0
  0
LINE
  5
291B5
  8
0
 10
4445.319757390839186
 20
289.7887570872330798
 30
0.0
 11
4445.3447574437723233
 21
289.8218113808591738
 31
0.0
  0
LINE
  5
291B6
  8
0
 10
4445.4043912854067457
 20
289.6522159026304735
 30
0.0
 11
4445.4305239831119252
 21
289.6865335538768136
 31
0.0
  0
LINE
  5
291B7
  8
0
 10
4444.6707701212635584
 20
289.9077052369239027
 30
0.0
 11
4444.6745813836287198
 21
289.9126745573731228
 31
0.0
  0
LINE
  5
291B8
  8
0
 10
4445.1761716325718226
 20
289.6099978097598751
 30
0.0
 11
4445.1888208879508966
 21
289.6264614315115864
 31
0.0
  0
LINE
  5
291B9
  8
0
 10
4445.413906063739887
 20
289.5795837900968763
 30
0.0
 11
4445.4414701615924059
 21
289.6147826927856954
 31
0.0
  0
LINE
  5
291BA
  8
0
 10
4445.005266144044981
 20
289.9256680100976951
 30
0.0
 11
4445.0300240358874362
 21
289.9571485166691787
 31
0.0
  0
LINE
  5
291BB
  8
0
 10
4445.1061814096146918
 20
289.7909771610388248
 30
0.0
 11
4445.1321372425572918
 21
289.8237919677343939
 31
0.0
  0
LINE
  5
291BC
  8
0
 10
4445.0714848017178156
 20
289.5792260330106274
 30
0.0
 11
4445.0912443948882355
 21
289.6040355625805773
 31
0.0
  0
LINE
  5
291BD
  8
0
 10
4444.9920318518961722
 20
289.6339053113628097
 30
0.0
 11
4445.0095596080273026
 21
289.6559126157986839
 31
0.0
  0
LINE
  5
291BE
  8
0
 10
4444.6903751396248481
 20
289.8415044661217053
 30
0.0
 11
4444.7035908789321184
 21
289.8580977365388094
 31
0.0
  0
LINE
  5
291BF
  8
0
 10
4444.7650646654810771
 20
290.0253097165257259
 30
0.0
 11
4444.7892262551131353
 21
290.0555197397466145
 31
0.0
  0
LINE
  5
291C0
  8
0
 10
4444.8318712419395524
 20
290.1223965994732907
 30
0.0
 11
4444.8557419637181738
 21
290.1522438017270815
 31
0.0
  0
LINE
  5
291C1
  8
0
 10
4444.4325048819773656
 20
290.1652388728659844
 30
0.0
 11
4444.4398315812895817
 21
290.1749512120173904
 31
0.0
  0
LINE
  5
291C2
  8
0
 10
4444.1330421804332218
 20
290.3713281823957004
 30
0.0
 11
4444.1349114882468712
 21
290.3738056307067268
 31
0.0
  0
LINE
  5
291C3
  8
0
 10
4444.5531528070441709
 20
289.9359405345434766
 30
0.0
 11
4444.5655039802986721
 21
289.9514494114907848
 31
0.0
  0
LINE
  5
291C4
  8
0
 10
4444.3958209689571959
 20
290.0442158266442902
 30
0.0
 11
4444.4076058428463512
 21
290.0590125471787815
 31
0.0
  0
LINE
  5
291C5
  8
0
 10
4444.4239465351238323
 20
290.2596435542581048
 30
0.0
 11
4444.4463040735090544
 21
290.2872909194596787
 31
0.0
  0
LINE
  5
291C6
  8
0
 10
4444.5855883703152358
 20
290.2132038275369723
 30
0.0
 11
4444.608837613893229
 21
290.2417887888777841
 31
0.0
  0
LINE
  5
291C7
  8
0
 10
4444.1162182521156865
 20
290.4710402818328134
 30
0.0
 11
4444.1353621475900582
 21
290.4944796046381725
 31
0.0
  0
LINE
  5
291C8
  8
0
 10
4443.8720029235937545
 20
290.6388064410228935
 30
0.0
 11
4443.8914177175256555
 21
290.6623911533527007
 31
0.0
  0
LINE
  5
291C9
  8
0
 10
4444.186439471455742
 20
290.4866779110898278
 30
0.0
 11
4444.2081963055907181
 21
290.5125929258488213
 31
0.0
  0
LINE
  5
291CA
  8
0
 10
4444.3439502888768402
 20
290.4560683025039225
 30
0.0
 11
4444.3665783494825519
 21
290.4828462260123274
 31
0.0
  0
LINE
  5
291CB
  8
0
 10
4443.2301694946745556
 20
291.2312206120972746
 30
0.0
 11
4443.2580320670867877
 21
291.2707324873965149
 31
0.0
  0
LINE
  5
291CC
  8
0
 10
4443.1532262155296849
 20
291.2845087281434076
 30
0.0
 11
4443.1815693376493073
 21
291.3243392604671271
 31
0.0
  0
LINE
  5
291CD
  8
0
 10
4443.7152066707531048
 20
290.7465193070713099
 30
0.0
 11
4443.7337805313381978
 21
290.7689689576341152
 31
0.0
  0
LINE
  5
291CE
  8
0
 10
4443.8468946220982616
 20
290.7193179038852122
 30
0.0
 11
4443.8673395139057902
 21
290.7430264048607
 31
0.0
  0
LINE
  5
291CF
  8
0
 10
4443.6001961319789189
 20
290.8883461415791203
 30
0.0
 11
4443.6196642707436695
 21
290.9104889258081812
 31
0.0
  0
LINE
  5
291D0
  8
0
 10
4443.9037628261812642
 20
290.757107763394572
 30
0.0
 11
4443.9251776613527909
 21
290.7812364024612748
 31
0.0
  0
LINE
  5
291D1
  8
0
 10
4443.4704975367258157
 20
290.9772114233114735
 30
0.0
 11
4443.4894444091978585
 21
290.9985436905170104
 31
0.0
  0
LINE
  5
291D2
  8
0
 10
4443.5544108940448496
 20
290.9960354535438114
 30
0.0
 11
4443.5748040087573827
 21
291.0181430702290868
 31
0.0
  0
LINE
  5
291D3
  8
0
 10
4443.3301056932787105
 20
291.1494468930582116
 30
0.0
 11
4443.3498169018248518
 21
291.1702954287110856
 31
0.0
  0
ARC
  5
291D4
  8
0
 10
4448.8140186246046142
 20
267.6900719578409849
 30
0.0
 40
0.6870078740000001
 50
175.8921996072789113
 51
184.1078004010799987
  0
ARC
  5
291D5
  8
0
 10
4449.345322252396727
 20
267.6902536230036844
 30
0.0
 40
0.6793888505572429
 50
270.8114027431415138
 51
332.1634423674938148
  0
ARC
  5
291D6
  8
0
 10
4449.345375920071092
 20
267.6898254272650206
 30
0.0
 40
0.6794133269024821
 50
51.6914473596639823
 51
89.3928973088387977
  0
ARC
  5
291D7
  8
0
 10
4448.8140907228289507
 20
267.6899968426478154
 30
0.0
 40
0.6792089769994174
 50
90.2243161739608297
 51
268.8159342706617281
  0
ARC
  5
291D8
  8
0
 10
4449.6270107506061322
 20
266.0961062271410924
 30
0.0
 40
0.0393700787
 50
270.0
 51
0.0
  0
ARC
  5
291D9
  8
0
 10
4448.4340973649896114
 20
266.0961062272178879
 30
0.0
 40
0.0393700788856499
 50
180.0000001119065871
 51
270.0012079305129191
  0
ARC
  5
291DA
  8
0
 10
4449.6270107506061322
 20
266.2652989479410053
 30
0.0
 40
0.0393700787
 50
0.0
 51
67.9999999999073452
  0
ARC
  5
291DB
  8
0
 10
4448.434097364804984
 20
266.2652989479410053
 30
0.0
 40
0.0393700787
 50
112.0000000000925979
 51
180.0
  0
ARC
  5
291DC
  8
0
 10
4449.5738611443048285
 20
266.3716967783410041
 30
0.0
 40
0.0393700787
 50
180.0
 51
247.9999999999072884
  0
ARC
  5
291DD
  8
0
 10
4448.4872469711035592
 20
266.3716967783410041
 30
0.0
 40
0.0393700787
 50
292.0000000000927116
 51
0.0
  0
ARC
  5
291DE
  8
0
 10
4451.3027068067049186
 20
266.5871464508409758
 30
0.0
 40
0.0787401575
 50
180.0
 51
269.4999993854232798
  0
ARC
  5
291DF
  8
0
 10
4451.3027068066730862
 20
268.7929974648375264
 30
0.0
 40
0.0787401574032632
 50
90.500000592012114
 51
180.0017121729368057
  0
ARC
  5
291E0
  8
0
 10
4450.2464976013307023
 20
285.6909160430693078
 30
0.0
 40
0.1975367502386024
 50
130.9987894636458066
 51
165.6995787483315894
  0
ARC
  5
291E1
  8
0
 10
4450.0707627771889747
 20
285.6298805430164975
 30
0.0
 40
0.0378097985287696
 50
177.9918085714585061
 51
219.5728575699835972
  0
ARC
  5
291E2
  8
0
 10
4449.8577655675553615
 20
285.6505391706388082
 30
0.0
 40
0.019692521070764
 50
220.5785972186286017
 51
309.443016779656773
  0
ARC
  5
291E3
  8
0
 10
4444.8833367183005976
 20
288.4227501016827091
 30
0.0
 40
1.241528679544182
 50
66.7098513920431344
 51
67.6040960954717463
  0
ARC
  5
291E4
  8
0
 10
4445.1600721459981287
 20
289.0994630175176212
 30
0.0
 40
0.5104244163837554
 50
67.383147333399279
 51
69.2558845275868435
  0
ARC
  5
291E5
  8
0
 10
4445.9874706076243456
 20
288.9628247643457257
 30
0.0
 40
0.2943938287320533
 50
37.964320007590743
 51
47.6863376879003127
  0
ARC
  5
291E6
  8
0
 10
4445.8502340387285585
 20
289.2814279349374829
 30
0.0
 40
0.0236220472
 50
236.4636103598531065
 51
322.3481299534363984
  0
ARC
  5
291E7
  8
0
 10
4446.1724068633320712
 20
289.165958957939381
 30
0.0
 40
0.0196850402
 50
47.7074285170610466
 51
67.4684464913959232
  0
ARC
  5
291E8
  8
0
 10
4445.1324627479680203
 20
289.622932065090481
 30
0.0
 40
0.0202997086801493
 50
237.734036811556507
 51
276.3929082332392113
  0
ARC
  5
291E9
  8
0
 10
4445.4415430814206047
 20
289.4716557241121109
 30
0.0
 40
0.0157480326755353
 50
235.4469772858691101
 51
322.9643683299005943
  0
ARC
  5
291EA
  8
0
 10
4445.2822023095250188
 20
289.5813135578271158
 30
0.0
 40
0.0157480314185243
 50
235.464369614004795
 51
322.9643699010338196
  0
ARC
  5
291EB
  8
0
 10
4445.1027180017890714
 20
289.7048341131977054
 30
0.0
 40
0.0157480330982336
 50
147.9644033289540062
 51
235.483567625589302
  0
ARC
  5
291EC
  8
0
 10
4445.062245970717413
 20
289.586584317684526
 30
0.0
 40
0.0118110266955651
 50
235.4343229448408863
 51
321.4643638448928868
  0
ARC
  5
291ED
  8
0
 10
4444.9827930225519594
 20
289.6412635931650925
 30
0.0
 40
0.0118110236113254
 50
235.4643697341275868
 51
321.4643697385270116
  0
ARC
  5
291EE
  8
0
 10
4445.1699277376992541
 20
289.6147950909668793
 30
0.0
 40
0.0078740160371359
 50
276.6572877604268115
 51
322.4643634127394876
  0
ARC
  5
291EF
  8
0
 10
4445.1128469867217063
 20
289.603838511826325
 30
0.0
 40
0.0059055118
 50
241.9223874435703863
 51
323.4643697334439025
  0
ARC
  5
291F0
  8
0
 10
4444.4199338404960145
 20
290.1747240947971136
 30
0.0
 40
0.0157480322264807
 50
235.4518532453504065
 51
322.9643687207886273
  0
ARC
  5
291F1
  8
0
 10
4444.2404495315613531
 20
290.2982446497578053
 30
0.0
 40
0.0157480315529225
 50
147.9643701776161038
 51
235.4643696561346076
  0
ARC
  5
291F2
  8
0
 10
4444.5439139769350732
 20
289.9432988176699837
 30
0.0
 40
0.0118110250337058
 50
235.4444843688168874
 51
321.4643670206190222
  0
ARC
  5
291F3
  8
0
 10
4444.4420614514392582
 20
290.0133934148491903
 30
0.0
 40
0.0118110235734006
 50
149.4643697135416005
 51
235.4643697185061058
  0
ARC
  5
291F4
  8
0
 10
4444.19448598456529
 20
290.1837740988760856
 30
0.0
 40
0.0118110252216758
 50
149.4643731859829927
 51
235.4842542634191886
  0
ARC
  5
291F5
  8
0
 10
4444.3865821388399127
 20
290.0515741100190894
 30
0.0
 40
0.011811025194619
 50
235.4445038081211123
 51
321.4643661033567241
  0
ARC
  5
291F6
  8
0
 10
4444.2847296148129317
 20
290.1216687068611009
 30
0.0
 40
0.0118110249353941
 50
149.4643723161944138
 51
235.4842365315948882
  0
ARC
  5
291F7
  8
0
 10
4444.5792838237794058
 20
289.9189573959283166
 30
0.0
 40
0.0118110238448741
 50
149.4643702323566004
 51
235.4738433278022001
  0
ARC
  5
291F8
  8
0
 10
4444.6811363495589831
 20
289.8488627977847045
 30
0.0
 40
0.011811023950534
 50
235.4549064916795942
 51
321.4640618296238017
  0
ARC
  5
291F9
  8
0
 10
4444.4095872434918419
 20
290.0357420662198251
 30
0.0
 40
0.0118110239030685
 50
149.464677485352496
 51
235.4737976835951088
  0
ARC
  5
291FA
  8
0
 10
4444.151042176552437
 20
290.2977065732284245
 30
0.0
 40
0.019685039106181
 50
194.271390468596195
 51
228.9268605676608104
  0
ARC
  5
291FB
  8
0
 10
4444.1204711435084391
 20
290.3808134122378988
 30
0.0
 40
0.0157480333546796
 50
235.44425400545569
 51
322.9643357633399887
  0
ARC
  5
291FC
  8
0
 10
4443.9409868370630647
 20
290.5043339657585193
 30
0.0
 40
0.015748033359614
 50
147.9643723511119049
 51
235.4844821870198075
  0
ARC
  5
291FD
  8
0
 10
4444.1306317056887565
 20
290.3300354576514906
 30
0.0
 40
0.0078740160678188
 50
148.4643760994590878
 51
194.2714517381481869
  0
ARC
  5
291FE
  8
0
 10
4444.1315984377588393
 20
290.3617201341762097
 30
0.0
 40
0.007874018472733
 50
328.46437706923831
 51
48.4022476804575206
  0
ARC
  5
291FF
  8
0
 10
4443.5762484420265537
 20
290.8463779029415832
 30
0.0
 40
0.0236220472
 50
148.5806095134404927
 51
234.465129107047602
  0
ARC
  5
29200
  8
0
 10
4444.9717519122223166
 20
289.8789624891746257
 30
0.0
 40
0.1758691895814198
 50
236.050859595782299
 51
237.8767038841675969
  0
ARC
  5
29201
  8
0
 10
4444.6992530005663866
 20
289.9824974983797006
 30
0.0
 40
0.0157480315
 50
147.9644009943714025
 51
235.4648980636488886
  0
ARC
  5
29202
  8
0
 10
4444.8787373100149125
 20
289.8589769427911733
 30
0.0
 40
0.0157480315
 50
235.4638445005427059
 51
322.9643386506627962
  0
ARC
  5
29203
  8
0
 10
4444.8809404963922134
 20
289.7113581917353144
 30
0.0
 40
0.011811023684648
 50
149.4643696152789971
 51
235.4643695716887919
  0
ARC
  5
29204
  8
0
 10
4444.8315869939897311
 20
289.7814844884292143
 30
0.0
 40
0.0078740157
 50
236.6784704581484107
 51
264.5157445898611854
  0
ARC
  5
29205
  8
0
 10
4444.6660841420307406
 20
289.9112995095617862
 30
0.0
 40
0.0059056919293716
 50
250.3237873339516
 51
322.5108195339425947
  0
ARC
  5
29206
  8
0
 10
4444.1775248407620893
 20
291.2206908489649209
 30
0.0
 40
0.5592711755445047
 50
231.3537626028978877
 51
235.1482556945927058
  0
ARC
  5
29207
  8
0
 10
4444.5671634457557957
 20
290.8721093697836864
 30
0.0
 40
0.4929981569143413
 50
232.0817067994626086
 51
236.238791568618808
  0
ARC
  5
29208
  8
0
 10
4444.1396071271146866
 20
291.1736821565182822
 30
0.0
 40
0.4988766712
 50
230.4489216371466966
 51
231.3832751951485989
  0
ARC
  5
29209
  8
0
 10
4446.6512030958592732
 20
290.4329320539529817
 30
0.0
 40
1.3758037125639391
 50
236.5050709357616086
 51
238.7835364271761875
  0
ARC
  5
2920A
  8
0
 10
4446.1023679627769525
 20
290.109984461963279
 30
0.0
 40
0.7984001944457421
 50
235.6468780267470891
 51
240.8369854188570116
  0
ARC
  5
2920B
  8
0
 10
4446.3777785843967649
 20
289.8318444153018163
 30
0.0
 40
0.6626279382014995
 50
236.4522980417659141
 51
240.2867876007080099
  0
ARC
  5
2920C
  8
0
 10
4445.9986301106710016
 20
289.999176524677182
 30
0.0
 40
0.5854820071
 50
236.7677773172543993
 51
239.5489429895434057
  0
ARC
  5
2920D
  8
0
 10
4445.9076734866857805
 20
289.8596118991608819
 30
0.0
 40
0.4188952038
 50
235.5246880183329949
 51
236.7123976188590859
  0
ARC
  5
2920E
  8
0
 10
4446.8127701035364225
 20
289.0578094938177856
 30
0.0
 40
0.0800924136471162
 50
259.0677680574224837
 51
297.096233353493119
  0
ARC
  5
2920F
  8
0
 10
4446.8674595072734519
 20
288.9508907158730153
 30
0.0
 40
0.0400015341903552
 50
43.8440610110804911
 51
117.0773232098308938
  0
ARC
  5
29210
  8
0
 10
4446.6403857384802905
 20
289.024752163762912
 30
0.0
 40
0.0315682681
 50
251.1571490948223868
 51
258.7266137881413215
  0
ARC
  5
29211
  8
0
 10
4446.6885717899185693
 20
289.0174618306530192
 30
0.0
 40
0.0157474765137103
 50
235.4641713440653064
 51
257.9097397554256759
  0
ARC
  5
29212
  8
0
 10
4444.9521310170375727
 20
290.8490158590590795
 30
0.0
 40
0.755104283996309
 50
233.3925148993232881
 51
236.1703719528819079
  0
ARC
  5
29213
  8
0
 10
4444.4172032306169058
 20
291.5933929382114229
 30
0.0
 40
1.065131053277091
 50
232.1138225994866957
 51
234.049703487844198
  0
ARC
  5
29214
  8
0
 10
4444.6220433423513896
 20
291.1987052084045899
 30
0.0
 40
0.8560328768999999
 50
233.5036306606496908
 51
235.3910435643618086
  0
ARC
  5
29215
  8
0
 10
4450.7801815598813846
 20
285.5354797434200123
 30
0.0
 40
0.7533121978619203
 50
164.269780109152407
 51
172.6995073136554026
  0
ARC
  5
29216
  8
0
 10
4450.8893217742015622
 20
285.508969595643805
 30
0.0
 40
0.7204724408961022
 50
116.6579807964184994
 51
140.7234084257883069
  0
ARC
  5
29217
  8
0
 10
4450.8913896834519619
 20
285.5236055159377884
 30
0.0
 40
0.7057096493101412
 50
73.8798922446697048
 51
103.2544262255801044
  0
ARC
  5
29218
  8
0
 10
4450.8827249951345948
 20
285.5045081079891247
 30
0.0
 40
0.7162661826332091
 50
155.6829005599198865
 51
272.459102642914786
  0
ARC
  5
29219
  8
0
 10
4450.8890913456598355
 20
285.5021330749428898
 30
0.0
 40
0.6889713756632725
 50
91.5107393053010583
 51
179.9992058625230129
  0
ARC
  5
2921A
  8
0
 10
4450.8887574914188008
 20
285.5015568714019878
 30
0.0
 40
0.6886377704753511
 50
179.9512644026918906
 51
258.4201645145723205
  0
ARC
  5
2921B
  8
0
 10
4447.6243803057095647
 20
294.2940113700851157
 30
0.0
 40
5.251637270499999
 50
245.9589812311575088
 51
246.7065367050076077
  0
ARC
  5
2921C
  8
0
 10
4447.5885365077247116
 20
294.2419173464709843
 30
0.0
 40
5.2516224771273752
 50
238.5034768645747931
 51
238.7201767242706012
  0
ARC
  5
2921D
  8
0
 10
4447.5818404024621486
 20
294.2321900196262732
 30
0.0
 40
5.2516243535539751
 50
241.7469695844457931
 51
241.922315903601401
  0
ARC
  5
2921E
  8
0
 10
4447.0737203754242728
 20
293.6635861525141991
 30
0.0
 40
4.4888653939999994
 50
229.173738807766199
 51
230.1835486244775097
  0
ARC
  5
2921F
  8
0
 10
4445.6383020702096474
 20
292.7468029847104845
 30
0.0
 40
2.7595993520200861
 50
234.4249945362554968
 51
235.2088474897176127
  0
ARC
  5
29220
  8
0
 10
4444.855124541096302
 20
292.1391602291781169
 30
0.0
 40
1.814934489664173
 50
234.0875335451129047
 51
236.0693063033129988
  0
ARC
  5
29221
  8
0
 10
4444.547306846677202
 20
292.2424234586061971
 30
0.0
 40
1.6740755383000001
 50
232.186495500870393
 51
233.3447288696544035
  0
ARC
  5
29222
  8
0
 10
4443.8575944205585984
 20
291.897249346671174
 30
0.0
 40
0.9358281998161663
 50
228.2239945160675063
 51
233.3607005416818936
  0
ARC
  5
29223
  8
0
 10
4443.2500826690038593
 20
291.987795665744386
 30
0.0
 40
0.0800006885773002
 50
79.0174580828228983
 51
131.2957613053185923
  0
ARC
  5
29224
  8
0
 10
4443.0257104232223355
 20
291.6619019445469121
 30
0.0
 40
0.0800003337731545
 50
159.6330188558625878
 51
211.9252208010553034
  0
ARC
  5
29225
  8
0
 10
4443.2357178876045509
 20
291.2186117403119283
 30
0.0
 40
0.0236220472
 50
230.4636101996673858
 51
277.5802043152268084
  0
ARC
  5
29226
  8
0
 10
4443.1724727786022413
 20
291.2708130746270854
 30
0.0
 40
0.0236220472
 50
144.5647420557307044
 51
230.4651292641509031
  0
ARC
  5
29227
  8
0
 10
4443.0302376586651008
 20
291.5351162534926175
 30
0.0
 40
0.0157474813478094
 50
213.0190049810786945
 51
235.4645663947543142
  0
ARC
  5
29228
  8
0
 10
4443.0523125918880396
 20
291.4937585075521156
 30
0.0
 40
0.0118110236000144
 50
145.7643697335226136
 51
219.6037345754008072
  0
ARC
  5
29229
  8
0
 10
4449.3407582555037152
 20
292.1498834850410162
 30
0.0
 40
25.2512871979000018
 50
269.9546143985315894
 51
271.5920086955861166
  0
ARC
  5
2922A
  8
0
 10
4449.24049981461485
 20
296.6423094033597181
 30
0.0
 40
8.0806534027999994
 50
248.9425341789647064
 51
251.1536119198559902
  0
ARC
  5
2922B
  8
0
 10
4449.2409789967332472
 20
296.642987266315572
 30
0.0
 40
8.0625344666989331
 50
219.761637846627309
 51
221.2750493745280096
  0
ARC
  5
2922C
  8
0
 10
4449.240944859821866
 20
296.6429636726300032
 30
0.0
 40
8.0624932766999997
 50
222.9010773777320935
 51
223.4999955080014047
  0
ARC
  5
2922D
  8
0
 10
4449.2409175257525931
 20
296.6429515460188782
 30
0.0
 40
8.0624668496999998
 50
243.6539604131345129
 51
244.0779483845853974
  0
ARC
  5
2922E
  8
0
 10
4449.2409242567346155
 20
296.6429469129788004
 30
0.0
 40
8.0624668489999998
 50
226.8507910828269871
 51
227.2747790534745889
  0
ARC
  5
2922F
  8
0
 10
4449.2409117204142603
 20
296.6429328525093183
 30
0.0
 40
8.0624480247000001
 50
224.4636052304012992
 51
224.6436272958200959
  0
ARC
  5
29230
  8
0
 10
4449.2409088695721948
 20
296.6429348111490754
 30
0.0
 40
8.0624480217999999
 50
246.2851121714953138
 51
246.4651342372083036
  0
ARC
  5
29231
  8
0
 10
4449.2409086938669134
 20
296.6429348806063899
 30
0.0
 40
8.0624480170000012
 50
247.4287420643393887
 51
248.0276640945490101
  0
ARC
  5
29232
  8
0
 10
4447.8604830298836532
 20
294.6741831041669002
 30
0.0
 40
5.7763907648000004
 50
211.9247721003617926
 51
213.0189256113633007
  0
ARC
  5
29233
  8
0
 10
4447.8941558868446009
 20
294.6455981358785721
 30
0.0
 40
5.7715576961924393
 50
257.9095758450719131
 51
259.0474263976481097
  0
ARC
  5
29234
  8
0
 10
4450.9590671606856631
 20
297.6656785102190952
 30
0.0
 40
9.9934274936000005
 50
224.741070295322686
 51
225.444285807345409
  0
LINE
  5
29235
  8
0
 10
4444.0632750619788567
 20
290.4768606187777209
 30
0.0
 11
4444.0569662312291257
 21
290.4852182420962095
 31
0.0
  0
LINE
  5
29236
  8
0
 10
4444.874411052825053
 20
289.732488160583614
 30
0.0
 11
4444.8701187772594494
 21
289.7355038491260188
 31
0.0
  0
LINE
  5
29237
  8
0
 10
4444.8701187772594494
 20
289.7355038491260188
 30
0.0
 11
4444.868186567153316
 21
289.7369899312910206
 31
0.0
  0
LINE
  5
29238
  8
0
 10
4445.0164431847870219
 20
289.658579889413204
 30
0.0
 11
4445.0135940131112875
 21
289.6610703603765842
 31
0.0
  0
LINE
  5
29239
  8
0
 10
4445.0977099105848538
 20
289.6063565960931214
 30
0.0
 11
4445.0945610187836792
 21
289.6083745667428957
 31
0.0
  0
LINE
  5
2923A
  8
0
 10
4445.3408619188376178
 20
289.5767974315190827
 30
0.0
 11
4445.3288587075912801
 21
289.5804869478180876
 31
0.0
  0
LINE
  5
2923B
  8
0
 10
4444.5693747401855944
 20
289.9530084014525073
 30
0.0
 11
4444.5714850060949175
 21
289.9523772761099849
 31
0.0
  0
LINE
  5
2923C
  8
0
 10
4444.4157965440836051
 20
290.0600280825926802
 30
0.0
 11
4444.4123760493212103
 21
290.0606404947814099
 31
0.0
  0
LINE
  5
2923D
  8
0
 10
4445.4285543929527194
 20
289.5303811660637052
 30
0.0
 11
4445.4282370699284002
 21
289.5309656282336732
 31
0.0
  0
LINE
  5
2923E
  8
0
 10
4443.7866185735638282
 20
290.8271555286308967
 30
0.0
 11
4443.7786919854943335
 21
290.8321949890641918
 31
0.0
  0
LINE
  5
2923F
  8
0
 10
4443.5168972776045848
 20
290.9964328634806066
 30
0.0
 11
4443.5041992588885478
 21
291.0056693613262269
 31
0.0
  0
LINE
  5
29240
  8
0
 10
4443.797583344134182
 20
290.8192422492298874
 30
0.0
 11
4443.7866185735638282
 21
290.8271555286308967
 31
0.0
  0
LINE
  5
29241
  8
0
 10
4443.5478853474924108
 20
290.8994098417542773
 30
0.0
 11
4443.5652464037830214
 21
290.8868303825075827
 31
0.0
  0
LINE
  5
29242
  8
0
 10
4449.552207601003829
 20
266.6974630430410116
 30
0.0
 11
4449.5344910656040156
 21
266.7142164633410175
 31
0.0
  0
LINE
  5
29243
  8
0
 10
4448.5089005144036491
 20
266.6974630430410116
 30
0.0
 11
4448.5266170498043721
 21
266.7142164633410175
 31
0.0
  0
LINE
  5
29244
  8
0
 10
4450.0416184128043824
 20
285.6057934740904898
 30
0.0
 11
4450.1559300824046659
 21
285.4680222956409921
 31
0.0
  0
ARC
  5
29245
  8
0
 10
4450.0953327693423489
 20
285.4177432927654081
 30
0.0
 40
0.0787401579919457
 50
20.9675244322802889
 51
39.6832850252416804
  0
ARC
  5
29246
  8
0
 10
4450.6514707466621985
 20
286.2580312591236975
 30
0.0
 40
0.0196935399530804
 50
39.6931658589858429
 51
129.6482029175913055
  0
LINE
  5
29247
  8
0
 10
4444.7035908789293899
 20
289.8580977365359104
 30
0.0
 11
4444.8272615070600295
 21
289.7749049530305001
 31
0.0
  0
ARC
  5
29248
  8
0
 10
4449.3507508412130846
 20
268.1410888688079126
 30
0.0
 40
1.1301637468222001
 50
270.2125398862215775
 51
303.9187972801024102
  0
LINE
  5
29249
  8
0
 10
4450.5468014147054419
 20
267.4440089656409896
 30
0.0
 11
4450.5271162609051316
 21
267.5009920745409886
 31
0.0
  0
ARC
  5
2924A
  8
0
 10
4451.33114758904685
 20
267.6333495330238179
 30
0.0
 40
0.8407603284540847
 50
158.8916447129255971
 51
163.0019177955936129
  0
ARC
  5
2924B
  8
0
 10
4450.228043398349655
 20
267.6900719576769916
 30
0.0
 40
0.7537535274118524
 50
340.9465417318879759
 51
19.0534582681119815
  0
ARC
  5
2924C
  8
0
 10
4446.6597048661851659
 20
263.5979628377281756
 30
0.0
 40
4.2397443733695201
 50
47.3080434351385222
 51
51.1232351005023773
  0
ARC
  5
2924D
  8
0
 10
4449.123940542366654
 20
266.6331283153679124
 30
0.0
 40
0.3304750750186233
 50
53.4450309485968376
 51
83.8557111784949853
  0
ARC
  5
2924E
  8
0
 10
4449.0300959141450221
 20
266.0977724022515076
 30
0.0
 40
0.8735424063511265
 50
81.4934700745286733
 51
97.5265223815000155
  0
ARC
  5
2924F
  8
0
 10
4448.9681274157937878
 20
266.5267580310381277
 30
0.0
 40
0.4401670602260394
 50
96.8439215877033917
 51
113.5552904968875936
  0
ARC
  5
29250
  8
0
 10
4448.8773309344496738
 20
266.732621043633003
 30
0.0
 40
0.2151744121342372
 50
113.2993921448093033
 51
128.8379705858249906
  0
ARC
  5
29251
  8
0
 10
4451.3942922018723038
 20
263.6058146088548142
 30
0.0
 40
4.2291515540069513
 50
128.8330193033980038
 51
132.693274157473013
  0
ARC
  5
29252
  8
0
 10
4448.3551689056139367
 20
263.8665846170850955
 30
0.0
 40
2.833238758486007
 50
87.6610936119042776
 51
112.7697698738156049
  0
ARC
  5
29253
  8
0
 10
4450.0753440169492023
 20
260.4835806829793228
 30
0.0
 40
6.6241402151607778
 50
115.1646294253352067
 51
119.9630284965068938
  0
LINE
  5
29254
  8
0
 10
4445.1488903124036369
 20
265.2117133868410974
 30
0.0
 11
4446.7669763277035599
 21
266.2223903873410222
 31
0.0
  0
ARC
  5
29255
  8
0
 10
4461.3664989150602196
 20
240.930659400444199
 30
0.0
 40
30.7351534420201986
 50
119.3836039193861041
 51
123.6879115379905016
  0
ARC
  5
29256
  8
0
 10
4448.3055980514582188
 20
264.05522169972852
 30
0.0
 40
4.1772214119235329
 50
98.9056357146908738
 51
118.9103498816968028
  0
ARC
  5
29257
  8
0
 10
4448.4243928316500387
 20
262.2365621626615848
 30
0.0
 40
5.9945953817562758
 50
91.3696948531313922
 51
97.336226428755154
  0
ARC
  5
29258
  8
0
 10
4448.2980093426558597
 20
268.569829294578426
 30
0.0
 40
0.340804236939197
 50
267.156309628193128
 51
299.9228827915787861
  0
ARC
  5
29259
  8
0
 10
4450.1071886824220201
 20
281.7029785693163149
 30
0.0
 40
3.1895124427536752
 50
52.6410089678091708
 51
78.3633971266443439
  0
ARC
  5
2925A
  8
0
 10
4452.0723407924451749
 20
284.2722583480862113
 30
0.0
 40
0.0452413908258453
 50
228.9121330056144927
 51
267.8423160026330265
  0
ARC
  5
2925B
  8
0
 10
4450.8735862659368649
 20
285.5186225930102069
 30
0.0
 40
0.7021850415852099
 50
140.5202966250415955
 51
156.4253711684283985
  0
ARC
  5
2925C
  8
0
 10
4450.8651837295628866
 20
285.5652991954578965
 30
0.0
 40
0.6593111624560938
 50
101.8683245377717981
 51
116.9795964443349021
  0
ARC
  5
2925D
  8
0
 10
4450.7276893304933765
 20
286.2342442360942982
 30
0.0
 40
0.0238039003101967
 50
222.5729394559284913
 51
274.574192404601888
  0
ARC
  5
2925E
  8
0
 10
4360.9728628490620395
 20
210.228164002573692
 30
0.0
 40
116.5524338879586992
 50
40.3158854243741303
 51
42.5058362261893521
  0
ARC
  5
2925F
  8
0
 10
4458.3269083096602117
 20
281.8772987892775177
 30
0.0
 40
13.5252353822690896
 50
146.2153404488238095
 51
147.7280725764470048
  0
ARC
  5
29260
  8
0
 10
4447.8381953551388506
 20
288.607018460968618
 30
0.0
 40
1.067313128708673
 50
152.555119235982886
 51
157.9820970081919995
  0
ARC
  5
29261
  8
0
 10
4447.9751475524008129
 20
289.0255402130858897
 30
0.0
 40
1.1265728267522239
 50
180.9353300386044907
 51
181.9855263440962858
  0
ARC
  5
29262
  8
0
 10
4446.9534877294172475
 20
289.4360820319448067
 30
0.0
 40
0.1374359441974656
 50
344.0515570829912804
 51
7.788859327111612
  0
ARC
  5
29263
  8
0
 10
4793.3918540610638956
 20
599.7889079837260624
 30
0.0
 40
464.9540277048528196
 50
221.883059438379604
 51
222.4440424983444871
  0
ARC
  5
29264
  8
0
 10
4447.0632235963194034
 20
289.2245163204706841
 30
0.0
 40
0.2274489180217031
 50
43.0589835710800486
 51
71.5139600164070686
  0
ARC
  5
29265
  8
0
 10
4446.8448530702380594
 20
288.6029405627739948
 30
0.0
 40
0.8862480937638519
 50
70.8663130981436353
 51
73.9650533663030956
  0
ARC
  5
29266
  8
0
 10
4447.1752857215369659
 20
289.7655713606717995
 30
0.0
 40
0.3224417462947298
 50
240.0276612075113007
 51
254.5993321107476959
  0
ARC
  5
29267
  8
0
 10
4405.4480849791307264
 20
247.5459301037475939
 30
0.0
 40
59.4695076891883474
 50
40.6159519188212315
 51
44.2511290328852596
  0
ARC
  5
29268
  8
0
 10
4438.5782133609773155
 20
279.8942434344215258
 30
0.0
 40
13.1660909827425705
 50
44.0232708780990833
 51
55.6970064378619583
  0
ARC
  5
29269
  8
0
 10
4440.7430960931542359
 20
283.7747221917040861
 30
0.0
 40
8.7495701492199327
 50
53.0860624885342105
 51
64.56399854819648
  0
ARC
  5
2926A
  8
0
 10
4442.1884810149631448
 20
286.5038458230189917
 30
0.0
 40
5.6657597108428952
 50
65.9102314248974892
 51
79.0436289084737069
  0
ARC
  5
2926B
  8
0
 10
4443.7634183851860143
 20
291.3941880742286799
 30
0.0
 40
0.8647809877860142
 50
130.8933779658565868
 51
160.0152275422564117
  0
LINE
  5
2926C
  8
0
 10
4446.6342144378822923
 20
288.9937929874212159
 30
0.0
 11
4446.6532612228411381
 21
289.0226461927056221
 31
0.0
  0
ARC
  5
2926D
  8
0
 10
4446.6402945721647484
 20
289.0247386458124197
 30
0.0
 40
0.0120078643822067
 50
251.3346701938685044
 51
322.2801932618191927
  0
ARC
  5
2926E
  8
0
 10
4446.8461081120158269
 20
289.0849133750664919
 30
0.0
 40
0.1163462194381122
 50
235.9390476212921897
 51
245.3487179544011099
  0
ARC
  5
2926F
  8
0
 10
4447.9062446555553834
 20
290.6224080280863973
 30
0.0
 40
2.1082649976190782
 50
232.1087559665191975
 51
236.6343483309948965
  0
ARC
  5
29270
  8
0
 10
4446.5549374535576135
 20
288.5932585967527757
 30
0.0
 40
0.3298678865301562
 50
21.2601116225677913
 51
54.4470646903429909
  0
ARC
  5
29271
  8
0
 10
4446.7257892019260908
 20
288.6616201835249171
 30
0.0
 40
0.1458661529562164
 50
351.5943016244946762
 51
20.5696012236894106
  0
ARC
  5
29272
  8
0
 10
4446.7666126615031317
 20
288.6575302938006189
 30
0.0
 40
0.1049009643240988
 50
312.3682259615176804
 51
350.5446442181732891
  0
ARC
  5
29273
  8
0
 10
4446.6817890075490141
 20
288.7581365849075041
 30
0.0
 40
0.2364494794773959
 50
285.3108179233465762
 51
311.1256077959822051
  0
ARC
  5
29274
  8
0
 10
4446.6540010391290707
 20
288.855992451693794
 30
0.0
 40
0.3381711305528473
 50
259.6061838049901098
 51
285.4738691226667129
  0
ARC
  5
29275
  8
0
 10
4446.6548999376791471
 20
288.8054975321160782
 30
0.0
 40
0.2888399111329476
 50
225.800359413317409
 51
257.6233090262124961
  0
ARC
  5
29276
  8
0
 10
4446.7337134955641886
 20
288.8806690029047104
 30
0.0
 40
0.3976982662191564
 50
200.1777062354582029
 51
225.2102398927399918
  0
ARC
  5
29277
  8
0
 10
4447.8042912599830743
 20
289.2469285936657002
 30
0.0
 40
1.5291193880887151
 50
191.7186852495131006
 51
199.2223190306667959
  0
ARC
  5
29278
  8
0
 10
4445.7369462850447235
 20
288.8215453988973991
 30
0.0
 40
0.5815430797881259
 50
11.3861961379859409
 51
31.8941749518857911
  0
ARC
  5
29279
  8
0
 10
4446.1268117840209015
 20
288.7286287812776209
 30
0.0
 40
0.469336977012951
 50
60.1717234355554567
 51
76.840274915467532
  0
ARC
  5
2927A
  8
0
 10
4445.9792422603268278
 20
289.0970991599480726
 30
0.0
 40
0.2464142388115244
 50
50.5960721185657718
 51
82.5522272421194998
  0
ARC
  5
2927B
  8
0
 10
4445.7863228325932141
 20
288.9219033148829112
 30
0.0
 40
0.4366176575576188
 50
61.3574012968312985
 51
75.6404086237584465
  0
ARC
  5
2927C
  8
0
 10
4445.6511522881382916
 20
289.4050003906571078
 30
0.0
 40
0.1795828553852276
 50
41.4436269650810019
 51
85.6573773337961768
  0
ARC
  5
2927D
  8
0
 10
4445.6847794176310344
 20
289.3820768537722756
 30
0.0
 40
0.1139519973585042
 50
40.7140333829325698
 51
57.7251782549188235
  0
ARC
  5
2927E
  8
0
 10
4445.6562011385576625
 20
289.4764402059449822
 30
0.0
 40
0.0404783461184652
 50
69.2270653092082568
 51
99.2113815842100593
  0
ARC
  5
2927F
  8
0
 10
4445.4933057683829247
 20
289.227646350506916
 30
0.0
 40
0.291592993374239
 50
61.4080738631398404
 51
75.603411131990697
  0
ARC
  5
29280
  8
0
 10
4445.3420178698206655
 20
289.5328943127223056
 30
0.0
 40
0.1288272685724694
 50
39.467822596309631
 51
63.1991350131816674
  0
ARC
  5
29281
  8
0
 10
4445.2846761678592884
 20
289.5641197711846075
 30
0.0
 40
0.1904119728573872
 50
40.0075916491566801
 51
81.5262796847864308
  0
ARC
  5
29282
  8
0
 10
4445.2170893589782281
 20
289.7367870674738128
 30
0.0
 40
0.1533892882224059
 50
33.6627971965790991
 51
85.7805004710200052
  0
ARC
  5
29283
  8
0
 10
4444.9682016150518393
 20
289.6857352798483021
 30
0.0
 40
0.2143234449042565
 50
40.1020594465887186
 51
76.7724146653994097
  0
ARC
  5
29284
  8
0
 10
4444.8881684746165774
 20
289.8608814584633819
 30
0.0
 40
0.1714361302617256
 50
34.1618868621962832
 51
80.4250275721916807
  0
ARC
  5
29285
  8
0
 10
4444.7267545496642924
 20
290.08354001094051
 30
0.0
 40
0.1461436411641515
 50
28.0415275645527089
 51
82.8865962175950841
  0
ARC
  5
29286
  8
0
 10
4444.4610387574593915
 20
290.1546459784281069
 30
0.0
 40
0.1715761387149824
 50
30.5237753670995602
 51
76.7469662844473959
  0
ARC
  5
29287
  8
0
 10
4444.2278694496717435
 20
290.4178368458137243
 30
0.0
 40
0.1531873963497555
 50
25.1113071683718196
 51
77.3028524286434049
  0
ARC
  5
29288
  8
0
 10
4444.0425227755076776
 20
290.4193656113806128
 30
0.0
 40
0.1901027373104124
 50
29.3671981532790305
 51
70.9565221479131196
  0
ARC
  5
29289
  8
0
 10
4443.9876888951603178
 20
290.4530408989152761
 30
0.0
 40
0.1384592001743123
 50
48.5660156707941724
 51
70.6246833937618845
  0
ARC
  5
2928A
  8
0
 10
4443.7625948354543652
 20
290.7043683027836209
 30
0.0
 40
0.1798384831602641
 50
25.3044789608899094
 51
69.4520715962402306
  0
ARC
  5
2928B
  8
0
 10
4443.6696285591478954
 20
290.5086146723994034
 30
0.0
 40
0.269884488009339
 50
34.7353243993130079
 51
50.0763953997308278
  0
ARC
  5
2928C
  8
0
 10
4443.2254955844782671
 20
290.3344865941037938
 30
0.0
 40
0.6686766867640952
 50
40.5238474643326825
 51
52.2045738092908707
  0
ARC
  5
2928D
  8
0
 10
4443.263393275045928
 20
290.6583573556713986
 30
0.0
 40
0.436462313419738
 50
35.2868911719250207
 51
49.5404405277424686
  0
ARC
  5
2928E
  8
0
 10
4443.3577283212825932
 20
290.9007678279567131
 30
0.0
 40
0.246776825473992
 50
28.4005832718374585
 51
60.3085331362435824
  0
ARC
  5
2928F
  8
0
 10
4442.9611440102853521
 20
290.907262558770185
 30
0.0
 40
0.4693110986188322
 50
34.0880243509848313
 51
50.7575000772139191
  0
ARC
  5
29290
  8
0
 10
4446.3136677600050461
 20
289.1088397114190229
 30
0.0
 40
0.023658764069653
 50
281.2678069827513241
 51
326.1162982640556152
  0
ARC
  5
29291
  8
0
 10
4446.3135757650661617
 20
289.1094689605575923
 30
0.0
 40
0.0242938815914644
 50
246.4578554893602984
 51
281.1906138381477831
  0
ARC
  5
29292
  8
0
 10
4446.7831483559712069
 20
290.0153250464114763
 30
0.0
 40
1.044570256893063
 50
238.0698709806077886
 51
242.688613659665009
  0
ARC
  5
29293
  8
0
 10
4446.4406615295902157
 20
289.4132536770790125
 30
0.0
 40
0.3514557322424636
 50
237.0100129070812898
 51
243.4315943986042043
  0
ARC
  5
29294
  8
0
 10
4446.0855798386928655
 20
288.792723753725511
 30
0.0
 40
0.3645686331666478
 50
57.1256140549935267
 51
63.3159932507119265
  0
ARC
  5
29295
  8
0
 10
4446.2441882193970741
 20
289.1503829710310924
 30
0.0
 40
0.025451643458769
 50
194.693509777786204
 51
237.9740674230656055
  0
ARC
  5
29296
  8
0
 10
4446.2425530836226244
 20
289.1495311862332755
 30
0.0
 40
0.0236574673696122
 50
154.3214190716275027
 51
193.7024741122810951
  0
ARC
  5
29297
  8
0
 10
4446.1009841373788731
 20
289.1756589021160835
 30
0.0
 40
0.0237331947787953
 50
238.5686070540895969
 51
324.1979259832330058
  0
ARC
  5
29298
  8
0
 10
4446.4039383711669871
 20
289.7469587414404941
 30
0.0
 40
0.6703472309100506
 50
234.8682318212040059
 51
241.9398113173949127
  0
ARC
  5
29299
  8
0
 10
4446.0312340265409148
 20
289.2184874809979078
 30
0.0
 40
0.0236813974343426
 50
152.5922685316103014
 51
236.5515555016312987
  0
ARC
  5
2929A
  8
0
 10
4445.6589505723959519
 20
288.2244079936526191
 30
0.0
 40
1.0928460346924711
 50
63.3768245974956699
 51
70.5212656561038358
  0
ARC
  5
2929B
  8
0
 10
4446.0892596152589249
 20
289.2628603984268807
 30
0.0
 40
0.0242100094692555
 50
248.6964755783527892
 51
325.0102089587978185
  0
ARC
  5
2929C
  8
0
 10
4446.1778263803771551
 20
289.4674870421699779
 30
0.0
 40
0.2471664888253977
 50
238.6789568247924933
 51
246.8017074839858083
  0
ARC
  5
2929D
  8
0
 10
4446.0219851467336412
 20
289.3038610112934066
 30
0.0
 40
0.0264006966039859
 50
156.2595716640198873
 51
246.8118165147623984
  0
ARC
  5
2929E
  8
0
 10
4445.9456534263563299
 20
289.098676761283798
 30
0.0
 40
0.1915576411334983
 50
53.6071921387358827
 51
65.4035021970418882
  0
ARC
  5
2929F
  8
0
 10
4446.1396837703578058
 20
289.4281452278647748
 30
0.0
 40
0.1928213247835424
 50
233.6459823572185996
 51
245.3647119785387076
  0
ARC
  5
292A0
  8
0
 10
4445.9714059483303572
 20
289.2645279338537989
 30
0.0
 40
0.0236698807748775
 50
267.018505397395927
 51
324.0105739262800739
  0
ARC
  5
292A1
  8
0
 10
4445.972154191907066
 20
289.2689801627583961
 30
0.0
 40
0.0281597234646382
 50
237.4813486964534093
 51
265.9692583354686235
  0
ARC
  5
292A2
  8
0
 10
4446.2673320590911317
 20
289.794484406447225
 30
0.0
 40
0.6308489115140957
 50
238.5476113672089866
 51
240.534332331134209
  0
ARC
  5
292A3
  8
0
 10
4445.9052953544496631
 20
289.3097697352774844
 30
0.0
 40
0.0276090031334398
 50
200.7853187118861058
 51
241.0887958880832969
  0
ARC
  5
292A4
  8
0
 10
4445.9018198552030299
 20
289.3077741622369103
 30
0.0
 40
0.0236599890777452
 50
152.259716851494403
 51
199.2538102009351064
  0
ARC
  5
292A5
  8
0
 10
4445.7976204790384145
 20
289.302088087295715
 30
0.0
 40
0.0124473865149657
 50
260.2118619802536728
 51
320.5381192317033197
  0
ARC
  5
292A6
  8
0
 10
4445.4961538793277214
 20
288.7679938215881066
 30
0.0
 40
0.6718955808584556
 50
58.7643835990451109
 51
70.3892901680350178
  0
ARC
  5
292A7
  8
0
 10
4445.7281147996982327
 20
289.3639001526935886
 30
0.0
 40
0.0238289987235861
 50
150.7367697797942014
 51
239.8181021085202076
  0
ARC
  5
292A8
  8
0
 10
4445.7246163230802267
 20
289.434088540661719
 30
0.0
 40
0.0241113949345583
 50
242.037607216164588
 51
323.0995834853089264
  0
ARC
  5
292A9
  8
0
 10
4445.5374036610619441
 20
289.2148542629033727
 30
0.0
 40
0.2623720290341476
 50
53.2840953470353682
 51
61.8892244052258818
  0
ARC
  5
292AA
  8
0
 10
4445.8190004266916731
 20
289.6583514895668827
 30
0.0
 40
0.264445203935128
 50
233.3178890239408929
 51
241.8554307283091021
  0
ARC
  5
292AB
  8
0
 10
4445.7045385395549602
 20
289.5330005440857803
 30
0.0
 40
0.0976062218436081
 50
228.3779623636478959
 51
237.320656522108294
  0
ARC
  5
292AC
  8
0
 10
4445.6559586813591523
 20
289.4775624537726912
 30
0.0
 40
0.0239018547466557
 50
151.8696387650705049
 51
227.1619833231534074
  0
ARC
  5
292AD
  8
0
 10
4445.7404371182456089
 20
289.5017750673139858
 30
0.0
 40
0.0239220805305177
 50
282.5313992797812261
 51
324.2592289412107789
  0
ARC
  5
292AE
  8
0
 10
4445.740171529255349
 20
289.5037101066819218
 30
0.0
 40
0.025869146476049
 50
251.9217064649178042
 51
282.1757118280323198
  0
ARC
  5
292AF
  8
0
 10
4445.7944539634709145
 20
289.6394445409291052
 30
0.0
 40
0.1720091036986271
 50
237.4498373582561896
 51
248.7616471072888089
  0
ARC
  5
292B0
  8
0
 10
4445.7395215035830915
 20
289.6192686098037257
 30
0.0
 40
0.1256071082544349
 50
228.079985420811596
 51
236.6984007452695948
  0
ARC
  5
292B1
  8
0
 10
4445.6731907899629732
 20
289.5451032544157783
 30
0.0
 40
0.0261079510323403
 50
190.9980410311715104
 51
227.654058655608992
  0
ARC
  5
292B2
  8
0
 10
4445.67106490273909
 20
289.5444286514065766
 30
0.0
 40
0.0238937891672975
 50
152.5398934534698867
 51
190.3826084680640065
  0
ARC
  5
292B3
  8
0
 10
4445.6211059087509057
 20
289.3854657280672882
 30
0.0
 40
0.1393880384043815
 50
50.2847627900258303
 51
66.5266239841160143
  0
ARC
  5
292B4
  8
0
 10
4445.7665002689345783
 20
289.6218535167039931
 30
0.0
 40
0.1409146445760352
 50
230.3733255022355877
 51
246.4380612719093051
  0
ARC
  5
292B5
  8
0
 10
4445.639385084755304
 20
289.4264218109345848
 30
0.0
 40
0.0237495704292812
 50
236.0316329942066886
 51
322.0662948769709146
  0
ARC
  5
292B6
  8
0
 10
4445.8837329605867126
 20
289.8664863976164838
 30
0.0
 40
0.5270172558987097
 50
231.7035025575744953
 51
240.7368198720683949
  0
ARC
  5
292B7
  8
0
 10
4445.571306350053419
 20
289.4718381104738114
 30
0.0
 40
0.0236793262395194
 50
150.4280155352109034
 51
233.2064211775521017
  0
ARC
  5
292B8
  8
0
 10
4445.4833145222373787
 20
289.4943351196445747
 30
0.0
 40
0.0039364220399692
 50
66.0436331426230652
 51
142.9717524728787055
  0
ARC
  5
292B9
  8
0
 10
4445.7169907153711392
 20
290.1658507360099861
 30
0.0
 40
0.6978660949033361
 50
245.5869498483268103
 51
251.6929466561439028
  0
ARC
  5
292BA
  8
0
 10
4444.9973119854921606
 20
288.6268499308496871
 30
0.0
 40
1.0092807865587159
 50
60.27283746976169
 51
68.0718310663377935
  0
ARC
  5
292BB
  8
0
 10
4445.4088501321657532
 20
289.5640927915696921
 30
0.0
 40
0.0383830992298112
 50
300.33735837504139
 51
313.3044447613750094
  0
ARC
  5
292BC
  8
0
 10
4445.3952976742211831
 20
289.5941579024936914
 30
0.0
 40
0.0236363472780214
 50
263.302445997318614
 51
321.9319113452103238
  0
ARC
  5
292BD
  8
0
 10
4445.3954528469694196
 20
289.5949719642687228
 30
0.0
 40
0.0244630226949262
 50
239.9636908100561925
 51
263.1638589247805271
  0
ARC
  5
292BE
  8
0
 10
4446.5505668737587257
 20
291.3883669806024841
 30
0.0
 40
2.1576379697314501
 50
235.0660953944023959
 51
237.2458352693157053
  0
ARC
  5
292BF
  8
0
 10
4445.3293685667076716
 20
289.6413880697779746
 30
0.0
 40
0.0261571645090347
 50
208.5501264666010002
 51
236.7749019060620128
  0
ARC
  5
292C0
  8
0
 10
4445.3272929108970857
 20
289.6399445475489074
 30
0.0
 40
0.023645621539364
 50
173.0172051708952949
 51
207.8813927256476859
  0
ARC
  5
292C1
  8
0
 10
4445.3272802147675975
 20
289.6399448112197206
 30
0.0
 40
0.0236329875604824
 50
150.1703386963218918
 51
173.0140976500508998
  0
ARC
  5
292C2
  8
0
 10
4445.7213034467777106
 20
290.2371005474054755
 30
0.0
 40
0.7649537845380517
 50
239.1340883255643064
 51
247.4988719599737124
  0
ARC
  5
292C3
  8
0
 10
4445.3854714935769152
 20
289.6666451045895201
 30
0.0
 40
0.0237941251592296
 50
266.686813907384817
 51
322.669001772549791
  0
ARC
  5
292C4
  8
0
 10
4445.3875323725296766
 20
289.6787823781406246
 30
0.0
 40
0.0360557243896481
 50
234.4459047134544107
 51
264.5315392881399248
  0
ARC
  5
292C5
  8
0
 10
4445.6164626608588151
 20
290.0926937390906915
 30
0.0
 40
0.5088359881667895
 50
231.8943006013898867
 51
240.5862779651866106
  0
ARC
  5
292C6
  8
0
 10
4445.3175778595614247
 20
289.7112520992731106
 30
0.0
 40
0.0242444725964486
 50
151.3543872769222105
 51
231.4016456026108983
  0
ARC
  5
292C7
  8
0
 10
4445.224614578197361
 20
289.4952072389722275
 30
0.0
 40
0.2088186383549738
 50
51.4183455030320502
 51
62.2363149796583386
  0
ARC
  5
292C8
  8
0
 10
4445.4536851213806585
 20
289.8456284232717053
 30
0.0
 40
0.211678993833858
 50
231.4916489984238126
 51
242.1630114842710952
  0
ARC
  5
292C9
  8
0
 10
4445.2998432073709409
 20
289.804449888709712
 30
0.0
 40
0.0253542643624515
 50
242.0298589741938997
 51
321.7611358792013903
  0
ARC
  5
292CA
  8
0
 10
4445.3725796672270008
 20
289.9868206965713853
 30
0.0
 40
0.2215625641948439
 50
228.2139277922408951
 51
247.5448964007624113
  0
ARC
  5
292CB
  8
0
 10
4445.250653328502267
 20
289.8594930230327122
 30
0.0
 40
0.0457803663022851
 50
210.5655607621114029
 51
235.8306112268759875
  0
ARC
  5
292CC
  8
0
 10
4445.2326221442799579
 20
289.8474382054521925
 30
0.0
 40
0.0241548404773001
 50
151.2407603204970883
 51
207.6930606359582043
  0
ARC
  5
292CD
  8
0
 10
4445.1904356640470724
 20
289.7080249999241914
 30
0.0
 40
0.1179494486358894
 50
47.427268701603353
 51
66.6412451475388536
  0
ARC
  5
292CE
  8
0
 10
4445.3179083418226583
 20
289.9045728832400073
 30
0.0
 40
0.1196012699483775
 50
227.5611826689710995
 51
246.5073311517051877
  0
ARC
  5
292CF
  8
0
 10
4444.9865739286087774
 20
289.9403793427326264
 30
0.0
 40
0.0237870180094119
 50
276.0338576907025754
 51
321.7961961688250199
  0
ARC
  5
292D0
  8
0
 10
4444.9867899558512363
 20
289.9445439934647766
 30
0.0
 40
0.0279135182141386
 50
240.385003974351207
 51
274.6941923678917874
  0
ARC
  5
292D1
  8
0
 10
4444.9189198625217614
 20
289.9861336357736832
 30
0.0
 40
0.0238003166939508
 50
150.0851301974551006
 51
194.2188423164720916
  0
ARC
  5
292D2
  8
0
 10
4444.9201056769588831
 20
289.986544518396272
 30
0.0
 40
0.0250509554282286
 50
194.4636342394643123
 51
221.9563542561189138
  0
ARC
  5
292D3
  8
0
 10
4444.9755993643939291
 20
290.0439110243685263
 30
0.0
 40
0.1048198262324729
 50
224.9968081416243137
 51
234.5042344353267083
  0
ARC
  5
292D4
  8
0
 10
4445.1037580980009807
 20
290.1910905757408159
 30
0.0
 40
0.2996572797748073
 50
230.8913729323681991
 51
240.1940575261525908
  0
ARC
  5
292D5
  8
0
 10
4445.0968117556676589
 20
290.1495533872795818
 30
0.0
 40
0.2605725295596732
 50
236.9778374679893034
 51
241.6296911373356124
  0
ARC
  5
292D6
  8
0
 10
4444.8419083968428822
 20
289.7993501938344139
 30
0.0
 40
0.1753613276758583
 50
49.4891606865568718
 51
62.3790230498881115
  0
ARC
  5
292D7
  8
0
 10
4445.0462326200031384
 20
290.1015229461060017
 30
0.0
 40
0.1915305504849743
 50
230.0352696912210888
 51
241.8329140452678132
  0
ARC
  5
292D8
  8
0
 10
4444.8129710079938377
 20
290.1376183727916782
 30
0.0
 40
0.0242676992348699
 50
264.0045602409686012
 51
321.1529048335274865
  0
ARC
  5
292D9
  8
0
 10
4444.8164310656648013
 20
290.1554974267803004
 30
0.0
 40
0.0424395455690777
 50
239.6915319882876076
 51
261.8795202924201249
  0
ARC
  5
292DA
  8
0
 10
4444.8946519960372825
 20
290.3266485907852825
 30
0.0
 40
0.2304441711335313
 50
227.1694620244377063
 51
244.3816299092599991
  0
ARC
  5
292DB
  8
0
 10
4444.7621802309313352
 20
290.1917693216320231
 30
0.0
 40
0.041826772395567
 50
200.9842176350420004
 51
234.6635677599836924
  0
ARC
  5
292DC
  8
0
 10
4444.7462836480999613
 20
290.1834241133439036
 30
0.0
 40
0.0240875849689906
 50
149.6346403776400109
 51
195.9850829161786123
  0
ARC
  5
292DD
  8
0
 10
4444.7030070837472522
 20
290.0489471269510204
 30
0.0
 40
0.1134626405921734
 50
45.4982210317608278
 51
65.4796039784909141
  0
ARC
  5
292DE
  8
0
 10
4444.8299929603135752
 20
290.2336361487109002
 30
0.0
 40
0.114101343474771
 50
225.5547146122152924
 51
245.4231103980125965
  0
ARC
  5
292DF
  8
0
 10
4445.1361851877200024
 20
289.8005293100712265
 30
0.0
 40
0.0449153776474425
 50
243.1058625854734032
 51
254.5399449785707873
  0
ARC
  5
292E0
  8
0
 10
4445.1254965437901774
 20
289.7626419458468945
 30
0.0
 40
0.0055533646029349
 50
256.6285255646055816
 51
291.3758125266829779
  0
ARC
  5
292E1
  8
0
 10
4445.2472661239453373
 20
289.9871165310368042
 30
0.0
 40
0.2619795690930984
 50
231.4275940717081994
 51
239.8968282695279868
  0
ARC
  5
292E2
  8
0
 10
4444.9704394270502235
 20
289.5411673394609124
 30
0.0
 40
0.2673230479187357
 50
53.97772759830994
 51
64.2950806408057076
  0
ARC
  5
292E3
  8
0
 10
4445.0876392561276589
 20
289.805646629920318
 30
0.0
 40
0.0236432817775546
 50
295.051588000874915
 51
321.6510130588793004
  0
ARC
  5
292E4
  8
0
 10
4445.0876336895744316
 20
289.8056710051424716
 30
0.0
 40
0.0236677216039476
 50
273.6648608544848003
 51
295.0388098105133849
  0
ARC
  5
292E5
  8
0
 10
4445.0876325866829575
 20
289.8057286872975169
 30
0.0
 40
0.0237253564375664
 50
260.7900472334139863
 51
273.6586148472987929
  0
ARC
  5
292E6
  8
0
 10
4445.0951560508601688
 20
289.8277588361876838
 30
0.0
 40
0.0468383440486819
 50
229.9886181130775924
 51
256.0131746126497205
  0
LINE
  5
292E7
  8
0
 10
4445.0623387913710758
 20
289.7930764369071994
 30
0.0
 11
4445.0037860824058953
 21
289.834387862512699
 31
0.0
  0
ARC
  5
292E8
  8
0
 10
4445.0199071088281926
 20
289.8517452941105716
 30
0.0
 40
0.0236889831898986
 50
149.9319365478920076
 51
227.1150501444024883
  0
ARC
  5
292E9
  8
0
 10
4444.9608523664546738
 20
289.5592562536480159
 30
0.0
 40
0.2548948264319412
 50
65.8733710372610659
 51
74.1015891233113848
  0
ARC
  5
292EA
  8
0
 10
4445.0148760403253618
 20
289.7526732221534758
 30
0.0
 40
0.0540871578695111
 50
73.014665815431826
 51
89.229021884203803
  0
ARC
  5
292EB
  8
0
 10
4445.0154612018959597
 20
289.8003263583564717
 30
0.0
 40
0.0064307067294051
 50
88.7292005923663254
 51
123.2699940924928939
  0
ARC
  5
292EC
  8
0
 10
4445.0133892475687389
 20
289.8039268355499871
 30
0.0
 40
0.0022965960101004
 50
129.3391878268982964
 51
198.4536950257698891
  0
ARC
  5
292ED
  8
0
 10
4445.0223657620817903
 20
289.8070439616258227
 30
0.0
 40
0.0117987901830099
 50
199.0142576357361861
 51
223.5589987072775955
  0
ARC
  5
292EE
  8
0
 10
4445.1437712358565477
 20
289.9439134606179209
 30
0.0
 40
0.1947138593127396
 50
228.1318596979602944
 51
243.1440461138724061
  0
ARC
  5
292EF
  8
0
 10
4445.2304596482554189
 20
290.090001148758688
 30
0.0
 40
0.3643832886095061
 50
241.360074155414992
 51
250.2137818440083947
  0
ARC
  5
292F0
  8
0
 10
4445.1509261331393645
 20
289.8668199929946923
 30
0.0
 40
0.1274572209002584
 50
249.8939959764194896
 51
259.065132900108722
  0
ARC
  5
292F1
  8
0
 10
4445.133349985757377
 20
289.7749787641421904
 30
0.0
 40
0.033949838598979
 50
258.7873251411029969
 51
272.2777415811191872
  0
ARC
  5
292F2
  8
0
 10
4445.1342292110211929
 20
289.7498931230712742
 30
0.0
 40
0.0088498667492698
 50
273.044721047529606
 51
291.6392666348314719
  0
ARC
  5
292F3
  8
0
 10
4445.1366855181058781
 20
289.744182021471488
 30
0.0
 40
0.0026414167810481
 50
287.7935268779402804
 51
349.1153580609205278
  0
ARC
  5
292F4
  8
0
 10
4445.1351795243454035
 20
289.7440661605835999
 30
0.0
 40
0.0041177332074554
 50
354.664138126349485
 51
28.6855911951515807
  0
ARC
  5
292F5
  8
0
 10
4445.1220894772823158
 20
289.7371398894608205
 30
0.0
 40
0.0189269612346599
 50
28.0587291582154705
 51
45.0158669997859988
  0
ARC
  5
292F6
  8
0
 10
4445.0577619077448617
 20
289.6697103362939174
 30
0.0
 40
0.1121148765296023
 50
46.1236946019989205
 51
51.4366501439778432
  0
ARC
  5
292F7
  8
0
 10
4445.3165153467880373
 20
289.603381744999183
 30
0.0
 40
0.0016503268906398
 50
325.0890314069628175
 51
14.7031000410156896
  0
ARC
  5
292F8
  8
0
 10
4445.3111316594504387
 20
289.6018354771355803
 30
0.0
 40
0.0072513298690382
 50
15.7240062354121601
 51
40.9401099526962469
  0
ARC
  5
292F9
  8
0
 10
4445.2770257872689399
 20
289.5728638806533013
 30
0.0
 40
0.0520010109342701
 50
40.4293537383967987
 51
52.2023202209883692
  0
ARC
  5
292FA
  8
0
 10
4445.1211403060588054
 20
289.3726500980787932
 30
0.0
 40
0.30574459049611
 50
52.1139565910205178
 51
58.8333219359707016
  0
ARC
  5
292FB
  8
0
 10
4444.7056697608240938
 20
288.6923872278745193
 30
0.0
 40
1.102845619969641
 50
58.6542049929622067
 51
65.7965724802236025
  0
ARC
  5
292FC
  8
0
 10
4445.0282071178853585
 20
289.4336366001242027
 30
0.0
 40
0.2946822875053639
 50
63.9081492360568078
 51
76.0706812294669703
  0
ARC
  5
292FD
  8
0
 10
4445.0964829112263033
 20
289.7038435905886899
 30
0.0
 40
0.0160321660351597
 50
80.4440061097012205
 51
95.6199137991308419
  0
ARC
  5
292FE
  8
0
 10
4445.095292175301438
 20
289.7160548829917275
 30
0.0
 40
0.0037629763720178
 50
95.7847314954286162
 51
121.0588309287608979
  0
ARC
  5
292FF
  8
0
 10
4445.0942944855078167
 20
289.7178768131764741
 30
0.0
 40
0.001689670522863
 50
123.9527894827870966
 51
146.134019979132205
  0
ARC
  5
29300
  8
0
 10
4445.09593225926983
 20
289.6000817253577111
 30
0.0
 40
0.0061326096607039
 50
63.5850800481631424
 51
139.8550565613701906
  0
ARC
  5
29301
  8
0
 10
4445.0953667233834494
 20
289.6025416950355975
 30
0.0
 40
0.0044770521934903
 50
42.6341138502970196
 51
58.4409363163132625
  0
ARC
  5
29302
  8
0
 10
4443.579624110642726
 20
287.0398162503619801
 30
0.0
 40
2.9820338127356449
 50
59.4678760443230914
 51
61.3365538292023729
  0
ARC
  5
29303
  8
0
 10
4445.0137951672331837
 20
289.6526144030112846
 30
0.0
 40
0.0053682557124055
 50
89.498573155967577
 51
142.0922525951332887
  0
ARC
  5
29304
  8
0
 10
4445.0177260518003095
 20
289.6668662540380978
 30
0.0
 40
0.0096957017926052
 50
246.3855554291351098
 51
262.7711071868105819
  0
ARC
  5
29305
  8
0
 10
4445.0166210971228793
 20
289.6582533642819044
 30
0.0
 40
0.0010123080774288
 50
263.4719128706037736
 51
287.209820067142573
  0
ARC
  5
29306
  8
0
 10
4445.0168572724560363
 20
289.6575241860322194
 30
0.0
 40
0.0002460967459222
 50
284.9140963764376124
 51
356.3942601420503138
  0
ARC
  5
29307
  8
0
 10
4445.0148010333177808
 20
289.6568298231520089
 30
0.0
 40
0.0023998736145851
 50
16.4324036566032596
 51
46.8221052023153277
  0
ARC
  5
29308
  8
0
 10
4444.5032174627513086
 20
288.9226256421857784
 30
0.0
 40
0.8976551815587994
 50
55.3496850628162989
 51
65.4184441528494744
  0
ARC
  5
29309
  8
0
 10
4444.8832169585357406
 20
289.7422388935859203
 30
0.0
 40
0.007371793191938
 50
206.7018420224933095
 51
217.8515621044903128
  0
ARC
  5
2930A
  8
0
 10
4444.8732331517339844
 20
289.7336937459685942
 30
0.0
 40
0.0061879160938245
 50
333.0899518231270804
 51
29.5330924211867085
  0
ARC
  5
2930B
  8
0
 10
4444.9057727560548301
 20
289.7454091872265849
 30
0.0
 40
0.0057739304524039
 50
263.5079615308927146
 51
331.0887923206935852
  0
ARC
  5
2930C
  8
0
 10
4444.8425948507046996
 20
289.4971243484052934
 30
0.0
 40
0.250477314212826
 50
75.5447539270254254
 51
83.1689716333586659
  0
ARC
  5
2930D
  8
0
 10
4444.8695627690485708
 20
289.7260851105197048
 30
0.0
 40
0.019939505883915
 50
81.8571130152191131
 51
105.5555747367717032
  0
ARC
  5
2930E
  8
0
 10
4444.8648906934686238
 20
289.7432308229962246
 30
0.0
 40
0.0021710744419999
 50
108.118286058144605
 51
156.9499159991900115
  0
ARC
  5
2930F
  8
0
 10
4444.8646629216891597
 20
289.7435007776670091
 30
0.0
 40
0.0018626082711264
 50
161.8537218369500863
 51
193.1650658322560048
  0
ARC
  5
29310
  8
0
 10
4444.86847843729538
 20
289.7447684377456767
 30
0.0
 40
0.0058779273174766
 50
196.7284801318971006
 51
221.3631201046833894
  0
ARC
  5
29311
  8
0
 10
4444.8837095505550678
 20
289.7575381659282243
 30
0.0
 40
0.0257525330857801
 50
220.2928743167755101
 51
232.9310972694131863
  0
ARC
  5
29312
  8
0
 10
4444.8845695429490661
 20
289.7044278586491259
 30
0.0
 40
0.0531176208699065
 50
55.6328463337384491
 51
64.3032483463846205
  0
ARC
  5
29313
  8
0
 10
4444.9045530988696555
 20
289.7458698305443932
 30
0.0
 40
0.0071092634334531
 50
64.6066334786206653
 51
80.4534673153562778
  0
ARC
  5
29314
  8
0
 10
4444.8427138330571324
 20
289.5063848802003008
 30
0.0
 40
0.2544237977372435
 50
75.6591172941257781
 51
82.716022588981744
  0
ARC
  5
29315
  8
0
 10
4444.8707351338171065
 20
289.7241227834804818
 30
0.0
 40
0.0348908208528286
 50
83.0260329776574508
 51
94.9637380098351969
  0
ARC
  5
29316
  8
0
 10
4444.8685332828381434
 20
289.7500631792913168
 30
0.0
 40
0.0088573409768353
 50
95.2930355847955184
 51
109.1724342924592008
  0
ARC
  5
29317
  8
0
 10
4444.866406388076939
 20
289.7558223159579143
 30
0.0
 40
0.0027216793728658
 50
106.696953998002499
 51
143.2195935023810875
  0
ARC
  5
29318
  8
0
 10
4444.8675931692660015
 20
289.7485226411513963
 30
0.0
 40
0.0076518887251418
 50
148.1028669625879957
 51
192.6405992747041864
  0
ARC
  5
29319
  8
0
 10
4444.8709441504979623
 20
289.7495307350366147
 30
0.0
 40
0.0111450667293925
 50
193.9277272014749087
 51
220.4448777299309086
  0
ARC
  5
2931A
  8
0
 10
4444.9013263027663925
 20
289.7776825412112771
 30
0.0
 40
0.0525573295020056
 50
222.31481604214801
 51
238.0789088644966967
  0
ARC
  5
2931B
  8
0
 10
4445.2085269605940994
 20
290.748662006165091
 30
0.0
 40
1.0096963495075859
 50
235.3131474909575047
 51
240.781080589358595
  0
ARC
  5
2931C
  8
0
 10
4445.4611949035352154
 20
291.1699998653385819
 30
0.0
 40
1.5008362978035841
 50
240.2144062440378036
 51
242.6464441860456986
  0
ARC
  5
2931D
  8
0
 10
4444.7656794175600226
 20
289.8254218563446898
 30
0.0
 40
0.0129774973720422
 50
48.0410356430361674
 51
62.9027716528863365
  0
ARC
  5
2931E
  8
0
 10
4444.8275922642169462
 20
289.8557375415626893
 30
0.0
 40
0.0571063827835826
 50
201.2153221737571869
 51
229.6271866080901987
  0
ARC
  5
2931F
  8
0
 10
4444.9436130504036555
 20
289.9686008766728946
 30
0.0
 40
0.2187786540500985
 50
225.6217960588635094
 51
229.3210601441275003
  0
ARC
  5
29320
  8
0
 10
4444.9196162298230774
 20
289.9666646949635265
 30
0.0
 40
0.2023786351858217
 50
234.1216042514323874
 51
242.0485350078573958
  0
ARC
  5
29321
  8
0
 10
4444.8310872539377669
 20
289.80041387456248
 30
0.0
 40
0.0140289175963263
 50
243.1756871339464112
 51
249.4540474954638967
  0
ARC
  5
29322
  8
0
 10
4444.8265155669660089
 20
289.7880709628925047
 30
0.0
 40
0.0008681507596937
 50
246.0886704665996945
 51
279.9121827322184117
  0
ARC
  5
29323
  8
0
 10
4444.8255161368961126
 20
289.7868101468453119
 30
0.0
 40
0.0012183754318012
 50
19.4462456522127205
 51
53.4203101749530589
  0
ARC
  5
29324
  8
0
 10
4444.9585937544316039
 20
289.9398660304138957
 30
0.0
 40
0.20160479570528
 50
222.2474987356592067
 51
228.9672712158310901
  0
ARC
  5
29325
  8
0
 10
4444.8362417933203687
 20
289.8299961056633265
 30
0.0
 40
0.0371763717850833
 50
199.988081073240096
 51
223.6817375960580137
  0
ARC
  5
29326
  8
0
 10
4444.8079018325734069
 20
289.8199674902406855
 30
0.0
 40
0.0071203262424781
 50
132.2462065220169904
 51
202.10300162521159
  0
ARC
  5
29327
  8
0
 10
4417.3380131552094099
 20
249.9388668591402904
 30
0.0
 40
48.4278271067300707
 50
55.2891046792731373
 51
55.6396347968731391
  0
ARC
  5
29328
  8
0
 10
4444.6718449512836742
 20
289.9121158281166117
 30
0.0
 40
0.0027928910392651
 50
11.5401216893163507
 51
36.4290594262202418
  0
ARC
  5
29329
  8
0
 10
4444.8414133140222475
 20
289.864890950904794
 30
0.0
 40
0.0615649996223635
 50
207.4983028007052894
 51
228.8891430784406111
  0
ARC
  5
2932A
  8
0
 10
4444.7241045337432297
 20
289.7088416639114143
 30
0.0
 40
0.1405050249983825
 50
62.8384399437173116
 51
66.2857031786833204
  0
LINE
  5
2932B
  8
0
 10
4444.7796966627911388
 20
289.836152251121689
 30
0.0
 11
4444.7806123172867956
 21
289.8374827632882784
 31
0.0
  0
ARC
  5
2932C
  8
0
 10
4444.7764571550396795
 20
289.8384270950306245
 30
0.0
 40
0.0039584498586098
 50
237.9428495987843064
 51
324.9227401337935817
  0
ARC
  5
2932D
  8
0
 10
4444.5979619986337639
 20
289.624008362905613
 30
0.0
 40
0.3951015678656363
 50
38.549698503219112
 51
75.6517611116393169
  0
ARC
  5
2932E
  8
0
 10
4444.6255399527180998
 20
289.9364686296643185
 30
0.0
 40
0.202401512848927
 50
36.0288675465160182
 51
74.8991978646456289
  0
ARC
  5
2932F
  8
0
 10
4444.7465266428216637
 20
290.040203085932319
 30
0.0
 40
0.0237796286003554
 50
238.7060066799525941
 51
321.221751170498294
  0
ARC
  5
29330
  8
0
 10
4445.061834652115067
 20
290.5670615369534175
 30
0.0
 40
0.6377815021261981
 50
231.1772951580769018
 51
239.0861016834863051
  0
ARC
  5
29331
  8
0
 10
4444.6791092733046753
 20
290.0865442028098755
 30
0.0
 40
0.0236792886854684
 50
149.6144516562970921
 51
223.7401592782156001
  0
ARC
  5
29332
  8
0
 10
4444.5671337529702214
 20
290.2282287239149809
 30
0.0
 40
0.0237974875249726
 50
273.3167013893623789
 51
320.8491117409744788
  0
ARC
  5
29333
  8
0
 10
4444.5672084276629903
 20
290.2308573140056751
 30
0.0
 40
0.026418326470513
 50
241.4788002244989116
 51
272.8251896519581123
  0
ARC
  5
29334
  8
0
 10
4444.6819962863082765
 20
290.4395346273755081
 30
0.0
 40
0.2645828193562647
 50
235.3975820535212051
 51
241.2152118026907885
  0
ARC
  5
29335
  8
0
 10
4444.57187600587622
 20
290.3461413350692055
 30
0.0
 40
0.1247850833943372
 50
224.3067842405100123
 51
235.8574296570554054
  0
ARC
  5
29336
  8
0
 10
4444.5005064602419225
 20
290.2750177932881002
 30
0.0
 40
0.0240552379288766
 50
149.3438621646430988
 51
221.8167595939439138
  0
ARC
  5
29337
  8
0
 10
4444.4205138408424318
 20
290.6515638654437907
 30
0.0
 40
0.2281481515366965
 50
236.0766495583391986
 51
240.481019375876798
  0
ARC
  5
29338
  8
0
 10
4444.3286625022801672
 20
290.4865545534905777
 30
0.0
 40
0.039326038185623
 50
238.479214348888604
 51
260.3599609944155873
  0
ARC
  5
29339
  8
0
 10
4444.3255020820133723
 20
290.4717586764519979
 30
0.0
 40
0.0242182611082152
 50
261.8697791676336237
 51
319.6185223591090789
  0
ARC
  5
2933A
  8
0
 10
4444.3422920026623615
 20
290.5923448254121126
 30
0.0
 40
0.1342150640104557
 50
221.3969740417992114
 51
234.4186123367107086
  0
ARC
  5
2933B
  8
0
 10
4444.2605057576611216
 20
290.5192617587284758
 30
0.0
 40
0.0245467926759133
 50
148.409332706779594
 51
219.6694551554089117
  0
ARC
  5
2933C
  8
0
 10
4444.2096023471985973
 20
290.3812022975035916
 30
0.0
 40
0.1194379359490006
 50
44.4707017936883489
 51
63.4425008929344969
  0
ARC
  5
2933D
  8
0
 10
4444.3482262237866962
 20
290.5716980949122217
 30
0.0
 40
0.1194240748955582
 50
224.4695906321792904
 51
243.4436120544399955
  0
ARC
  5
2933E
  8
0
 10
4444.2691717697098284
 20
290.1672470564869855
 30
0.0
 40
0.2139775270589979
 50
34.1257816957310922
 51
70.8575222343547182
  0
ARC
  5
2933F
  8
0
 10
4444.4054451740348668
 20
290.2747249174526019
 30
0.0
 40
0.0238693920744958
 50
235.660991995760611
 51
320.814841733120204
  0
ARC
  5
29340
  8
0
 10
4445.3032159655986106
 20
291.6344186960413936
 30
0.0
 40
1.653209761645452
 50
233.6812594131826017
 51
236.5512038278563125
  0
ARC
  5
29341
  8
0
 10
4444.3384303460752562
 20
290.321319407858482
 30
0.0
 40
0.0237828160551044
 50
149.3935340771454889
 51
232.8211007715331107
  0
ARC
  5
29342
  8
0
 10
4444.5687207923601818
 20
289.9490472849328739
 30
0.0
 40
0.004014734342747
 50
80.6254950508882331
 51
143.2497820646728997
  0
ARC
  5
29343
  8
0
 10
4444.572348996151959
 20
289.9555752088560894
 30
0.0
 40
0.0033125900244474
 50
254.8812705327225956
 51
286.1247648287989023
  0
ARC
  5
29344
  8
0
 10
4444.2490402936618921
 20
289.6450491278121717
 30
0.0
 40
0.4467487807400664
 50
43.4685797632458133
 51
64.3385675554372369
  0
ARC
  5
29345
  8
0
 10
4444.4379320615917095
 20
290.0428022932562158
 30
0.0
 40
0.0067265997439263
 50
335.6400035032792175
 51
47.1587332042388709
  0
ARC
  5
29346
  8
0
 10
4446.4930627387420827
 20
292.9406801231170903
 30
0.0
 40
3.5607162465604301
 50
234.1041509843614961
 51
234.7752262109760863
  0
ARC
  5
29347
  8
0
 10
4444.4113043726101751
 20
290.055977923085095
 30
0.0
 40
0.0047841473430985
 50
77.0555779808889127
 51
140.6313030184464026
  0
ARC
  5
29348
  8
0
 10
4444.1430095968908063
 20
290.2713548131134758
 30
0.0
 40
0.0059762696601395
 50
148.2998098039552985
 51
228.4547890303437043
  0
ARC
  5
29349
  8
0
 10
4443.6719791214563884
 20
289.4510885212359881
 30
0.0
 40
0.9330391245315411
 50
48.6380710566452166
 51
55.712319202185931
  0
ARC
  5
2934A
  8
0
 10
4444.1933043709341291
 20
290.2173891712208729
 30
0.0
 40
0.0062933339492364
 50
332.293869789119924
 51
46.8901071498884718
  0
ARC
  5
2934B
  8
0
 10
4444.2819474260813877
 20
290.1552677792548138
 30
0.0
 40
0.0077969190513327
 50
340.3691602915084786
 51
39.8426462894599069
  0
ARC
  5
2934C
  8
0
 10
4444.0175253776269528
 20
289.6836524008880929
 30
0.0
 40
0.5479768022539327
 50
43.3809590857689287
 51
60.4312737534806104
  0
ARC
  5
2934D
  8
0
 10
4444.0705768020616233
 20
289.9219093174119166
 30
0.0
 40
0.4476374564409277
 50
34.4219534488556178
 51
67.1385362363908627
  0
ARC
  5
2934E
  8
0
 10
4444.536794945195652
 20
290.0578866375583971
 30
0.0
 40
0.0837056921666923
 50
28.362601228906211
 51
43.5250690656386823
  0
ARC
  5
2934F
  8
0
 10
4444.5987102343578954
 20
290.0908042625034113
 30
0.0
 40
0.0135926125716185
 50
353.2056156626292136
 51
30.2458721022846611
  0
ARC
  5
29350
  8
0
 10
4444.607703531610241
 20
290.0899421622228829
 30
0.0
 40
0.0045652193737932
 50
266.4816007091948791
 51
350.5952006194783053
  0
ARC
  5
29351
  8
0
 10
4444.6130682655839337
 20
290.1377676956872733
 30
0.0
 40
0.0526854277670164
 50
238.9745064300105071
 51
263.8493274011295853
  0
ARC
  5
29352
  8
0
 10
4444.7004765314532051
 20
290.3036540895420217
 30
0.0
 40
0.240125677205614
 50
228.7054540661737008
 51
241.5039944349931034
  0
ARC
  5
29353
  8
0
 10
4444.6345373839858439
 20
290.2361702658802756
 30
0.0
 40
0.1459939235193724
 50
215.2350792966740869
 51
230.6709503482807975
  0
ARC
  5
29354
  8
0
 10
4444.5380482827558808
 20
290.166923378772708
 30
0.0
 40
0.0272462591051899
 50
190.325796053535214
 51
213.3577230906624891
  0
ARC
  5
29355
  8
0
 10
4444.5176337605107619
 20
290.1633062315605116
 30
0.0
 40
0.0065147827587975
 50
160.3808478967920905
 51
191.2109243492282928
  0
ARC
  5
29356
  8
0
 10
4444.5153790344756999
 20
290.1639266252967104
 30
0.0
 40
0.0041862100322837
 50
105.9853816147540044
 51
158.0166817302080915
  0
ARC
  5
29357
  8
0
 10
4444.5181441898530466
 20
290.1521497952884943
 30
0.0
 40
0.0162796700786471
 50
70.0459109243125511
 51
103.9260017867415939
  0
ARC
  5
29358
  8
0
 10
4444.4950077482817505
 20
290.075561152538512
 30
0.0
 40
0.0962662611394144
 50
64.8037561509016342
 51
72.659482311659076
  0
ARC
  5
29359
  8
0
 10
4444.4246006483372184
 20
289.9554906055532228
 30
0.0
 40
0.2355480245747016
 50
51.6717169143571624
 51
56.8879636365059369
  0
ARC
  5
2935A
  8
0
 10
4443.87344362917338
 20
289.1230595032018869
 30
0.0
 40
1.2293812198959611
 50
54.1192945541822112
 51
57.2825418093245275
  0
ARC
  5
2935B
  8
0
 10
4444.5458497708641517
 20
290.1707593247497243
 30
0.0
 40
0.0155400820655413
 50
203.3072611915519019
 51
239.3181667659098082
  0
ARC
  5
2935C
  8
0
 10
4444.1682421788100328
 20
290.5019682854672283
 30
0.0
 40
0.023768403569366
 50
269.8261291418555743
 51
319.9611604379123833
  0
ARC
  5
2935D
  8
0
 10
4444.1686171085229944
 20
290.5051111579413146
 30
0.0
 40
0.026914879685457
 50
241.3386354409009016
 51
269.0482701460509247
  0
ARC
  5
2935E
  8
0
 10
4444.2868148420184298
 20
290.7092429977873849
 30
0.0
 40
0.2627899702379117
 50
234.934917940681089
 51
240.0724839555620065
  0
ARC
  5
2935F
  8
0
 10
4444.3471550424383167
 20
290.8343472232950262
 30
0.0
 40
0.3996544817345114
 50
229.8563457972011861
 51
234.1159948639989921
  0
ARC
  5
29360
  8
0
 10
4444.1067126682710295
 20
290.5520027117137261
 30
0.0
 40
0.0288615104545563
 50
198.3679196764283006
 51
233.3767150399073103
  0
ARC
  5
29361
  8
0
 10
4444.1020449789320992
 20
290.5498875506502827
 30
0.0
 40
0.0237711586920192
 50
148.2469828400311087
 51
197.0746138240729977
  0
ARC
  5
29362
  8
0
 10
4444.097911114073213
 20
290.4859961436313256
 30
0.0
 40
0.0236395665247084
 50
265.4332588426610187
 51
320.7531858107997778
  0
ARC
  5
29363
  8
0
 10
4444.0987989506111262
 20
290.4898921368073275
 30
0.0
 40
0.0275998672312646
 50
231.6362773787323022
 51
264.2398831252542095
  0
ARC
  5
29364
  8
0
 10
4443.4869515415102796
 20
289.6168107205485853
 30
0.0
 40
1.0385760617716651
 50
55.0663266639000284
 51
56.2660730863956289
  0
ARC
  5
29365
  8
0
 10
4444.4288853652542457
 20
290.7766274725790936
 30
0.0
 40
0.472790715325365
 50
219.3486044665743862
 51
225.2034381736899036
  0
ARC
  5
29366
  8
0
 10
4444.6110186708283436
 20
290.9490371021436204
 30
0.0
 40
0.723506113868038
 50
224.5884397314717944
 51
229.0471210846403949
  0
ARC
  5
29367
  8
0
 10
4444.3012156699451225
 20
290.5889187520754717
 30
0.0
 40
0.2484789506443191
 50
228.5728174280669975
 51
235.1353296753443942
  0
ARC
  5
29368
  8
0
 10
4444.1857768826503161
 20
290.4236162402401078
 30
0.0
 40
0.0468585976448204
 50
235.4098491517191007
 51
242.7857277434239052
  0
ARC
  5
29369
  8
0
 10
4444.1686910558437376
 20
290.390081766315177
 30
0.0
 40
0.0092237109550745
 50
241.9067280347479993
 51
258.6002764904778815
  0
ARC
  5
2936A
  8
0
 10
4444.1672241264432159
 20
290.3829705531712193
 30
0.0
 40
0.0019631125388836
 50
259.5471246100279927
 51
285.1026180873020053
  0
ARC
  5
2936B
  8
0
 10
4444.167501170972173
 20
290.3818404962735826
 30
0.0
 40
0.0008003575871415
 50
287.0329315896133835
 51
350.4119508270180177
  0
ARC
  5
2936C
  8
0
 10
4444.1654851251669243
 20
290.3820899196459209
 30
0.0
 40
0.0028312119566853
 50
352.2307637973252099
 51
21.9263341164176992
  0
ARC
  5
2936D
  8
0
 10
4444.1448363388562939
 20
290.3738596094689228
 30
0.0
 40
0.0250597912259229
 50
21.7535272353480202
 51
34.3823224817772086
  0
ARC
  5
2936E
  8
0
 10
4444.000719544005733
 20
290.2718300340841893
 30
0.0
 40
0.2016346959013546
 50
35.1834475730692233
 51
41.9184119473117676
  0
ARC
  5
2936F
  8
0
 10
4443.5381761666340026
 20
289.8614048570710224
 30
0.0
 40
0.8200132099515194
 50
41.665751947882022
 51
47.1341970718591412
  0
LINE
  5
29370
  8
0
 10
4444.0328548943689384
 20
290.5022700824666231
 30
0.0
 11
4444.0154576347385955
 21
290.5151920371667984
 31
0.0
  0
ARC
  5
29371
  8
0
 10
4444.0309148277592612
 20
290.5331526630582744
 30
0.0
 40
0.0236961789849553
 50
149.0490397452284128
 51
229.284202931332203
  0
ARC
  5
29372
  8
0
 10
4443.2675668862739258
 20
289.6394826669279041
 30
0.0
 40
1.136449239388708
 50
40.2523687337105116
 51
53.1001402008872603
  0
ARC
  5
29373
  8
0
 10
4443.8537423320276503
 20
290.653854192674828
 30
0.0
 40
0.0236618687791318
 50
240.3780250088134096
 51
320.509563439398903
  0
ARC
  5
29374
  8
0
 10
4444.1346330554697488
 20
291.1569117725799174
 30
0.0
 40
0.5968402824492385
 50
232.5825953519762948
 51
234.7979137621042867
  0
ARC
  5
29375
  8
0
 10
4443.7869165427300686
 20
290.7012524225939956
 30
0.0
 40
0.0236737468163642
 50
148.8082290094010887
 51
230.8893732300103068
  0
ARC
  5
29376
  8
0
 10
4443.8858311958401828
 20
290.7730678703155718
 30
0.0
 40
0.024005590590544
 50
261.5653117377008243
 51
318.3292130645593261
  0
ARC
  5
29377
  8
0
 10
4443.8979632109058002
 20
290.8102283195814266
 30
0.0
 40
0.0628856968261853
 50
230.4569903783406062
 51
255.5866754862836103
  0
ARC
  5
29378
  8
0
 10
4443.9161916205903253
 20
290.9095846023407148
 30
0.0
 40
0.1530338519066319
 50
223.1960250672094901
 51
231.9833314673001041
  0
ARC
  5
29379
  8
0
 10
4443.8257090014785717
 20
290.8242642967700249
 30
0.0
 40
0.0286703343017791
 50
197.1965698613578013
 51
222.6667544359252133
  0
ARC
  5
2937A
  8
0
 10
4443.8214326838342458
 20
290.8225247860837044
 30
0.0
 40
0.0240741781232327
 50
165.7888178327611968
 51
196.2506067829891094
  0
ARC
  5
2937B
  8
0
 10
4443.8211914934627202
 20
290.8225716758934141
 30
0.0
 40
0.0238288614743333
 50
146.629867172045607
 51
165.7557406211824116
  0
ARC
  5
2937C
  8
0
 10
4443.75538946868528
 20
290.6697070392945079
 30
0.0
 40
0.1391738783614088
 50
44.3895487164560834
 51
60.6515583473600017
  0
ARC
  5
2937D
  8
0
 10
4443.924368775406947
 20
290.8900888056014082
 30
0.0
 40
0.1413116151196336
 50
224.5133665252037076
 51
240.5277405386212024
  0
ARC
  5
2937E
  8
0
 10
4443.8650175253551424
 20
290.7444823696457092
 30
0.0
 40
0.0027407050712763
 50
327.9109070572761198
 51
19.4041644939264195
  0
ARC
  5
2937F
  8
0
 10
4443.8390214451183056
 20
290.7357300925827985
 30
0.0
 40
0.0301703481115521
 50
18.6795814136672398
 51
35.9019559077302901
  0
ARC
  5
29380
  8
0
 10
4443.8289516515005744
 20
290.7347938847453861
 30
0.0
 40
0.0236950665204421
 50
284.9655228245314902
 51
319.2219212663720214
  0
ARC
  5
29381
  8
0
 10
4443.8289001573975838
 20
290.7352144822286846
 30
0.0
 40
0.0241147674950821
 50
249.1084801515413005
 51
284.8256577241197078
  0
ARC
  5
29382
  8
0
 10
4443.8863289085802535
 20
290.8454609615106961
 30
0.0
 40
0.1482873540114671
 50
230.4379368248619073
 51
243.5593161318317925
  0
ARC
  5
29383
  8
0
 10
4443.8575965215113683
 20
290.8810722010481982
 30
0.0
 40
0.1593490496096449
 50
225.5486331265620947
 51
233.63393733013109
  0
ARC
  5
29384
  8
0
 10
4443.7639560172492565
 20
290.7838340426927175
 30
0.0
 40
0.0243914051008509
 50
188.090328518781007
 51
222.6077507162945039
  0
ARC
  5
29385
  8
0
 10
4443.7632707103803114
 20
290.7836741094272952
 30
0.0
 40
0.0236904915851385
 50
147.4594517623802119
 51
187.9406333221496084
  0
ARC
  5
29386
  8
0
 10
4443.7650884772619975
 20
290.8110011247892999
 30
0.0
 40
0.0251840290488218
 50
57.3051898732142106
 51
79.4008187937532028
  0
ARC
  5
29387
  8
0
 10
4443.7694611603992598
 20
290.8338468616028081
 30
0.0
 40
0.0019261756170465
 50
82.2544221863524854
 51
142.603482695371298
  0
ARC
  5
29388
  8
0
 10
4443.6969014553806119
 20
290.7617743009316769
 30
0.0
 40
0.0238284650675416
 50
231.1093749786597868
 51
320.1932324461026269
  0
ARC
  5
29389
  8
0
 10
4443.5824320243309558
 20
290.9039670215711908
 30
0.0
 40
0.0236553463785702
 50
277.5728678752166161
 51
318.6731964943850812
  0
ARC
  5
2938A
  8
0
 10
4443.5824377621738677
 20
290.9044108339293189
 30
0.0
 40
0.0240946171263287
 50
241.7893937126900994
 51
277.4202592438218744
  0
ARC
  5
2938B
  8
0
 10
4443.6000963792102993
 20
290.9357567378406202
 30
0.0
 40
0.0600692020372883
 50
234.5379369941875041
 51
241.0802884975639984
  0
ARC
  5
2938C
  8
0
 10
4443.8989509125603945
 20
291.4101169995925034
 30
0.0
 40
0.6190450069578214
 50
230.4268110230474065
 51
232.3648052844125971
  0
ARC
  5
2938D
  8
0
 10
4443.5236173788944143
 20
290.9580008566524043
 30
0.0
 40
0.0314637106906656
 50
209.1072210756246932
 51
232.7670026385546009
  0
ARC
  5
2938E
  8
0
 10
4443.5172325338407973
 20
290.9535250345451232
 30
0.0
 40
0.0237216108660753
 50
173.8812206340915054
 51
207.1632340255343934
  0
ARC
  5
2938F
  8
0
 10
4443.517164162143672
 20
290.9535239951405856
 30
0.0
 40
0.0236537409311725
 50
146.9078447849036877
 51
173.8610643786765024
  0
ARC
  5
29390
  8
0
 10
4443.5369305453041306
 20
291.0121782192804858
 30
0.0
 40
0.023793937836287
 50
272.5760655208705998
 51
317.2781194403003155
  0
ARC
  5
29391
  8
0
 10
4443.5382998727318409
 20
291.020956893404616
 30
0.0
 40
0.032549948108227
 50
228.8881676750594067
 51
269.4721087908714026
  0
ARC
  5
29392
  8
0
 10
4443.4730683157740714
 20
291.0631182006295035
 30
0.0
 40
0.0237673613054281
 50
145.53559201455829
 51
180.0876315854386007
  0
ARC
  5
29393
  8
0
 10
4443.4737641103602073
 20
291.0632012009485834
 30
0.0
 40
0.0244634192400442
 50
180.2795343452241923
 51
215.4583017007641956
  0
ARC
  5
29394
  8
0
 10
4443.4998488361643467
 20
291.083511358998976
 30
0.0
 40
0.0575098709144927
 50
216.8645643175524071
 51
229.7414275806023056
  0
ARC
  5
29395
  8
0
 10
4443.9283717313683155
 20
291.5666593253382075
 30
0.0
 40
0.7033008077146055
 50
228.5362384377237106
 51
232.9065564803603081
  0
ARC
  5
29396
  8
0
 10
4443.3712710267436705
 20
290.8700361405238937
 30
0.0
 40
0.1918271023583334
 50
45.521774269038481
 51
57.3015798256865097
  0
ARC
  5
29397
  8
0
 10
4443.6091718455572845
 20
291.1681739483047977
 30
0.0
 40
0.1916216070828038
 50
225.5154355493052947
 51
237.3079185453748039
  0
LINE
  5
29398
  8
0
 10
4443.3746412666969263
 20
291.0229931818789737
 30
0.0
 11
4443.4390129251851249
 21
290.9737038783575258
 31
0.0
  0
ARC
  5
29399
  8
0
 10
4443.3883319034812303
 20
291.0428217751220927
 30
0.0
 40
0.0240957806584359
 50
147.3463698482291875
 51
235.3768912541341081
  0
ARC
  5
2939A
  8
0
 10
4443.45280666389408
 20
290.992948482120994
 30
0.0
 40
0.0236774576664921
 50
234.3686060428443909
 51
318.3450493531046277
  0
ARC
  5
2939B
  8
0
 10
4442.6024147611806256
 20
290.2406624153729808
 30
0.0
 40
1.1667071713485611
 50
40.5106944157602413
 51
47.1636966596758569
  0
ARC
  5
2939C
  8
0
 10
4443.312907056792028
 20
291.1657133836434923
 30
0.0
 40
0.023672596244803
 50
267.7234294910907124
 51
316.5955182222969029
  0
ARC
  5
2939D
  8
0
 10
4443.3131322790713966
 20
291.1670251991693021
 30
0.0
 40
0.0249929212394183
 50
235.8859009115259084
 51
267.3269762213560057
  0
ARC
  5
2939E
  8
0
 10
4443.2511962762491748
 20
291.2182418170658025
 30
0.0
 40
0.0254605971901982
 50
194.2929183582456005
 51
227.8998127513848999
  0
ARC
  5
2939F
  8
0
 10
4443.2495150124868815
 20
291.2175823515917727
 30
0.0
 40
0.02366962629574
 50
144.8168153657684059
 51
193.7507257545551909
  0
ARC
  5
293A0
  8
0
 10
4451.1663030501576941
 20
282.4117255890745923
 30
0.0
 40
3.7906650316838189
 50
91.1454883229542361
 51
94.469128623804437
  0
ARC
  5
293A1
  8
0
 10
4443.6896808790743307
 20
290.6289552080659178
 30
0.0
 40
0.2137549743664605
 50
35.6115706050268983
 51
38.7988728395859326
  0
ARC
  5
293A2
  8
0
 10
4450.2269137246030368
 20
251.5822011452312097
 30
0.0
 40
1.3435455715977609
 50
192.5287953757296862
 51
207.139125670174792
  0
ARC
  5
293A3
  8
0
 10
4452.6854665516711975
 20
252.1709007968538003
 30
0.0
 40
3.8714806963153099
 50
186.7555693119417128
 51
193.140712942326104
  0
ARC
  5
293A4
  8
0
 10
4463.16726967345312
 20
253.2682476932232021
 30
0.0
 40
14.4103065701102402
 50
180.0553223221459973
 51
186.1858444202829901
  0
ARC
  5
293A5
  8
0
 10
5018.3600774884771454
 20
254.9015371793688018
 30
0.0
 40
569.6054893906781444
 50
179.9342186561611072
 51
180.1656900066411993
  0
ARC
  5
293A6
  8
0
 10
5693.4343956281409191
 20
258.4162642444126163
 30
0.0
 40
1244.6827196956819535
 50
179.8683120105191904
 51
180.1316879895327929
  0
ARC
  5
293A7
  8
0
 10
4750.790461843619596
 20
263.4641255683470717
 30
0.0
 40
302.0434168406504227
 50
179.5851171820305012
 51
180.4148828179694135
  0
ARC
  5
293A8
  8
0
 10
7038.9332597401207749
 20
261.4616234488632927
 30
0.0
 40
2589.6305041797818376
 50
179.9073047088809005
 51
180.0926952911208048
  0
LINE
  5
293A9
  8
0
 10
4449.8702764327781551
 20
285.6353314871366251
 30
0.0
 11
4450.6389048503051526
 21
286.2731948261384218
 31
0.0
  0
ARC
  5
293AA
  8
0
 10
4450.5760725730560807
 20
286.2466449755036138
 30
0.0
 40
0.0196948496558763
 50
310.0299429010901235
 51
41.6052929878340123
  0
ARC
  5
293AB
  8
0
 10
4450.2427727417916685
 20
285.9708983152111728
 30
0.0
 40
0.0547035969484744
 50
17.8509557606357809
 51
39.1895530591627477
  0
ARC
  5
293AC
  8
0
 10
4449.4673713119909735
 20
251.1878348166167996
 30
0.0
 40
0.4877569323740662
 50
206.6128772971460137
 51
244.2796585519733128
  0
ARC
  5
293AD
  8
0
 10
4449.408094760545282
 20
251.0929542728378863
 30
0.0
 40
0.3767505648622909
 50
246.139521097609304
 51
291.8804138923412097
  0
ARC
  5
293AE
  8
0
 10
4449.3257064537929182
 20
251.2653694976715997
 30
0.0
 40
0.5675804514891208
 50
293.1119940173642249
 51
319.6567297948807891
  0
ARC
  5
293AF
  8
0
 10
4448.3325070613973367
 20
252.0321017078209138
 30
0.0
 40
1.821874728341953
 50
321.4991735208985233
 51
338.4460938462690933
  0
ARC
  5
293B0
  8
0
 10
4443.4598666448646327
 20
254.1316607500924079
 30
0.0
 40
7.1269675001259554
 50
337.1384013449908252
 51
342.2969761948697283
  0
ARC
  5
293B1
  8
0
 10
4429.0352240269530739
 20
258.5679623712338753
 30
0.0
 40
22.2181194624810416
 50
342.7097686102949865
 51
348.3606688944071834
  0
ARC
  5
293B2
  8
0
 10
4418.2539002694957162
 20
261.0508616602743928
 30
0.0
 40
33.279662519442148
 50
347.9187043752140767
 51
353.8106952641799126
  0
ARC
  5
293B3
  8
0
 10
4428.0920980144956047
 20
260.0838435327692082
 30
0.0
 40
23.3947634946320697
 50
353.567471462926278
 51
0.7023686567972857
  0
ARC
  5
293B4
  8
0
 10
4424.5763584973847173
 20
259.7343592412726139
 30
0.0
 40
26.9162665051983296
 50
1.3545232194358141
 51
9.7009495438060735
  0
ARC
  5
293B5
  8
0
 10
4393.9407863497081053
 20
254.677959853624202
 30
0.0
 40
57.9660767248125524
 50
9.5248368865447972
 51
11.9173635001447202
  0
ARC
  5
293B6
  8
0
 10
-61999595.9075629264116287
 20
256.1035472934502195
 30
0.0
 40
62004045.2137075737118721
 50
359.9999989121441217
 51
0.0000010797479344
  0
ARC
  5
293B7
  8
0
 10
4602.5144824742601486
 20
254.4643261655376136
 30
0.0
 40
153.2090343576716123
 50
179.8272358131872011
 51
180.5508491294600049
  0
ARC
  5
293B8
  8
0
 10
4465.881144932593088
 20
253.3242927105725073
 30
0.0
 40
16.5719605216782497
 50
181.151097410183894
 51
183.7801095434932108
  0
ARC
  5
293B9
  8
0
 10
4456.5951165189117091
 20
252.6987072055800922
 30
0.0
 40
7.2649012997561133
 50
183.6853134708865127
 51
188.101776000213107
  0
ARC
  5
293BA
  8
0
 10
4452.1802416416758206
 20
252.067029155751186
 30
0.0
 40
2.8050682081578722
 50
188.0368900916286918
 51
193.1620804706163881
  0
ARC
  5
293BB
  8
0
 10
4444.3379620013465683
 20
253.844795639617189
 30
0.0
 40
5.6533862354843603
 50
334.6946230597965837
 51
343.6098661351986152
  0
ARC
  5
293BC
  8
0
 10
4427.8438858279096166
 20
258.8455820072700249
 30
0.0
 40
22.8887376649891188
 50
343.2510744458248837
 51
347.7538495767166182
  0
ARC
  5
293BD
  8
0
 10
4417.6089686185669052
 20
261.1711512747093025
 30
0.0
 40
33.3841991142203582
 50
347.5793012941255142
 51
351.6711007136681815
  0
ARC
  5
293BE
  8
0
 10
4420.6560052607919715
 20
260.7407951316631056
 30
0.0
 40
30.3069646521007883
 50
351.6416800314701732
 51
354.3586605228505277
  0
ARC
  5
293BF
  8
0
 10
4425.1533300053024504
 20
260.3021173133836896
 30
0.0
 40
25.7882998004495789
 50
354.3463561847020742
 51
357.5275760952587234
  0
ARC
  5
293C0
  8
0
 10
4430.5296353776502656
 20
260.061455121904828
 30
0.0
 40
20.4066191910285717
 50
357.5514757305625722
 51
2.8410121829919941
  0
ARC
  5
293C1
  8
0
 10
4426.3134082062670132
 20
259.8277126490257274
 30
0.0
 40
24.6292618010815296
 50
2.897958756374917
 51
7.3597161270038054
  0
ARC
  5
293C2
  8
0
 10
4411.5741464749125953
 20
257.8282905607915154
 30
0.0
 40
39.5033302770520365
 50
7.4973231924829831
 51
11.0479070179060397
  0
ARC
  5
293C3
  8
0
 10
4287.4730507769190808
 20
233.4938618079991102
 30
0.0
 40
165.9677280351052104
 50
11.0831162892671191
 51
12.0785244128656295
  0
ARC
  5
293C4
  8
0
 10
4499.9653568842850291
 20
278.8548996220287108
 30
0.0
 40
51.3123708560706078
 50
189.1644083482680117
 51
191.9583453672078974
  0
ARC
  5
293C5
  8
0
 10
4480.4560750844693757
 20
275.4722222176450259
 30
0.0
 40
31.5142214362999198
 50
185.2029187393476093
 51
188.7420699046946027
  0
ARC
  5
293C6
  8
0
 10
4466.835176666037114
 20
274.1293933554160276
 30
0.0
 40
17.8279643514176911
 50
178.4040135106995137
 51
184.8747609438653967
  0
ARC
  5
293C7
  8
0
 10
4463.9300865354680354
 20
274.2843061659364139
 30
0.0
 40
14.9198698481953507
 50
171.0476566165380916
 51
178.6879663441823993
  0
ARC
  5
293C8
  8
0
 10
4463.6433606527480151
 20
274.3297969556010116
 30
0.0
 40
14.6295578774025596
 50
165.1899366520339925
 51
171.0489035477048105
  0
ARC
  5
293C9
  8
0
 10
4465.9448303141907672
 20
273.6468815524248157
 30
0.0
 40
17.0292850294061289
 50
158.3110018090791868
 51
164.9479025260795879
  0
ARC
  5
293CA
  8
0
 10
4416.4410752165404119
 20
293.4706301493417868
 30
0.0
 40
36.2962261318651187
 50
338.1132441269996889
 51
341.2564881023413932
  0
ARC
  5
293CB
  8
0
 10
4445.0985848444279327
 20
283.7767613560674818
 30
0.0
 40
6.0436400508863679
 50
340.9833359472499978
 51
354.330581262655528
  0
ARC
  5
293CC
  8
0
 10
4448.2638376447721384
 20
283.4733282433207933
 30
0.0
 40
2.8639146804646138
 50
354.115672382419973
 51
11.80944126517978
  0
ARC
  5
293CD
  8
0
 10
4448.9482003525772598
 20
283.5876797888802798
 30
0.0
 40
2.1708167786354879
 50
12.5518814605935294
 51
33.9803587648102692
  0
LINE
  5
293CE
  8
0
 10
4450.5271162609051316
 20
268.1133003043410099
 30
0.0
 11
4450.4739666546038279
 21
268.1133003043410099
 31
0.0
  0
LINE
  5
293CF
  8
0
 10
4450.4739666546038279
 20
268.1133003043410099
 30
0.0
 11
4450.4641241349054326
 21
268.103457784641023
 31
0.0
  0
LINE
  5
293D0
  8
0
 10
4450.4641241349054326
 20
268.103457784641023
 30
0.0
 11
4450.4483761034052804
 21
268.103457784641023
 31
0.0
  0
LINE
  5
293D1
  8
0
 10
4450.4739666546038279
 20
268.1133003043410099
 30
0.0
 11
4450.4739666546038279
 21
267.5292900151609956
 31
0.0
  0
LINE
  5
293D2
  8
0
 10
4450.4641241349054326
 20
268.103457784641023
 30
0.0
 11
4450.4641241349054326
 21
267.5762863975177765
 31
0.0
  0
LINE
  5
293D3
  8
0
 10
4450.4483761033961855
 20
268.3298357374009129
 30
0.0
 11
4450.4483761034052804
 21
267.6514243957598183
 31
0.0
  0
LINE
  5
293D4
  8
0
 10
4450.4483761034052804
 20
268.3298357374002876
 30
0.0
 11
4450.3053906820032353
 21
268.3392022448998091
 31
0.0
  0
LINE
  5
293D5
  8
0
 10
4450.4286910640039423
 20
268.3311252399759042
 30
0.0
 11
4450.4286910640039423
 21
267.7452498472620164
 31
0.0
  0
ARC
  5
293D6
  8
0
 10
4043.6038573940541028
 20
182.3424288699590932
 30
0.0
 40
415.6922986073523134
 50
11.7011894306344395
 51
11.8614151722791501
  0
ARC
  5
293D7
  8
0
 10
4613.8292875370643742
 20
301.9684062035639158
 30
0.0
 40
166.9460637498168012
 50
191.5137006728228073
 51
191.8149427993238874
  0
ARC
  5
293D8
  8
0
 10
4516.4910580330542871
 20
282.1323585891100834
 30
0.0
 40
67.6072518403546212
 50
190.6923397396579105
 51
191.5069570530473015
  0
ARC
  5
293D9
  8
0
 10
4486.9108935859057965
 20
276.6044503999755761
 30
0.0
 40
37.5150900842993593
 50
188.5784683367988066
 51
190.7782220841066874
  0
ARC
  5
293DA
  8
0
 10
4474.4666209565721147
 20
274.7544934914827195
 30
0.0
 40
24.9341057381024314
 50
185.3083309935095997
 51
188.6404514989048948
  0
ARC
  5
293DB
  8
0
 10
4469.3565152426181157
 20
274.275396249429491
 30
0.0
 40
19.8015925606012502
 50
182.5060295263259036
 51
185.2959491391405038
  0
ARC
  5
293DC
  8
0
 10
4466.8515901650580417
 20
274.1676791986772059
 30
0.0
 40
17.2943533580579683
 50
179.324890926100494
 51
182.5123659868891934
  0
ARC
  5
293DD
  8
0
 10
4465.157411494513326
 20
274.1860629104858162
 30
0.0
 40
15.6000757647560402
 50
175.7932092030910951
 51
179.3190901243708026
  0
ARC
  5
293DE
  8
0
 10
4464.1545179535733041
 20
274.2579992899089234
 30
0.0
 40
14.5946073501371103
 50
172.0216662936371961
 51
175.7860402968111941
  0
ARC
  5
293DF
  8
0
 10
4463.6841325197528931
 20
274.3220997792302001
 30
0.0
 40
14.1198780090669995
 50
168.1225808107656121
 51
172.0143264713576059
  0
ARC
  5
293E0
  8
0
 10
4463.6835178359106067
 20
274.3202353504543112
 30
0.0
 40
14.1196603542823205
 50
164.2173154245639068
 51
168.1146638004892964
  0
ARC
  5
293E1
  8
0
 10
4465.0607104560276639
 20
273.9109506782020276
 30
0.0
 40
15.5562661854402808
 50
158.8811764877848987
 51
164.1463308301792949
  0
ARC
  5
293E2
  8
0
 10
4592.8539000367209155
 20
225.1456358006662128
 30
0.0
 40
152.3375655739675096
 50
158.7040461652904924
 51
159.0896566653051991
  0
ARC
  5
293E3
  8
0
 10
4428.1106007538219274
 20
289.3651979418755218
 30
0.0
 40
24.4801565220621384
 50
338.6991704758742117
 51
340.9963289098993187
  0
ARC
  5
293E4
  8
0
 10
4441.8762083364481441
 20
284.6399215051255851
 30
0.0
 40
9.9261311772057734
 50
340.9112503017697122
 51
346.73472036465472
  0
ARC
  5
293E5
  8
0
 10
4446.5067175776093791
 20
283.5633136715953242
 30
0.0
 40
5.1721550274333756
 50
346.5726019942463267
 51
358.0091139207971196
  0
ARC
  5
293E6
  8
0
 10
4448.6334440538012132
 20
283.5089907659685764
 30
0.0
 40
3.0448881513445518
 50
357.640420089637189
 51
20.5971799585069917
  0
LINE
  5
293E7
  8
0
 10
4448.574916372404914
 20
265.7614605579410068
 30
0.0
 11
4449.486724446504013
 21
265.7614605579410068
 31
0.0
  0
LINE
  5
293E8
  8
0
 10
4449.486724446504013
 20
265.7614605579410068
 30
0.0
 11
4449.486724446504013
 21
266.0567361483409741
 31
0.0
  0
LINE
  5
293E9
  8
0
 10
4448.574916372404914
 20
265.7614605579410068
 30
0.0
 11
4448.574916372404914
 21
266.0567361483409741
 31
0.0
  0
LINE
  5
293EA
  8
0
 10
4448.5791705387036927
 20
265.7614605579410068
 30
0.0
 11
4448.5791705387036927
 21
266.0567361483409741
 31
0.0
  0
LINE
  5
293EB
  8
0
 10
4448.5876403454922183
 20
265.7614605579410068
 30
0.0
 11
4448.5876403454922183
 21
266.0567361483409741
 31
0.0
  0
LINE
  5
293EC
  8
0
 10
4448.6002431411052385
 20
265.7614605579410068
 30
0.0
 11
4448.6002431411052385
 21
266.0567361483409741
 31
0.0
  0
LINE
  5
293ED
  8
0
 10
4448.6168648279035551
 20
265.7614605579410068
 30
0.0
 11
4448.6168648279035551
 21
266.0567361483409741
 31
0.0
  0
LINE
  5
293EE
  8
0
 10
4448.6373490196037892
 20
265.7614605579410068
 30
0.0
 11
4448.6373490196037892
 21
266.0567361483409741
 31
0.0
  0
LINE
  5
293EF
  8
0
 10
4448.6600702367040867
 20
265.7614605579410068
 30
0.0
 11
4448.6600702367040867
 21
266.0567361483409741
 31
0.0
  0
LINE
  5
293F0
  8
0
 10
4448.6615044608051903
 20
265.7614605579410068
 30
0.0
 11
4448.6615044608051903
 21
266.0567361483409741
 31
0.0
  0
LINE
  5
293F1
  8
0
 10
4448.6852258497037838
 20
265.7614605579410068
 30
0.0
 11
4448.6852258497037838
 21
266.0567361483409741
 31
0.0
  0
LINE
  5
293F2
  8
0
 10
4448.6891056187050708
 20
265.7614605579410068
 30
0.0
 11
4448.6891056187050708
 21
266.0567361483409741
 31
0.0
  0
LINE
  5
293F3
  8
0
 10
4448.7136056991039368
 20
265.7614605579410068
 30
0.0
 11
4448.7136056991039368
 21
266.0567361483409741
 31
0.0
  0
LINE
  5
293F4
  8
0
 10
4448.7198947886035967
 20
265.7614605579410068
 30
0.0
 11
4448.7198947886035967
 21
266.0567361483409741
 31
0.0
  0
LINE
  5
293F5
  8
0
 10
4448.7449448099050642
 20
265.7614605579410068
 30
0.0
 11
4448.7449448099050642
 21
266.0567361483409741
 31
0.0
  0
LINE
  5
293F6
  8
0
 10
4448.7535845004049406
 20
265.7614605579410068
 30
0.0
 11
4448.7535845004049406
 21
266.0567361483409741
 31
0.0
  0
LINE
  5
293F7
  8
0
 10
4448.7789505773052952
 20
265.7614605579410068
 30
0.0
 11
4448.7789505773052952
 21
266.0567361483409741
 31
0.0
  0
LINE
  5
293F8
  8
0
 10
4448.7898602024051797
 20
265.7614605579410068
 30
0.0
 11
4448.7898602024051797
 21
266.0567361483409741
 31
0.0
  0
LINE
  5
293F9
  8
0
 10
4448.8153054987051291
 20
265.7614605579410068
 30
0.0
 11
4448.8153054987051291
 21
266.0567361483409741
 31
0.0
  0
LINE
  5
293FA
  8
0
 10
4448.8283831980052128
 20
265.7614605579410068
 30
0.0
 11
4448.8283831980052128
 21
266.0567361483409741
 31
0.0
  0
LINE
  5
293FB
  8
0
 10
4448.8536701378052385
 20
265.7614605579410068
 30
0.0
 11
4448.8536701378052385
 21
266.0567361483409741
 31
0.0
  0
LINE
  5
293FC
  8
0
 10
4448.8687938085049609
 20
265.7614605579410068
 30
0.0
 11
4448.8687938085049609
 21
266.0567361483409741
 31
0.0
  0
LINE
  5
293FD
  8
0
 10
4448.8936862944046879
 20
265.7614605579410068
 30
0.0
 11
4448.8936862944046879
 21
266.0567361483409741
 31
0.0
  0
LINE
  5
293FE
  8
0
 10
4448.9107147308050116
 20
265.7614605579410068
 30
0.0
 11
4448.9107147308050116
 21
266.0567361483409741
 31
0.0
  0
LINE
  5
293FF
  8
0
 10
4448.9349803485038137
 20
265.7614605579410068
 30
0.0
 11
4448.9349803485038137
 21
266.0567361483409741
 31
0.0
  0
LINE
  5
29400
  8
0
 10
4448.9537545607036009
 20
265.7614605579410068
 30
0.0
 11
4448.9537545607036009
 21
266.0567361483409741
 31
0.0
  0
LINE
  5
29401
  8
0
 10
4448.9771667485038051
 20
265.7614605579410068
 30
0.0
 11
4448.9771667485038051
 21
266.0567361483409741
 31
0.0
  0
LINE
  5
29402
  8
0
 10
4448.9975114467042658
 20
265.7614605579410068
 30
0.0
 11
4448.9975114467042658
 21
266.0567361483409741
 31
0.0
  0
LINE
  5
29403
  8
0
 10
4449.0198516115051461
 20
265.7614605579410068
 30
0.0
 11
4449.0198516115051461
 21
266.0567361483409741
 31
0.0
  0
LINE
  5
29404
  8
0
 10
4449.0415768427046714
 20
265.7614605579410068
 30
0.0
 11
4449.0415768427046714
 21
266.0567361483409741
 31
0.0
  0
LINE
  5
29405
  8
0
 10
4449.0626364003046547
 20
265.7614605579410068
 30
0.0
 11
4449.0626364003046547
 21
266.0567361483409741
 31
0.0
  0
LINE
  5
29406
  8
0
 10
4449.0855393220053884
 20
265.7614605579410068
 30
0.0
 11
4449.0855393220053884
 21
266.0567361483409741
 31
0.0
  0
LINE
  5
29407
  8
0
 10
4449.1051216449050116
 20
265.7614605579410068
 30
0.0
 11
4449.1051216449050116
 21
266.0567361483409741
 31
0.0
  0
LINE
  5
29408
  8
0
 10
4449.1289884186044219
 20
265.7614605579410068
 30
0.0
 11
4449.1289884186044219
 21
266.0567361483409741
 31
0.0
  0
LINE
  5
29409
  8
0
 10
4449.1469106720051059
 20
265.7614605579410068
 30
0.0
 11
4449.1469106720051059
 21
266.0567361483409741
 31
0.0
  0
LINE
  5
2940A
  8
0
 10
4449.1715184602044246
 20
265.7614605579410068
 30
0.0
 11
4449.1715184602044246
 21
266.0567361483409741
 31
0.0
  0
LINE
  5
2940B
  8
0
 10
4449.1876133088044298
 20
265.7614605579410068
 30
0.0
 11
4449.1876133088044298
 21
266.0567361483409741
 31
0.0
  0
LINE
  5
2940C
  8
0
 10
4449.2127323550048459
 20
265.7614605579410068
 30
0.0
 11
4449.2127323550048459
 21
266.0567361483409741
 31
0.0
  0
LINE
  5
2940D
  8
0
 10
4449.2268495257048926
 20
265.7614605579410068
 30
0.0
 11
4449.2268495257048926
 21
266.0567361483409741
 31
0.0
  0
LINE
  5
2940E
  8
0
 10
4449.2522453003039118
 20
265.7614605579410068
 30
0.0
 11
4449.2522453003039118
 21
266.0567361483409741
 31
0.0
  0
LINE
  5
2940F
  8
0
 10
4449.2642529847053083
 20
265.7614605579410068
 30
0.0
 11
4449.2642529847053083
 21
266.0567361483409741
 31
0.0
  0
LINE
  5
29410
  8
0
 10
4449.289688374105026
 20
265.7614605579410068
 30
0.0
 11
4449.289688374105026
 21
266.0567361483409741
 31
0.0
  0
LINE
  5
29411
  8
0
 10
4449.299474459803605
 20
265.7614605579410068
 30
0.0
 11
4449.299474459803605
 21
266.0567361483409741
 31
0.0
  0
LINE
  5
29412
  8
0
 10
4449.3247119806037517
 20
265.7614605579410068
 30
0.0
 11
4449.3247119806037517
 21
266.0567361483409741
 31
0.0
  0
LINE
  5
29413
  8
0
 10
4449.3321850975044072
 20
265.7614605579410068
 30
0.0
 11
4449.3321850975044072
 21
266.0567361483409741
 31
0.0
  0
LINE
  5
29414
  8
0
 10
4449.3569891138040475
 20
265.7614605579410068
 30
0.0
 11
4449.3569891138040475
 21
266.0567361483409741
 31
0.0
  0
LINE
  5
29415
  8
0
 10
4449.3620794875050706
 20
265.7614605579410068
 30
0.0
 11
4449.3620794875050706
 21
266.0567361483409741
 31
0.0
  0
LINE
  5
29416
  8
0
 10
4449.3862184109038935
 20
265.7614605579410068
 30
0.0
 11
4449.3862184109038935
 21
266.0567361483409741
 31
0.0
  0
LINE
  5
29417
  8
0
 10
4449.3888785139051834
 20
265.7614605579410068
 30
0.0
 11
4449.3888785139051834
 21
266.0567361483409741
 31
0.0
  0
LINE
  5
29418
  8
0
 10
4449.4123319613036074
 20
265.7614605579410068
 30
0.0
 11
4449.4123319613036074
 21
266.0567361483409741
 31
0.0
  0
LINE
  5
29419
  8
0
 10
4449.4344728772048256
 20
265.7614605579410068
 30
0.0
 11
4449.4344728772048256
 21
266.0567361483409741
 31
0.0
  0
LINE
  5
2941A
  8
0
 10
4449.4530475074052447
 20
265.7614605579410068
 30
0.0
 11
4449.4530475074052447
 21
266.0567361483409741
 31
0.0
  0
LINE
  5
2941B
  8
0
 10
4449.4676774301060505
 20
265.7614605579410068
 30
0.0
 11
4449.4676774301060505
 21
266.0567361483409741
 31
0.0
  0
LINE
  5
2941C
  8
0
 10
4449.478226049704972
 20
265.7614605579410068
 30
0.0
 11
4449.478226049704972
 21
266.0567361483409741
 31
0.0
  0
LINE
  5
2941D
  8
0
 10
4449.4845948765050707
 20
265.7614605579410068
 30
0.0
 11
4449.4845948765050707
 21
266.0567361483409741
 31
0.0
  0
LINE
  5
2941E
  8
0
 10
4448.5876403454922183
 20
265.7614605579410068
 30
0.0
 11
4448.5876406718061844
 21
265.6807518964409951
 31
0.0
  0
LINE
  5
2941F
  8
0
 10
4448.6171682309050084
 20
265.6512243373409774
 30
0.0
 11
4449.4439398844051539
 21
265.6512243374410218
 31
0.0
  0
LINE
  5
29420
  8
0
 10
4449.4734674436049318
 20
265.6807518964409951
 30
0.0
 11
4449.4734674435048873
 21
265.7614605579410068
 31
0.0
  0
ARC
  5
29421
  8
0
 10
4448.6171682308340678
 20
265.6807518962702943
 30
0.0
 40
0.0295275589292885
 50
179.999999668741907
 51
270.0000001372062002
  0
ARC
  5
29422
  8
0
 10
4449.4439398845752294
 20
265.6807518962702943
 30
0.0
 40
0.0295275589292876
 50
269.9999998627937998
 51
0.0000003312531925
  0
LINE
  5
29424
  8
0
 10
4449.3549431975316111
 20
267.0109328978110739
 30
0.0
 11
4448.8000552941102796
 21
267.0109328978110739
 31
0.0
  0
LINE
  5
29425
  8
0
 10
4448.8114315885777614
 20
268.3692006143111257
 30
0.0
 11
4449.3525748087904503
 21
268.3692006143111257
 31
0.0
  0
ENDSEC
  0
EOF
