  0
SECTION
  2
HEADER
  9
$ACADVER
  1
AC1009
  9
$INSBASE
 10
4504.1728524488853509
 20
279.5602993984214208
 30
0.0
  9
$EXTMIN
 10
4497.8341904821199932
 20
271.4021968534690927
 30
-0.0000000349181948
  9
$EXTMAX
 10
4514.6278908531803609
 20
279.5639617525982885
 30
0.0000000814935746
  9
$LIMMIN
 10
0.0
 20
0.0
  9
$LIMMAX
 10
11.6929133858000007
 20
8.2677165353999982
  9
$ORTHOMODE
 70
     0
  9
$REGENMODE
 70
     1
  9
$FILLMODE
 70
     1
  9
$QTEXTMODE
 70
     0
  9
$MIRRTEXT
 70
     0
  9
$DRAGMODE
 70
     2
  9
$LTSCALE
 40
0.6431102362
  9
$OSMODE
 70
   575
  9
$ATTMODE
 70
     1
  9
$TEXTSIZE
 40
0.2
  9
$TRACEWID
 40
0.05
  9
$TEXTSTYLE
  7
STANDARD
  9
$CLAYER
  8
0
  9
$CELTYPE
  6
BYLAYER
  9
$CECOLOR
 62
   256
  9
$DIMSCALE
 40
1.0
  9
$DIMASZ
 40
0.1875
  9
$DIMEXO
 40
0.0625
  9
$DIMDLI
 40
0.4443307087
  9
$DIMRND
 40
0.0
  9
$DIMDLE
 40
0.0
  9
$DIMEXE
 40
0.125
  9
$DIMTP
 40
0.01
  9
$DIMTM
 40
0.01
  9
$DIMTXT
 40
2.0
  9
$DIMCEN
 40
0.1052362205
  9
$DIMTSZ
 40
0.0
  9
$DIMTOL
 70
     1
  9
$DIMLIM
 70
     0
  9
$DIMTIH
 70
     1
  9
$DIMTOH
 70
     1
  9
$DIMSE1
 70
     0
  9
$DIMSE2
 70
     0
  9
$DIMTAD
 70
     0
  9
$DIMZIN
 70
     0
  9
$DIMBLK
  1

  9
$DIMASO
 70
     1
  9
$DIMSHO
 70
     1
  9
$DIMPOST
  1
\X
  9
$DIMAPOST
  1

  9
$DIMALT
 70
     1
  9
$DIMALTD
 70
     2
  9
$DIMALTF
 40
25.3999999999999986
  9
$DIMLFAC
 40
1.0
  9
$DIMTOFL
 70
     0
  9
$DIMTVP
 40
0.0
  9
$DIMTIX
 70
     0
  9
$DIMSOXD
 70
     0
  9
$DIMSAH
 70
     0
  9
$DIMBLK1
  1

  9
$DIMBLK2
  1

  9
$DIMSTYLE
  2
STANDARD
  9
$DIMCLRD
 70
     0
  9
$DIMCLRE
 70
     0
  9
$DIMCLRT
 70
     0
  9
$DIMTFAC
 40
1.0
  9
$DIMGAP
 40
0.09
  9
$LUNITS
 70
     2
  9
$LUPREC
 70
     4
  9
$SKETCHINC
 40
0.1
  9
$FILLETRAD
 40
0.0
  9
$AUNITS
 70
     0
  9
$AUPREC
 70
     0
  9
$MENU
  1
.
  9
$ELEVATION
 40
0.0
  9
$PELEVATION
 40
0.0
  9
$THICKNESS
 40
0.0
  9
$LIMCHECK
 70
     0
  9
$BLIPMODE
 70
     0
  9
$CHAMFERA
 40
0.0
  9
$CHAMFERB
 40
0.0
  9
$SKPOLY
 70
     0
  9
$TDCREATE
 40
2458060.468368056230247
  9
$TDUPDATE
 40
2459369.8173032412305474
  9
$TDINDWG
 40
0.5368010417
  9
$TDUSRTIMER
 40
0.5368010417
  9
$USRTIMER
 70
     1
  9
$ANGBASE
 50
0.0
  9
$ANGDIR
 70
     0
  9
$PDMODE
 70
     0
  9
$PDSIZE
 40
0.3125
  9
$PLINEWID
 40
0.0
  9
$COORDS
 70
     2
  9
$SPLFRAME
 70
     0
  9
$SPLINETYPE
 70
     6
  9
$SPLINESEGS
 70
     8
  9
$ATTDIA
 70
     1
  9
$ATTREQ
 70
     1
  9
$HANDLING
 70
     1
  9
$HANDSEED
  5
25C49
  9
$SURFTAB1
 70
     6
  9
$SURFTAB2
 70
     6
  9
$SURFTYPE
 70
     6
  9
$SURFU
 70
     6
  9
$SURFV
 70
     6
  9
$UCSNAME
  2

  9
$UCSORG
 10
0.0
 20
0.0
 30
0.0
  9
$UCSXDIR
 10
1.0
 20
0.0
 30
0.0
  9
$UCSYDIR
 10
0.0
 20
1.0
 30
0.0
  9
$PUCSNAME
  2

  9
$PUCSORG
 10
0.0
 20
0.0
 30
0.0
  9
$PUCSXDIR
 10
1.0
 20
0.0
 30
0.0
  9
$PUCSYDIR
 10
0.0
 20
1.0
 30
0.0
  9
$USERI1
 70
     0
  9
$USERI2
 70
     0
  9
$USERI3
 70
     0
  9
$USERI4
 70
     0
  9
$USERI5
 70
     0
  9
$USERR1
 40
0.0
  9
$USERR2
 40
0.0
  9
$USERR3
 40
0.0
  9
$USERR4
 40
0.0
  9
$USERR5
 40
0.0
  9
$WORLDVIEW
 70
     1
  9
$SHADEDGE
 70
     3
  9
$SHADEDIF
 70
    70
  9
$TILEMODE
 70
     1
  9
$MAXACTVP
 70
    64
  9
$PLIMCHECK
 70
     0
  9
$PEXTMIN
 10
1.0000000000000000E+20
 20
1.0000000000000000E+20
 30
1.0000000000000000E+20
  9
$PEXTMAX
 10
-1.0000000000000000E+20
 20
-1.0000000000000000E+20
 30
-1.0000000000000000E+20
  9
$PLIMMIN
 10
0.0
 20
0.0
  9
$PLIMMAX
 10
12.0
 20
9.0
  9
$UNITMODE
 70
     0
  9
$VISRETAIN
 70
     1
  9
$PLINEGEN
 70
     0
  9
$PSLTSCALE
 70
     1
  0
ENDSEC
  0
SECTION
  2
TABLES
  0
TABLE
  2
VPORT
 70
     1
  0
VPORT
  2
*ACTIVE
 70
     0
 10
0.0
 20
0.0
 11
1.0
 21
1.0
 12
594.8656842223381318
 22
142.9034742004945997
 13
0.0
 23
0.0
 14
1.0
 24
1.0
 15
0.0
 25
0.0
 16
0.0
 26
0.0
 36
60.4960186965801583
 17
3911.3653564453120453
 27
132.5796051025390057
 37
0.0
 40
8.2431113931403956
 41
2.5241264559068211
 42
50.0
 43
0.0
 44
0.0
 50
0.0
 51
0.0
 71
     0
 72
   100
 73
     1
 74
     1
 75
     0
 76
     0
 77
     0
 78
     0
  0
ENDTAB
  0
TABLE
  2
LTYPE
 70
     2
  0
LTYPE
  2
CONTINUOUS
 70
     0
  3
Solid line
 72
    65
 73
     0
 40
0.0
  0
LTYPE
  2
PHANTOM2
 70
     0
  3
___ _ _ ___ _ _ ___ _ _ ___ _ _
 72
    65
 73
     6
 40
1.25
 49
0.625
 49
-0.125
 49
0.125
 49
-0.125
 49
0.125
 49
-0.125
  0
ENDTAB
  0
TABLE
  2
LAYER
 70
     2
  0
LAYER
  2
0
 70
     0
 62
   255
  6
CONTINUOUS
  0
LAYER
  2
DEFPOINTS
 70
     0
 62
     7
  6
CONTINUOUS
  0
ENDTAB
  0
TABLE
  2
STYLE
 70
     1
  0
STYLE
  2
STANDARD
 70
     0
 40
0.0
 41
0.8
 50
0.0
 71
     0
 42
0.2
  3
txt
  4

  0
ENDTAB
  0
TABLE
  2
VIEW
 70
     4
  0
ENDTAB
  0
TABLE
  2
UCS
 70
     0
  0
ENDTAB
  0
TABLE
  2
APPID
 70
    11
  0
APPID
  2
ACAD
 70
     0
  0
APPID
  2
ACAD_MLEADERVER
 70
     0
  0
APPID
  2
ACAD_EXEMPT_FROM_CAD_STANDARDS
 70
     0
  0
APPID
  2
ACAD_NAV_VCDISPLAY
 70
     0
  0
APPID
  2
ACAECLAYERSTANDARD
 70
     0
  0
APPID
  2
ACCMTRANSPARENCY
 70
     0
  0
APPID
  2
ACAD_DSTYLE_DIMJAG
 70
     0
  0
APPID
  2
ACAD_DSTYLE_DIMTALN
 70
     0
  0
APPID
  2
ACDBATTR
 70
     0
  0
APPID
  2
ACADANNOTATIVE
 70
     0
  0
APPID
  2
DCO15
 70
     0
  0
ENDTAB
  0
TABLE
  2
DIMSTYLE
 70
     1
  0
DIMSTYLE
  2
STANDARD
 70
     0
  3

  4

  5

  6

  7

 40
1.0
 41
0.1875
 42
0.0625
 43
0.38
 44
0.125
 45
0.0
 46
0.0
 47
0.01
 48
0.01
140
0.15625
141
0.09
142
0.0
143
25.3999999999999986
144
1.0
145
0.0
146
1.0
147
0.09
 71
     1
 72
     0
 73
     1
 74
     1
 75
     0
 76
     0
 77
     0
 78
     4
170
     0
171
     2
172
     0
173
     0
174
     0
175
     0
176
     0
177
     0
178
     0
  0
ENDTAB
  0
ENDSEC
  0
SECTION
  2
BLOCKS
  0
BLOCK
  8
0
  2
$MODEL_SPACE
 70
     0
 10
0.0
 20
0.0
 30
0.0
  3
$MODEL_SPACE
  1

  0
ENDBLK
  5
21
  8
0
  0
BLOCK
 67
     1
  8
0
  2
$PAPER_SPACE
 70
     0
 10
0.0
 20
0.0
 30
0.0
  3
$PAPER_SPACE
  1

  0
ENDBLK
  5
1D
 67
     1
  8
0
  0
BLOCK
  8
0
  2
_CLOSED
 70
     0
 10
0.0
 20
0.0
 30
0.0
  3
_CLOSED
  1

  0
LINE
  5
258B9
  8
0
  6
BYBLOCK
 62
     0
 10
0.0
 20
0.0
 30
0.0
 11
-1.0
 21
0.1666666667
 31
0.0
  0
LINE
  5
258BA
  8
0
  6
BYBLOCK
 62
     0
 10
-1.0
 20
0.1666666667
 30
0.0
 11
-1.0
 21
-0.1666666667
 31
0.0
  0
LINE
  5
258BB
  8
0
  6
BYBLOCK
 62
     0
 10
-1.0
 20
-0.1666666667
 30
0.0
 11
0.0
 21
0.0
 31
0.0
  0
LINE
  5
258BC
  8
0
  6
BYBLOCK
 62
     0
 10
-1.0
 20
0.0
 30
0.0
 11
0.0
 21
0.0
 31
0.0
  0
ENDBLK
  5
258BD
  8
0
  6
BYBLOCK
 62
     0
  0
ENDSEC
  0
SECTION
  2
ENTITIES
  0
ATTDEF
  5
20106
  8
DEFPOINTS
 10
4504.1729265979438424
 20
279.5592596204219831
 30
0.0
 40
0.001
  1
K-72646X-9
  3

  2
MODELNUMBER
 70
     0
1001
ACDBATTR
1070
     0
1070
     1
  0
ATTDEF
  5
20107
  8
DEFPOINTS
 10
4504.1728007882866223
 20
279.5575927800429099
 30
0.0
 40
0.001
  1
OBLO
  3

  2
TRADENAME
 70
     0
1001
ACDBATTR
1070
     0
1070
     1
  0
ATTDEF
  5
20108
  8
DEFPOINTS
 10
4504.1729265979438424
 20
279.5559262870887096
 30
0.0
 40
0.001
  1
 BATH AND SHOWER FAUCET 
  3

  2
PRODUCT
 70
     0
1001
ACDBATTR
1070
     0
1070
     1
  0
LINE
  5
25A2E
  8
0
 10
4500.0384338770863906
 20
278.3981949414214228
 30
0.0
 11
4500.028292345184127
 21
279.5602993984214208
 31
0.0
  0
LINE
  5
25A2F
  8
0
 10
4500.5803327434850871
 20
277.5248663275214085
 30
0.0
 11
4500.5803326706845837
 21
277.3570512844214022
 31
0.0
  0
LINE
  5
25A30
  8
0
 10
4500.5803327638850533
 20
278.0779721893213718
 30
0.0
 11
4500.5803327638850533
 21
278.3201419127215104
 31
0.0
  0
LINE
  5
25A31
  8
0
 10
4500.629545362285171
 20
277.6232915244214041
 30
0.0
 11
4500.629545362285171
 21
278.0366773511213978
 31
0.0
  0
LINE
  5
25A32
  8
0
 10
4500.8598603228847423
 20
277.5445513669214961
 30
0.0
 11
4500.8598603228847423
 21
277.5248663275214085
 31
0.0
  0
LINE
  5
25A33
  8
0
 10
4501.5803327638850533
 20
277.5445513669214961
 30
0.0
 11
4501.5803327638850533
 21
277.5248663275214085
 31
0.0
  0
LINE
  5
25A34
  8
0
 10
4501.8106477244846246
 20
277.6232915244214041
 30
0.0
 11
4501.8106477244846246
 21
278.0366773511213978
 31
0.0
  0
LINE
  5
25A35
  8
0
 10
4501.8598603228838329
 20
278.0779716243213784
 30
0.0
 11
4501.8598603228838329
 21
278.3201419127215104
 31
0.0
  0
LINE
  5
25A36
  8
0
 10
4501.8598603228838329
 20
278.0779716243213784
 30
0.0
 11
4501.8106477244846246
 21
278.0366773511213978
 31
0.0
  0
LINE
  5
25A37
  8
0
 10
4502.0862382756849911
 20
277.5445513669214961
 30
0.0
 11
4502.0862382756849911
 21
277.5642364062214256
 31
0.0
  0
LINE
  5
25A38
  8
0
 10
4502.3224587480854098
 20
277.5445513669214961
 30
0.0
 11
4502.3224587480854098
 21
277.5642364062214256
 31
0.0
  0
LINE
  5
25A39
  8
0
 10
4502.4017592095851796
 20
278.3981949414214228
 30
0.0
 11
4502.4119007415838496
 21
279.5602993984214208
 31
0.0
  0
LINE
  5
25A3A
  8
0
 10
4503.6049491174862851
 20
274.9189478317214252
 30
0.0
 11
4503.6049509605845742
 21
271.7217181878214092
 31
0.0
  0
LINE
  5
25A3B
  8
0
 10
4504.7407551531850913
 20
271.7217291852214203
 30
0.0
 11
4504.740747304166689
 21
274.91777365062012
 31
0.0
  0
LINE
  5
25A3C
  8
0
 10
4500.629545362285171
 20
278.0366773511213978
 30
0.0
 11
4500.5803327638850533
 21
278.0779721893213718
 31
0.0
  0
LINE
  5
25A3D
  8
0
 10
4507.7653721338838295
 20
278.0779721893213718
 30
0.0
 11
4507.7161595354837118
 21
278.0366773511213978
 31
0.0
  0
LINE
  5
25A3E
  8
0
 10
4505.9439456881837032
 20
278.3981949405214209
 30
0.0
 11
4505.9338041561841237
 21
279.5602993984214208
 31
0.0
  0
LINE
  5
25A3F
  8
0
 10
4508.0409626850851055
 20
275.2231860141213815
 30
0.0
 11
4508.1393878819853853
 21
275.2231860141213815
 31
0.0
  0
LINE
  5
25A40
  8
0
 10
4500.1374193779838606
 20
275.2310600298213785
 30
0.0
 11
4503.2920347469853368
 21
275.2310600298213785
 31
0.0
  0
LINE
  5
25A41
  8
0
 10
4500.0823012677838051
 20
275.2310600298213785
 30
0.0
 11
4498.0941125039853432
 21
275.2310600298213785
 31
0.0
  0
LINE
  5
25A42
  8
0
 10
4505.0536673005854027
 20
275.2310600298213785
 30
0.0
 11
4508.0409626850851055
 21
275.2310600298213785
 31
0.0
  0
LINE
  5
25A43
  8
0
 10
4508.1393878819853853
 20
275.2310600298213785
 30
0.0
 11
4508.2082855197850222
 21
275.2310600298213785
 31
0.0
  0
LINE
  5
25A44
  8
0
 10
4508.2909626850851055
 20
275.2310600298213785
 30
0.0
 11
4510.2673404252846012
 21
275.2310600298213785
 31
0.0
  0
LINE
  5
25A45
  8
0
 10
4508.2673406378853542
 20
275.3393277464214179
 30
0.0
 11
4508.2082855197850222
 21
275.3393277464214179
 31
0.0
  0
LINE
  5
25A46
  8
0
 10
4500.1019863071851432
 20
275.3393277464214179
 30
0.0
 11
4500.1374193779838606
 21
275.3393277464214179
 31
0.0
  0
LINE
  5
25A47
  8
0
 10
4506.48584457488505
 20
278.0779716243213784
 30
0.0
 11
4506.48584457488505
 21
278.3201419127215104
 31
0.0
  0
LINE
  5
25A48
  8
0
 10
4506.5350571732851677
 20
277.6232915244214041
 30
0.0
 11
4506.5350571732851677
 21
278.0366773511213978
 31
0.0
  0
LINE
  5
25A49
  8
0
 10
4506.765372133884739
 20
277.5445513669214961
 30
0.0
 11
4506.765372133884739
 21
277.5248663275214085
 31
0.0
  0
LINE
  5
25A4A
  8
0
 10
4507.48584457488505
 20
277.5445513669214961
 30
0.0
 11
4507.48584457488505
 21
277.5248663275214085
 31
0.0
  0
LINE
  5
25A4B
  8
0
 10
4511.4241142405016944
 20
277.4583541585586772
 30
0.0
 11
4511.4214267629631649
 21
277.4579675050430865
 31
0.0
  0
LINE
  5
25A4C
  8
0
 10
4508.2791516614852299
 20
277.0058824374215192
 30
0.0
 11
4508.2082855197850222
 21
276.9956867910213987
 31
0.0
  0
LINE
  5
25A4D
  8
0
 10
4511.2443711203659404
 20
277.4324941943058889
 30
0.0
 11
4509.0643839978838514
 21
277.1188553054213912
 31
0.0
  0
LINE
  5
25A4E
  8
0
 10
4508.2673406378853542
 20
276.4810600298213785
 30
0.0
 11
4508.2082855197850222
 21
276.4810600298213785
 31
0.0
  0
LINE
  5
25A4F
  8
0
 10
4500.1019863071851432
 20
276.4810600298213785
 30
0.0
 11
4500.1374193779838606
 21
276.4810600298213785
 31
0.0
  0
LINE
  5
25A50
  8
0
 10
4507.7161595354837118
 20
277.6232915244214041
 30
0.0
 11
4507.7161595354837118
 21
278.0366773511213978
 31
0.0
  0
LINE
  5
25A51
  8
0
 10
4507.7653721338838295
 20
278.0779721893213718
 30
0.0
 11
4507.7653721338838295
 21
278.3201419127215104
 31
0.0
  0
LINE
  5
25A52
  8
0
 10
4507.765372227185253
 20
277.3570343658215052
 30
0.0
 11
4507.7653721541837513
 21
277.5248663275214085
 31
0.0
  0
LINE
  5
25A53
  8
0
 10
4508.0409626850851055
 20
275.2231860141213815
 30
0.0
 11
4508.0409626850851055
 21
275.2310600298213785
 31
0.0
  0
LINE
  5
25A54
  8
0
 10
4508.1393878819853853
 20
275.2231860141213815
 30
0.0
 11
4508.1393878819853853
 21
275.2310600298213785
 31
0.0
  0
LINE
  5
25A55
  8
0
 10
4509.6295445199839378
 20
277.1188553054213912
 30
0.0
 11
4508.9760029171848146
 21
277.1188553054213912
 31
0.0
  0
LINE
  5
25A56
  8
0
 10
4500.1374193779838606
 20
277.1208238093215073
 30
0.0
 11
4500.3441091316853999
 21
277.1208238093215073
 31
0.0
  0
LINE
  5
25A57
  8
0
 10
4500.0823012677838051
 20
277.1208238093215073
 30
0.0
 11
4498.0941125039853432
 21
277.1208238093215073
 31
0.0
  0
LINE
  5
25A58
  8
0
 10
4508.0015957330851961
 20
277.1208238093215073
 30
0.0
 11
4508.2082855197850222
 21
277.1208238093215073
 31
0.0
  0
LINE
  5
25A59
  8
0
 10
4508.2909626850851055
 20
277.1208238093215073
 30
0.0
 11
4508.9484430000848079
 21
277.1208238093215073
 31
0.0
  0
LINE
  5
25A5A
  8
0
 10
4509.6571044173842893
 20
277.1208238093215073
 30
0.0
 11
4510.2673404252846012
 21
277.1208238093215073
 31
0.0
  0
LINE
  5
25A5B
  8
0
 10
4511.3795838828837077
 20
277.2962962503215181
 30
0.0
 11
4511.2846525115846816
 21
277.2962962503215181
 31
0.0
  0
LINE
  5
25A5C
  8
0
 10
4508.3072710206861302
 20
278.3981949405214209
 30
0.0
 11
4508.3174125525838463
 21
279.5602993984214208
 31
0.0
  0
LINE
  5
25A5D
  8
0
 10
4500.5803327434850871
 20
277.5248663275214085
 30
0.0
 11
4501.8313288968838606
 21
277.5248663275214085
 31
0.0
  0
LINE
  5
25A5E
  8
0
 10
4506.5143760009468679
 20
277.5248663275214085
 30
0.0
 11
4507.7653721541837513
 21
277.5248663275214085
 31
0.0
  0
LINE
  5
25A5F
  8
0
 10
4507.7358445748841405
 20
277.5445513669214961
 30
0.0
 11
4506.5153721338838295
 21
277.5445513669214961
 31
0.0
  0
LINE
  5
25A60
  8
0
 10
4501.8303327638850533
 20
277.5445513669214961
 30
0.0
 11
4500.6098603228838329
 21
277.5445513669214961
 31
0.0
  0
LINE
  5
25A61
  8
0
 10
4501.8327884526852358
 20
277.5445513669214961
 30
0.0
 11
4506.5129164450845565
 21
277.5445513669214961
 31
0.0
  0
LINE
  5
25A62
  8
0
 10
4502.3224587480854098
 20
277.5642364062214256
 30
0.0
 11
4502.0862382756849911
 21
277.5642364062214256
 31
0.0
  0
LINE
  5
25A63
  8
0
 10
4507.7358445748841405
 20
277.6232915244214041
 30
0.0
 11
4507.7161595354837118
 21
277.6232915244214041
 31
0.0
  0
LINE
  5
25A64
  8
0
 10
4506.5350571732851677
 20
277.6232915244214041
 30
0.0
 11
4506.5153721338838295
 21
277.6232915244214041
 31
0.0
  0
LINE
  5
25A65
  8
0
 10
4501.8303327638850533
 20
277.6232915244214041
 30
0.0
 11
4501.8106477244846246
 21
277.6232915244214041
 31
0.0
  0
LINE
  5
25A66
  8
0
 10
4500.629545362285171
 20
277.6232915244214041
 30
0.0
 11
4500.6098603228838329
 21
277.6232915244214041
 31
0.0
  0
LINE
  5
25A67
  8
0
 10
4500.629545362285171
 20
277.6232915244214041
 30
0.0
 11
4501.8106477244846246
 21
277.6232915244214041
 31
0.0
  0
LINE
  5
25A68
  8
0
 10
4506.5350571732851677
 20
277.6232915244214041
 30
0.0
 11
4507.7161595354837118
 21
277.6232915244214041
 31
0.0
  0
LINE
  5
25A69
  8
0
 10
4506.5350571732851677
 20
278.0366773511213978
 30
0.0
 11
4506.48584457488505
 21
278.0779716243213784
 31
0.0
  0
LINE
  5
25A6A
  8
0
 10
4500.1171733892851989
 20
278.3201419127215104
 30
0.0
 11
4502.3230196974845967
 21
278.3201419127215104
 31
0.0
  0
LINE
  5
25A6B
  8
0
 10
4506.0226829300845566
 20
278.3201419127215104
 30
0.0
 11
4508.2285337787852768
 21
278.3201419127215104
 31
0.0
  0
LINE
  5
25A6C
  8
0
 10
4512.6238993366850991
 20
278.3493640181213777
 30
0.0
 11
4511.4428167496853348
 21
278.3493640181213777
 31
0.0
  0
LINE
  5
25A6D
  8
0
 10
4510.4177631780848969
 20
275.4458780694213829
 30
0.0
 11
4510.4177580800551368
 21
275.4508753944268733
 31
0.0
  0
LINE
  5
25A6E
  8
0
 10
4511.9155505508852002
 20
279.2529891637215087
 30
0.0
 11
4512.1517661830848738
 21
279.2529891637215087
 31
0.0
  0
LINE
  5
25A6F
  8
0
 10
4511.9341560818838843
 20
279.2738048608213717
 30
0.0
 11
4512.1314450927002326
 21
279.2738048608213717
 31
0.0
  0
LINE
  5
25A70
  8
0
 10
4511.9349373714840112
 20
279.3829104235214231
 30
0.0
 11
4512.131783731683754
 21
279.3829104235214231
 31
0.0
  0
LINE
  5
25A71
  8
0
 10
4511.9341560818838843
 20
279.4316155678214955
 30
0.0
 11
4512.1316829201850851
 21
279.4316155678214955
 31
0.0
  0
LINE
  5
25A72
  8
0
 10
4512.151777180283716
 20
279.4498395574215124
 30
0.0
 11
4511.9155615479849075
 21
279.4498395574215124
 31
0.0
  0
LINE
  5
25A73
  8
0
 10
4512.7911879773500914
 20
279.4813356249727008
 30
0.0
 11
4511.2680472813453889
 21
279.4813356127049246
 31
0.0
  0
LINE
  5
25A74
  8
0
 10
4511.2258039959851885
 20
279.5600757779213836
 30
0.0
 11
4512.8334491102568791
 21
279.5600757779213836
 31
0.0
  0
LINE
  5
25A75
  8
0
 10
4508.3174125525838463
 20
279.5602993984214208
 30
0.0
 11
4505.9338041561841237
 21
279.5602993984214208
 31
0.0
  0
LINE
  5
25A76
  8
0
 10
4502.4119007415838496
 20
279.5602993984214208
 30
0.0
 11
4500.028292345184127
 21
279.5602993984214208
 31
0.0
  0
LINE
  5
25A77
  8
0
 10
4510.8408521775863846
 20
275.3279849711215093
 30
0.0
 11
4510.840342397630593
 21
275.3525348238882771
 31
0.0
  0
LINE
  5
25A78
  8
0
 10
4510.9697890382840342
 20
275.3212244553214987
 30
0.0
 11
4510.9709869666658051
 21
275.3307171135808744
 31
0.0
  0
LINE
  5
25A79
  8
0
 10
4511.710702498385217
 20
275.2471527280213763
 30
0.0
 11
4511.7097595042778266
 21
275.2615810056302053
 31
0.0
  0
LINE
  5
25A7A
  8
0
 10
4511.2268859278847231
 20
275.2915075401214153
 30
0.0
 11
4511.226608767916332
 21
275.2971208771080001
 31
0.0
  0
LINE
  5
25A7B
  8
0
 10
4511.3740109285863582
 20
275.251512851521511
 30
0.0
 11
4511.3725771137205811
 21
275.2830021892248737
 31
0.0
  0
LINE
  5
25A7C
  8
0
 10
4511.245214761985153
 20
277.3358224468215099
 30
0.0
 11
4511.2258039959851885
 21
279.5600757779213836
 31
0.0
  0
LINE
  5
25A7D
  8
0
 10
4511.4228004903852707
 20
277.7383706887213748
 30
0.0
 11
4511.423131030885088
 21
278.3296816826214126
 31
0.0
  0
LINE
  5
25A7E
  8
0
 10
4511.4565553424854443
 20
277.1852638893213907
 30
0.0
 11
4511.4557331349851665
 21
277.1303161555214274
 31
0.0
  0
LINE
  5
25A7F
  8
0
 10
4511.5030779399849052
 20
275.2479674326214081
 30
0.0
 11
4511.5055676153888271
 21
275.2726748560348256
 31
0.0
  0
LINE
  5
25A80
  8
0
 10
4511.9650681026851089
 20
275.2239432317214209
 30
0.0
 11
4511.9627737676846664
 21
275.2553578323447141
 31
0.0
  0
LINE
  5
25A81
  8
0
 10
4512.131783731683754
 20
279.4264987222214245
 30
0.0
 11
4512.1316829201850851
 21
279.4316155678214955
 31
0.0
  0
LINE
  5
25A82
  8
0
 10
4511.9341560818838843
 20
279.4498395574215124
 30
0.0
 11
4511.9341560818838843
 21
279.2529891637215087
 31
0.0
  0
LINE
  5
25A83
  8
0
 10
4512.1313804854853515
 20
279.4340915259214171
 30
0.0
 11
4512.1313804854853515
 21
279.4498395574215124
 31
0.0
  0
LINE
  5
25A84
  8
0
 10
4512.131783731683754
 20
279.4264987222214245
 30
0.0
 11
4512.131783731683754
 21
279.3829104235214231
 31
0.0
  0
LINE
  5
25A85
  8
0
 10
4511.9155505508852002
 20
279.2529891637215087
 30
0.0
 11
4511.9155615479849075
 21
279.4498395574215124
 31
0.0
  0
LINE
  5
25A86
  8
0
 10
4512.151777180283716
 20
279.4498395574215124
 30
0.0
 11
4512.1517661830848738
 21
279.2529891637215087
 31
0.0
  0
LINE
  5
25A87
  8
0
 10
4512.1313804854853515
 20
279.2529891637215087
 30
0.0
 11
4512.131783731683754
 21
279.3829104235214231
 31
0.0
  0
LINE
  5
25A88
  8
0
 10
4511.8398171353837824
 20
275.2460676441214105
 30
0.0
 11
4511.840743425042092
 21
275.2573285685689939
 31
0.0
  0
LINE
  5
25A89
  8
0
 10
4512.1316829201850851
 20
279.4316155678214955
 30
0.0
 11
4512.1313804854853515
 21
279.4340915259214171
 31
0.0
  0
ARC
  5
25A8A
  8
0
 10
4512.0193348795837665
 20
271.3317364147214903
 30
0.0
 40
5.7956653331999997
 50
96.8436604139185135
 51
107.4964444702763018
  0
ARC
  5
25A8B
  8
0
 10
4500.1019863071851432
 20
275.3196427070213872
 30
0.0
 40
0.0196850394
 50
90.0
 51
180.0
  0
ARC
  5
25A8C
  8
0
 10
4501.8303327638850533
 20
277.5839214456213995
 30
0.0
 40
0.0393700787
 50
270.0
 51
90.0
  0
ARC
  5
25A8D
  8
0
 10
4500.6098603228838329
 20
277.5839214456213995
 30
0.0
 40
0.0393700787
 50
90.0
 51
270.0
  0
ARC
  5
25A8E
  8
0
 10
4506.5153721338838295
 20
277.5839214456213995
 30
0.0
 40
0.0393700787
 50
90.0
 51
270.0
  0
ARC
  5
25A8F
  8
0
 10
4500.1019863071851432
 20
276.5007450692214093
 30
0.0
 40
0.0196850394
 50
180.0
 51
270.0
  0
ARC
  5
25A90
  8
0
 10
4508.2673406378853542
 20
275.3196427070213872
 30
0.0
 40
0.0196850394
 50
53.1301024996574398
 51
90.0
  0
ARC
  5
25A91
  8
0
 10
4508.2909626872742592
 20
275.2428710587067258
 30
0.0
 40
0.0118110288853074
 50
180.0414856881835135
 51
269.999989379887495
  0
ARC
  5
25A92
  8
0
 10
4508.2673406378853542
 20
276.5007450692214093
 30
0.0
 40
0.0196850394
 50
270.0
 51
306.8698975003425176
  0
ARC
  5
25A93
  8
0
 10
4507.7358445748841405
 20
277.5839214456213995
 30
0.0
 40
0.0393700787
 50
270.0
 51
90.0
  0
ARC
  5
25A94
  8
0
 10
4508.2909626872742592
 20
277.1090127804362169
 30
0.0
 40
0.0118110288851982
 50
90.0000106199040459
 51
179.9585147454841945
  0
ARC
  5
25A95
  8
0
 10
4511.3244891963850023
 20
277.1754577083215167
 30
0.0
 40
0.2673057935
 50
68.0267143597501445
 51
68.8324720710004527
  0
ARC
  5
25A96
  8
0
 10
4511.5351919649892807
 20
277.1275962437093199
 30
0.0
 40
0.0794999342648643
 50
162.6156323767052072
 51
174.738540837699702
  0
ARC
  5
25A97
  8
0
 10
4511.5437559707597757
 20
277.1269510700461183
 30
0.0
 40
0.0880871353725784
 50
174.8314703120036029
 51
177.8106664347072012
  0
ARC
  5
25A98
  8
0
 10
4511.544004027414303
 20
277.3157466229953911
 30
0.0
 40
0.079917963497786
 50
158.2109771929767987
 51
178.1261246375368898
  0
ARC
  5
25A99
  8
0
 10
4512.0298855094852115
 20
277.2703202184213751
 30
0.0
 40
0.4726527358000001
 50
90.0323844776543751
 51
96.4006611312762942
  0
ARC
  5
25A9A
  8
0
 10
4506.0226828474851573
 20
278.3988820702214184
 30
0.0
 40
0.0787401575
 50
180.5000006145995997
 51
270.0000601195990271
  0
ARC
  5
25A9B
  8
0
 10
4500.1171710364451428
 20
278.3988820702468843
 30
0.0
 40
0.078740157560651
 50
180.500000632770508
 51
270.0017120587860973
  0
ARC
  5
25A9C
  8
0
 10
4502.3230220502246084
 20
278.3988820702468843
 30
0.0
 40
0.0787401575606444
 50
269.9982880139597228
 51
359.4999993672328173
  0
ARC
  5
25A9D
  8
0
 10
4509.5451480040819661
 20
278.2642291645714181
 30
0.0
 40
1.2897413183306421
 50
242.4414503677915036
 51
243.407916506591306
  0
ARC
  5
25A9E
  8
0
 10
4509.0776380876377516
 20
278.2304893755166972
 30
0.0
 40
1.251854183153118
 50
296.5833659512555869
 51
297.5735217981473966
  0
ARC
  5
25A9F
  8
0
 10
4508.2285338613846761
 20
278.3988820702214184
 30
0.0
 40
0.0787401575
 50
269.9999398804009729
 51
359.4999993854003151
  0
LINE
  5
25AA0
  8
0
 10
4511.2674440397531725
 20
279.5600757779213836
 30
0.0
 11
4511.2795549322845545
 21
277.9792602449214201
 31
0.0
  0
LINE
  5
25AA1
  8
0
 10
4501.8313288970848589
 20
277.5248663297214193
 30
0.0
 11
4501.8327884526852358
 21
277.5445513669214961
 31
0.0
  0
LINE
  5
25AA2
  8
0
 10
4506.5129164450845565
 20
277.5445513669214961
 30
0.0
 11
4506.5143760009468679
 21
277.5248663275214085
 31
0.0
  0
ARC
  5
25AA3
  8
0
 10
4503.8000045185453928
 20
272.2309302391291794
 30
0.0
 40
0.1951305443821341
 50
181.6064812916411881
 51
217.4961138221368913
  0
ARC
  5
25AA4
  8
0
 10
4503.9506335488904369
 20
272.3491371611414138
 30
0.0
 40
0.3865979421123478
 50
217.8067085661687088
 51
243.9855668362440895
  0
ARC
  5
25AA5
  8
0
 10
4504.1337287046499114
 20
272.7203776757980904
 30
0.0
 40
0.80053263265356
 50
243.862503306043493
 51
262.4678460738070953
  0
ARC
  5
25AA6
  8
0
 10
4504.1728176404376427
 20
272.9200537529069948
 30
0.0
 40
1.003688484082264
 50
261.7498320092610129
 51
276.3512238717336231
  0
ARC
  5
25AA7
  8
0
 10
4504.2128015092894202
 20
272.7071143249207239
 30
0.0
 40
0.7877990735700149
 50
275.1742059652764283
 51
298.0981757750757879
  0
ARC
  5
25AA8
  8
0
 10
4504.4058441234883503
 20
272.3376627834512078
 30
0.0
 40
0.3709890580199743
 50
298.6718887074187023
 51
323.0105056493025018
  0
ARC
  5
25AA9
  8
0
 10
4504.5382109011879948
 20
272.235336248824126
 30
0.0
 40
0.2037057259916622
 50
323.5989171389799139
 51
348.0963083578075725
  0
ARC
  5
25AAA
  8
0
 10
4504.5764725842636835
 20
272.2256811720475866
 30
0.0
 40
0.1642826703145569
 50
348.6387549969355177
 51
359.7688081848700108
  0
ARC
  5
25AAB
  8
0
 10
4503.787025028566859
 20
271.72514670856782
 30
0.0
 40
0.1821063452666943
 50
181.0787728193083979
 51
204.4989895916042997
  0
ARC
  5
25AAC
  8
0
 10
4503.8709820324802422
 20
271.770870472661727
 30
0.0
 40
0.2775483041320933
 50
205.9012660827175125
 51
231.1853669243855052
  0
ARC
  5
25AAD
  8
0
 10
4504.0233412055276858
 20
271.9601427248495042
 30
0.0
 40
0.520524228398454
 50
231.1767241575971923
 51
251.5002991521778881
  0
ARC
  5
25AAE
  8
0
 10
4504.1658374459302649
 20
272.3620484878113075
 30
0.0
 40
0.9469062172213319
 50
251.0399334937386016
 51
267.2767189761590885
  0
ARC
  5
25AAF
  8
0
 10
4504.1729414614710549
 20
272.4219541491660834
 30
0.0
 40
1.0070907191099689
 50
267.0349407379786157
 51
281.6396644267750844
  0
ARC
  5
25AB0
  8
0
 10
4504.2589613898580865
 20
272.0862675710043277
 30
0.0
 40
0.661158750430447
 50
280.2075328179461167
 51
302.2835274402253845
  0
ARC
  5
25AB1
  8
0
 10
4504.446040775675101
 20
271.7936939746664962
 30
0.0
 40
0.313897387894295
 50
301.9379014135316197
 51
330.5388323340152965
  0
ARC
  5
25AB2
  8
0
 10
4504.5633153993603628
 20
271.7238257759194084
 30
0.0
 40
0.1774521398300912
 50
331.5572154429830221
 51
359.3230366596815202
  0
ARC
  5
25AB3
  8
0
 10
4503.2916064492828809
 20
274.9177152299864133
 30
0.0
 40
0.3133450925458334
 50
0.2253842841432492
 51
89.9216848807341904
  0
ARC
  5
25AB4
  8
0
 10
4505.0558505293938651
 20
274.915959143601583
 30
0.0
 40
0.3151084495607254
 50
90.396976969424955
 51
179.6700686104705937
  0
ARC
  5
25AB5
  8
0
 10
4503.2328798726102832
 20
275.4469158354053206
 30
0.0
 40
0.2238148864180667
 50
285.325690433524926
 51
299.3448669299176004
  0
ARC
  5
25AB6
  8
0
 10
4494.319104887166759
 20
292.5906644910861019
 30
0.0
 40
19.5463130237997902
 50
297.4933113393511235
 51
298.1973949437445981
  0
ARC
  5
25AB7
  8
0
 10
4504.7098630596728981
 20
273.2237786901034724
 30
0.0
 40
2.4319596185124959
 50
110.0051305538629975
 51
118.3522666436286954
  0
ARC
  5
25AB8
  8
0
 10
4504.1795023705217318
 20
274.720950011090622
 30
0.0
 40
0.8437992974035593
 50
62.780340308680131
 51
110.9441876431229019
  0
ARC
  5
25AB9
  8
0
 10
4502.1339652298711371
 20
270.0876083686991933
 30
0.0
 40
5.9073146838922961
 50
61.0379415686238005
 51
65.6941603312485114
  0
ARC
  5
25ABA
  8
0
 10
4505.1242291983917312
 20
275.4798759527075163
 30
0.0
 40
0.258627811543441
 50
239.8850525010232104
 51
254.1671533353504913
  0
ARC
  5
25ABB
  8
0
 10
4500.3441180443378471
 20
277.3570384358487217
 30
0.0
 40
0.2362146266953711
 50
269.9978381632619744
 51
0.0031165258609182
  0
ARC
  5
25ABC
  8
0
 10
4498.0941141508628789
 20
277.0617668318569145
 30
0.0
 40
0.0590569774875669
 50
90.001597668854771
 51
180.0
  0
ARC
  5
25ABD
  8
0
 10
4498.0948455472716887
 20
275.292583938528594
 30
0.0
 40
0.0615282755736732
 50
193.6581342914649042
 51
269.3173662062091012
  0
ARC
  5
25ABE
  8
0
 10
4508.0015877971491136
 20
277.3570393792061282
 30
0.0
 40
0.2362155700179503
 50
180.0012160323767034
 51
270.0019249179903227
  0
ARC
  5
25ABF
  8
0
 10
4508.0901752835352454
 20
274.5535634179493059
 30
0.0
 40
0.679281634481967
 50
85.8453953393763101
 51
94.1546046606237041
  0
ARC
  5
25AC0
  8
0
 10
4509.4206889994884477
 20
278.0047898336450771
 30
0.0
 40
1.0020459132635331
 50
243.131111748378089
 51
250.4322358083852009
  0
ARC
  5
25AC1
  8
0
 10
4509.3231871096249961
 20
277.7270236106206767
 30
0.0
 40
0.70766726126292
 50
250.3383892786465879
 51
261.2585107776021118
  0
ARC
  5
25AC2
  8
0
 10
4509.302603297929636
 20
277.6251275310153801
 30
0.0
 40
0.603846088636213
 50
261.7195507653842128
 51
280.7478063168642848
  0
ARC
  5
25AC3
  8
0
 10
4509.2375780649053922
 20
277.8846668978969205
 30
0.0
 40
0.8710964456992508
 50
281.7663071350884252
 51
297.3545001207210134
  0
ARC
  5
25AC4
  8
0
 10
4508.9777601704254266
 20
277.1079428742398818
 30
0.0
 40
0.0110530128581427
 50
99.1479343603820382
 51
140.9352826643682874
  0
LINE
  5
25AC5
  8
0
 10
4508.9691782284853616
 20
277.1149084586215281
 30
0.0
 11
4508.9680772440724468
 21
277.1107883732723849
 31
0.0
  0
ARC
  5
25AC6
  8
0
 10
4509.6289026818212733
 20
277.1103291920771881
 30
0.0
 40
0.008550237715127
 50
2.9475824814569331
 51
85.6949450379056259
  0
ARC
  5
25AC7
  8
0
 10
4509.4244378363664509
 20
278.0664011012686956
 30
0.0
 40
1.0587968203718829
 50
244.4708601901002964
 51
251.6998779212169097
  0
ARC
  5
25AC8
  8
0
 10
4509.3359655976728391
 20
277.8169968567672754
 30
0.0
 40
0.7942468033405823
 50
252.1100741483822958
 51
258.7653778129193824
  0
ARC
  5
25AC9
  8
0
 10
4509.3028925105381859
 20
277.6547816401858881
 30
0.0
 40
0.6286970407430346
 50
258.841512305786523
 51
282.1927388516792234
  0
ARC
  5
25ACA
  8
0
 10
4509.2318784976541792
 20
277.9448545629359728
 30
0.0
 40
0.9272607211372234
 50
282.6962414331846958
 51
295.9357420953273277
  0
ARC
  5
25ACB
  8
0
 10
4510.2658803181484473
 20
275.2915754516130846
 30
0.0
 40
0.0605330338531962
 50
271.3821559171288982
 51
358.6184699133208937
  0
ARC
  5
25ACC
  8
0
 10
4512.0162462824982867
 20
283.5905360402596784
 30
0.0
 40
7.7952857481709001
 50
262.0391861335244243
 51
270.0982915316762956
  0
ARC
  5
25ACD
  8
0
 10
4511.4923320241477995
 20
279.982121762281281
 30
0.0
 40
4.1491297904701003
 50
252.4686062264387942
 51
262.3031494736906097
  0
ARC
  5
25ACE
  8
0
 10
4510.6963846509543146
 20
277.5016364647854061
 30
0.0
 40
1.5441410480383919
 50
237.7331253215951961
 51
252.905889715711794
  0
ARC
  5
25ACF
  8
0
 10
4510.0647585026317756
 20
276.5288294448085935
 30
0.0
 40
0.3846442783212406
 50
204.1851231177494981
 51
239.929045695235601
  0
ARC
  5
25AD0
  8
0
 10
4509.8841070225571457
 20
276.4368879131374115
 30
0.0
 40
0.1824487149617049
 50
159.3917802277630926
 51
201.0868598981228956
  0
ARC
  5
25AD1
  8
0
 10
4509.9816905152174513
 20
276.3953561496620068
 30
0.0
 40
0.2884414566250524
 50
136.9834662234067935
 51
158.4924906408467962
  0
ARC
  5
25AD2
  8
0
 10
4510.5130884424679607
 20
275.8263555618859186
 30
0.0
 40
1.0664971784412081
 50
125.7940348280546061
 51
134.1078440324826033
  0
ARC
  5
25AD3
  8
0
 10
4511.7385640021066138
 20
280.0945309954822164
 30
0.0
 40
4.827842750643021
 50
252.3780593110508903
 51
257.7373999039645014
  0
ARC
  5
25AD4
  8
0
 10
4511.8294910944787262
 20
280.873503594819681
 30
0.0
 40
5.608877901512539
 50
258.5198617220863184
 51
264.6501734254002827
  0
ARC
  5
25AD5
  8
0
 10
4511.9933471644117162
 20
282.4155266690613075
 30
0.0
 40
7.1594874754622504
 50
264.4951632917162101
 51
266.4724049967182964
  0
ARC
  5
25AD6
  8
0
 10
4512.0262337693111476
 20
282.9902326522657177
 30
0.0
 40
7.7351284563005169
 50
266.4911966530456766
 51
268.9927121946935813
  0
ARC
  5
25AD7
  8
0
 10
4512.0297371898313941
 20
283.2051230111774771
 30
0.0
 40
7.9500472010226844
 50
268.9946926984151219
 51
269.9991510857348089
  0
ARC
  5
25AD8
  8
0
 10
4510.7860862481129516
 20
277.2081067001180941
 30
0.0
 40
1.7888386341404989
 50
240.7925975283777973
 51
253.4658894348424099
  0
ARC
  5
25AD9
  8
0
 10
4510.3230714469082159
 20
276.3625344787516838
 30
0.0
 40
0.8248782967630423
 50
230.0861157608356962
 51
240.2043137031159006
  0
ARC
  5
25ADA
  8
0
 10
4510.0964100582268657
 20
276.0953279807984018
 30
0.0
 40
0.4745004077371764
 50
214.1688580596463964
 51
230.3761942371901057
  0
ARC
  5
25ADB
  8
0
 10
4509.9582439107052778
 20
276.0000961817568736
 30
0.0
 40
0.3067006111867013
 50
195.1540468681261018
 51
213.9456749617378932
  0
ARC
  5
25ADC
  8
0
 10
4510.6321628532541581
 20
276.1788683041082209
 30
0.0
 40
1.0039252636673981
 50
180.1477304879396115
 51
194.9476169517757
  0
ARC
  5
25ADD
  8
0
 10
4510.6243499263173362
 20
276.1744011656634257
 30
0.0
 40
0.9961107711836623
 50
164.9761042564853142
 51
179.8919416980668018
  0
ARC
  5
25ADE
  8
0
 10
4509.9992264928278018
 20
276.3334869404160941
 30
0.0
 40
0.3512173323349062
 50
137.1818017325180961
 51
163.6060011299985035
  0
ARC
  5
25ADF
  8
0
 10
4510.2365697950754111
 20
276.1100271894222828
 30
0.0
 40
0.6771967974810803
 50
120.8485937469735063
 51
136.9622694829079137
  0
ARC
  5
25AE0
  8
0
 10
4510.6674940378297833
 20
275.3883014208652185
 30
0.0
 40
1.5177821777268721
 50
111.2002148300997959
 51
120.8440333975582064
  0
ARC
  5
25AE1
  8
0
 10
4510.9936992462717171
 20
274.5780079760198191
 30
0.0
 40
2.391227681931789
 50
107.4436187978313058
 51
111.4662668372515952
  0
ARC
  5
25AE2
  8
0
 10
4510.2673389749597845
 20
277.0617670283090774
 30
0.0
 40
0.059056781030107
 50
0.0034238610905757
 51
89.9985929222505092
  0
ARC
  5
25AE3
  8
0
 10
4510.4438630108043071
 20
275.4459486004964219
 30
0.0
 40
0.0260999280190491
 50
180.1548332944122137
 51
207.9574078689884118
  0
ARC
  5
25AE4
  8
0
 10
4510.4515045647976876
 20
275.4518440102938825
 30
0.0
 40
0.0356505920065822
 50
210.5697970460346937
 51
252.629633027344795
  0
ARC
  5
25AE5
  8
0
 10
4510.4918357065917007
 20
275.5757246240456197
 30
0.0
 40
0.1659292130658323
 50
252.1090404698871907
 51
270.1070024296520842
  0
ARC
  5
25AE6
  8
0
 10
4510.4955700521213657
 20
275.533974254361226
 30
0.0
 40
0.1242257632029055
 50
268.4203576387433827
 51
281.100329199046314
  0
ARC
  5
25AE7
  8
0
 10
4510.5122752842798945
 20
275.4517676152439094
 30
0.0
 40
0.0403448295015037
 50
280.2969855671038886
 51
305.52391094926611
  0
ARC
  5
25AE8
  8
0
 10
4510.8534333086836341
 20
275.3894598202758743
 30
0.0
 40
0.0445466381669194
 50
229.9820160005372998
 51
253.0691678299616001
  0
ARC
  5
25AE9
  8
0
 10
4510.8667586173442032
 20
275.328597236530527
 30
0.0
 40
0.0259136738018951
 50
181.3538600832123109
 51
217.3574139962159109
  0
ARC
  5
25AEA
  8
0
 10
4510.8766246901550403
 20
275.3387172300701877
 30
0.0
 40
0.0399495562481892
 50
220.3095214501558132
 51
257.9853263057714798
  0
ARC
  5
25AEB
  8
0
 10
4510.9118485047138165
 20
275.4700450927834936
 30
0.0
 40
0.1758768236610931
 50
255.6669166081258879
 51
268.9293341170730969
  0
ARC
  5
25AEC
  8
0
 10
4510.9160806812178635
 20
275.4273715378529914
 30
0.0
 40
0.1333846306764146
 50
266.7686782956844809
 51
283.5167368159787884
  0
ARC
  5
25AED
  8
0
 10
4510.9391890530514502
 20
275.3295651990126771
 30
0.0
 40
0.0328885917966357
 50
284.1995018012369201
 51
319.5303189521072227
  0
ARC
  5
25AEE
  8
0
 10
4510.9442271199768584
 20
275.3244920477973778
 30
0.0
 40
0.0257699209966842
 50
320.8410194840590748
 51
352.715359690261721
  0
ARC
  5
25AEF
  8
0
 10
4511.2531201497504298
 20
275.2928514667962077
 30
0.0
 40
0.0262686226475613
 50
182.9325845570280933
 51
214.5503321192589965
  0
ARC
  5
25AF0
  8
0
 10
4511.2595295934070236
 20
275.2982898841050883
 30
0.0
 40
0.0346422002411162
 50
215.9467955619402915
 51
252.2103632357554943
  0
ARC
  5
25AF1
  8
0
 10
4511.2867118706417386
 20
275.3780491976737039
 30
0.0
 40
0.1189022514481995
 50
251.4806741099000078
 51
266.3152496095747779
  0
ARC
  5
25AF2
  8
0
 10
4511.2953237656920464
 20
275.4530124608917276
 30
0.0
 40
0.1943007088421007
 50
265.2015723164615224
 51
274.646034461576221
  0
ARC
  5
25AF3
  8
0
 10
4511.3059734051266787
 20
275.3469819975350106
 30
0.0
 40
0.0877794189632059
 50
273.3233642215589043
 51
290.9346078102863089
  0
ARC
  5
25AF4
  8
0
 10
4511.3252030347339314
 20
275.2951096673842812
 30
0.0
 40
0.0324655247650442
 50
291.9473828424254975
 51
320.8206432120941258
  0
ARC
  5
25AF5
  8
0
 10
4511.3294800186949942
 20
275.2911647114260063
 30
0.0
 40
0.0266602771961948
 50
321.5858234771231992
 51
345.5829853913307943
  0
ARC
  5
25AF6
  8
0
 10
4511.3994132455309227
 20
275.2526935135010149
 30
0.0
 40
0.025429739852857
 50
182.6611076520707115
 51
209.235005005464302
  0
ARC
  5
25AF7
  8
0
 10
4511.4029375646523476
 20
275.2552539231741093
 30
0.0
 40
0.0297600528764946
 50
210.2227539943704926
 51
245.6146730814394061
  0
ARC
  5
25AF8
  8
0
 10
4511.4270454003808482
 20
275.3150858986882099
 30
0.0
 40
0.0942478188876552
 50
247.2841168173972903
 51
266.6149194145135084
  0
ARC
  5
25AF9
  8
0
 10
4511.4429960183661024
 20
275.4274247189986795
 30
0.0
 40
0.207540468357247
 50
264.0494840145062199
 51
277.7852157995852167
  0
ARC
  5
25AFA
  8
0
 10
4511.4673407395448521
 20
275.2645298305615142
 30
0.0
 40
0.042898506654597
 50
275.0400126022007044
 51
309.6502533981637839
  0
ARC
  5
25AFB
  8
0
 10
4511.4773714841958281
 20
275.2506658554041792
 30
0.0
 40
0.0258476953459362
 50
312.1412119769356082
 51
354.0075716511703945
  0
ARC
  5
25AFC
  8
0
 10
4511.5897103259239884
 20
275.3024547214894824
 30
0.0
 40
0.0448672587871754
 50
227.8467267721090082
 51
255.0037536323492873
  0
ARC
  5
25AFD
  8
0
 10
4511.611315947431649
 20
275.3770095041971899
 30
0.0
 40
0.1224836614082896
 50
254.2654244997688977
 51
266.9202950467873166
  0
ARC
  5
25AFE
  8
0
 10
4511.6169402851637642
 20
275.4035368800197148
 30
0.0
 40
0.1493337154802441
 50
265.3120863205310229
 51
283.5730965958234151
  0
ARC
  5
25AFF
  8
0
 10
4511.6385932190114545
 20
275.310856456738918
 30
0.0
 40
0.0541646582941481
 50
284.3163058262077811
 51
299.1357417808231958
  0
ARC
  5
25B00
  8
0
 10
4511.7372155936591298
 20
275.2490179776050923
 30
0.0
 40
0.0265786263195489
 50
184.0242428760008124
 51
226.8003892159860868
  0
ARC
  5
25B01
  8
0
 10
4511.7518916181597888
 20
275.2697547208152855
 30
0.0
 40
0.051859537633038
 50
230.6666185243776113
 51
261.7152441294483083
  0
ARC
  5
25B02
  8
0
 10
4511.7762767740441632
 20
275.3954680201450174
 30
0.0
 40
0.1798752829054384
 50
259.7985175527916226
 51
272.2661811249035964
  0
ARC
  5
25B03
  8
0
 10
4511.7812560578222474
 20
275.3492073126157038
 30
0.0
 40
0.1334909443294137
 50
270.9156947406621043
 51
283.8688961592783926
  0
ARC
  5
25B04
  8
0
 10
4511.803825499994673
 20
275.2603386543207193
 30
0.0
 40
0.041807621469211
 50
283.0334878267464092
 51
312.0077824274471254
  0
ARC
  5
25B05
  8
0
 10
4511.813416748790587
 20
275.2483548189960061
 30
0.0
 40
0.026499275107371
 50
313.9392752173922077
 51
355.048592088450107
  0
ARC
  5
25B06
  8
0
 10
4511.9906026516091515
 20
275.2258779024193132
 30
0.0
 40
0.0256077359303716
 50
184.3328386657412068
 51
221.9713966904490974
  0
ARC
  5
25B07
  8
0
 10
4511.9961364518130722
 20
275.2317264603346985
 30
0.0
 40
0.0336395099018337
 50
223.0743004130619909
 51
253.4440350358198941
  0
ARC
  5
25B08
  8
0
 10
4512.0175624291487111
 20
275.3030382542067969
 30
0.0
 40
0.1081004376384236
 50
253.3288740327488995
 51
264.9732714409324217
  0
ARC
  5
25B09
  8
0
 10
4512.0293835609809321
 20
275.4156643688733084
 30
0.0
 40
0.2213373755849742
 50
264.4795344293314088
 51
270.0610560709257015
  0
ARC
  5
25B0A
  8
0
 10
4511.444993764773244
 20
277.1318879498120964
 30
0.0
 40
0.010853783203749
 50
319.4881367761213937
 51
351.6734139894082887
  0
ARC
  5
25B0B
  8
0
 10
4517.9165777716698358
 20
276.8844377078676757
 30
0.0
 40
6.4670229763796652
 50
176.1526960363052012
 51
177.3338129977690869
  0
ARC
  5
25B0C
  8
0
 10
4511.270492762358117
 20
277.5563017822530014
 30
0.0
 40
0.4737857952156127
 50
277.0593696760964235
 51
284.0042215526048039
  0
ARC
  5
25B0D
  8
0
 10
4511.3211014082162365
 20
277.3602304877611004
 30
0.0
 40
0.2713002511090928
 50
283.6543851360980284
 51
293.9753899643175146
  0
ARC
  5
25B0E
  8
0
 10
4511.3862805151738939
 20
277.216742185605483
 30
0.0
 40
0.1137138240955257
 50
293.3456450816028109
 51
306.0783644884446062
  0
ARC
  5
25B0F
  8
0
 10
4511.6610452282557162
 20
277.0463623681171157
 30
0.0
 40
0.2274069696017303
 50
133.5057149232563916
 51
152.5050993032614031
  0
ARC
  5
25B10
  8
0
 10
4511.7646823163167937
 20
276.9137665194252236
 30
0.0
 40
0.3952546661257701
 50
94.0529544429920037
 51
131.1691984584344084
  0
ARC
  5
25B11
  8
0
 10
4511.8508898480540665
 20
276.1251319356512113
 30
0.0
 40
1.1883951330438769
 50
87.3782461681652336
 51
95.5116674055437045
  0
ARC
  5
25B12
  8
0
 10
4512.0443133420267259
 20
280.5886746507896987
 30
0.0
 40
3.2793413947212628
 50
267.5695889720831815
 51
269.7432554742047159
  0
ARC
  5
25B13
  8
0
 10
4511.4428172985708443
 20
278.3296777500495978
 30
0.0
 40
0.0196862680794106
 50
90.001597503769645
 51
179.9885544703060987
  0
ARC
  5
25B14
  8
0
 10
4512.0311071800579157
 20
277.1164027765980791
 30
0.0
 40
0.6062306265774225
 50
139.5805750941734971
 51
157.8051106040167895
  0
ARC
  5
25B15
  8
0
 10
4512.0969947214225613
 20
277.0676910353062112
 30
0.0
 40
0.6879987325241058
 50
114.4935895202757052
 51
140.0498472965614951
  0
ARC
  5
25B16
  8
0
 10
4512.0419310689667327
 20
277.1894647682042887
 30
0.0
 40
0.5543549129332391
 50
96.7062522342442463
 51
114.5326580379497017
  0
ARC
  5
25B17
  8
0
 10
4511.8901018169935924
 20
277.3051046316634256
 30
0.0
 40
0.4141108808763655
 50
132.2212111648460109
 51
170.6866214078021073
  0
ARC
  5
25B18
  8
0
 10
4512.0923768202392239
 20
277.1561738069120224
 30
0.0
 40
0.6621990707619263
 50
115.4410162477302038
 51
136.5267955026168067
  0
ARC
  5
25B19
  8
0
 10
4512.0368708801370303
 20
277.2757539451505977
 30
0.0
 40
0.5303719856101353
 50
90.78351297299983
 51
115.5756232054787063
  0
ARC
  5
25B1A
  8
0
 10
4535.4359881644368215
 20
277.7110217193394988
 30
0.0
 40
24.0132032481136086
 50
179.9347450300284947
 51
180.947936415185211
  0
ARC
  5
25B1B
  8
0
 10
4511.5427670720700917
 20
277.3148468315458786
 30
0.0
 40
0.1167008813172642
 50
180.5381558221336036
 51
189.0988726253924881
  0
ARC
  5
25B1C
  8
0
 10
4511.4663674581934174
 20
277.3043818879888818
 30
0.0
 40
0.0396462720763859
 50
191.6265345937617894
 51
235.0038450911081895
  0
ARC
  5
25B1D
  8
0
 10
4511.4661672283191365
 20
277.3041357413393939
 30
0.0
 40
0.0393298015827247
 50
235.037141836344091
 51
262.1159133009961124
  0
ARC
  5
25B1E
  8
0
 10
4511.3795247527632455
 20
277.3358437400796106
 30
0.0
 40
0.039547533962864
 50
270.0856667236736257
 51
352.5258572227743912
  0
ARC
  5
25B1F
  8
0
 10
4511.1992155368261592
 20
277.3539320281901723
 30
0.0
 40
0.2207467066934105
 50
353.9586930729337269
 51
0.1522821854776495
  0
ARC
  5
25B20
  8
0
 10
4490.7056210884911707
 20
277.6996615720086083
 30
0.0
 40
20.71721556494753
 50
359.0454246725116718
 51
0.1070544375834749
  0
ARC
  5
25B21
  8
0
 10
4511.2852760564483106
 20
277.3363562484501017
 30
0.0
 40
0.0400648506582275
 50
180.7633994600053029
 51
269.1082474823707003
  0
ARC
  5
25B22
  8
0
 10
4503.4792485793841479
 20
278.1507236912717076
 30
0.0
 40
7.8085543360226852
 50
354.0129369369730057
 51
355.8772843127889018
  0
ARC
  5
25B23
  8
0
 10
4506.159898958996564
 20
277.9411259750177123
 30
0.0
 40
5.1197979947814591
 50
356.0600973342022826
 51
0.4267654555603092
  0
LINE
  5
25B24
  8
0
 10
4512.6351227149989427
 20
277.4583546650018775
 30
0.0
 11
4512.6378101928612523
 21
277.4579680137342166
 31
0.0
  0
LINE
  5
25B25
  8
0
 10
4512.6796532081616533
 20
277.2962967940098906
 30
0.0
 11
4512.7745845794606794
 21
277.2962968734104265
 31
0.0
  0
LINE
  5
25B26
  8
0
 10
4512.8140222960018946
 20
277.3358231028960859
 30
0.0
 11
4512.8334491102568791
 21
279.5600757779213836
 31
0.0
  0
LINE
  5
25B27
  8
0
 10
4512.6364362309095668
 20
277.7383711962634152
 30
0.0
 11
4512.6361051958383541
 21
278.3296821898867961
 31
0.0
  0
ARC
  5
25B28
  8
0
 10
4512.7347479957306859
 20
277.1754582980910868
 30
0.0
 40
0.2673057935
 50
111.1675758511566983
 51
111.9733335623911046
  0
LINE
  5
25B29
  8
0
 10
4512.7916320949016153
 20
279.5393119123376096
 30
0.0
 11
4512.7796815875299217
 21
277.9792608722738123
 31
0.0
  0
ARC
  5
25B2A
  8
0
 10
4512.6164189281553263
 20
278.3296782408493755
 30
0.0
 40
0.0196862680794106
 50
0.0114934518379031
 51
89.9984504183408944
  0
ARC
  5
25B2B
  8
0
 10
4488.6232485797418121
 20
277.7110021422706154
 30
0.0
 40
24.0132032481136086
 50
359.0521115069568054
 51
0.06530289211639
  0
ARC
  5
25B2C
  8
0
 10
4512.5164700034601992
 20
277.3148472387480865
 30
0.0
 40
0.1167008813172642
 50
350.9011752967463167
 51
359.4618921000093223
  0
ARC
  5
25B2D
  8
0
 10
4512.5928696260898505
 20
277.304382359091619
 30
0.0
 40
0.0396462720763859
 50
304.9962028310578717
 51
348.3735133283793743
  0
ARC
  5
25B2E
  8
0
 10
4512.5930698561678582
 20
277.3041362126095919
 30
0.0
 40
0.0393298015827247
 50
277.8841346211542032
 51
304.9629060858043204
  0
ARC
  5
25B2F
  8
0
 10
4512.6797123052056122
 20
277.3358442838174938
 30
0.0
 40
0.039547533962864
 50
187.4741906993720875
 51
269.9143811984905028
  0
ARC
  5
25B30
  8
0
 10
4512.8600215060150731
 20
277.3539327227385911
 30
0.0
 40
0.2207467066934105
 50
179.8477657366684923
 51
186.0413548492118991
  0
ARC
  5
25B31
  8
0
 10
4533.3536156651725832
 20
277.6996794073828028
 30
0.0
 40
20.71721556494753
 50
179.8929934845617993
 51
180.9546232496317089
  0
ARC
  5
25B32
  8
0
 10
4512.7739610010912656
 20
277.3363568710174718
 30
0.0
 40
0.0400648506582275
 50
270.891800439760118
 51
359.2366484621373957
  0
ARC
  5
25B33
  8
0
 10
4520.5799877970175658
 20
278.1507308427940188
 30
0.0
 40
7.8085543360226852
 50
184.1227636093537114
 51
185.9871109851677886
  0
ARC
  5
25B34
  8
0
 10
4517.8993375927120724
 20
277.9411308844461814
 30
0.0
 40
5.1197979947814591
 50
179.5732824665832936
 51
183.9399505879387107
  0
LINE
  5
25B35
  8
0
 10
4513.6414754606503266
 20
275.4458794175766911
 30
0.0
 11
4513.6414805544991395
 21
275.4508767425862743
 31
0.0
  0
LINE
  5
25B36
  8
0
 10
4513.2183865597553449
 20
275.3279859654052757
 30
0.0
 11
4513.2188963191756557
 21
275.3525358185985965
 31
0.0
  0
LINE
  5
25B37
  8
0
 10
4513.0894497047092955
 20
275.3212253417627267
 30
0.0
 11
4513.0882517683885453
 21
275.3307179990201803
 31
0.0
  0
LINE
  5
25B38
  8
0
 10
4512.3485363065628917
 20
275.2471529947633258
 30
0.0
 11
4512.3494792886021969
 21
275.2615812731606866
 31
0.0
  0
LINE
  5
25B39
  8
0
 10
4512.8323528399650968
 20
275.2915082115271161
 30
0.0
 11
4512.8326299952377667
 21
275.297121548745281
 31
0.0
  0
LINE
  5
25B3A
  8
0
 10
4512.6852278727155863
 20
275.2515133998718966
 30
0.0
 11
4512.6866616612423968
 21
275.2830027387744849
 31
0.0
  0
LINE
  5
25B3B
  8
0
 10
4512.6026818414266017
 20
277.1852643686311239
 30
0.0
 11
4512.6035040948872847
 21
277.1303166355187955
 31
0.0
  0
LINE
  5
25B3C
  8
0
 10
4512.5561608642810825
 20
275.2479678730202863
 30
0.0
 11
4512.553671168211622
 21
275.272675294351302
 31
0.0
  0
LINE
  5
25B3D
  8
0
 10
4512.0941707216770737
 20
275.223943285712096
 30
0.0
 11
4512.0964650304003953
 21
275.2553578882543093
 31
0.0
  0
LINE
  5
25B3E
  8
0
 10
4512.2194216704710925
 20
275.2460678028718917
 30
0.0
 11
4512.2184953713949653
 21
275.2573287265446993
 31
0.0
  0
ARC
  5
25B3F
  8
0
 10
4512.0399072002146568
 20
271.3317364233247986
 30
0.0
 40
5.7956653331999997
 50
72.5036034518379466
 51
83.1563875082610764
  0
ARC
  5
25B40
  8
0
 10
4512.5240452671578169
 20
277.1275966572472953
 30
0.0
 40
0.0794999342648643
 50
5.2615070844416394
 51
17.3844155454371787
  0
ARC
  5
25B41
  8
0
 10
4512.5154812619257427
 20
277.1269514764213113
 30
0.0
 40
0.0880871353725784
 50
2.1893814874387689
 51
5.1685776101422443
  0
ARC
  5
25B42
  8
0
 10
4512.5152330473638358
 20
277.315747029162992
 30
0.0
 40
0.079917963497786
 50
1.8739232846059739
 51
21.7890707291681807
  0
ARC
  5
25B43
  8
0
 10
4512.0293516032870684
 20
277.2703202181982078
 30
0.0
 40
0.4726527358000001
 50
83.5993867908524351
 51
89.9676634445158783
  0
ARC
  5
25B44
  8
0
 10
4512.0429855440506799
 20
283.5905360514420863
 30
0.0
 40
7.7952857481709001
 50
269.9017563904524764
 51
277.9608617886129878
  0
ARC
  5
25B45
  8
0
 10
4512.5669028204756614
 20
279.9821222116664217
 30
0.0
 40
4.1491297904701003
 50
277.6968984484926182
 51
287.5314416957264143
  0
ARC
  5
25B46
  8
0
 10
4513.3628522683457049
 20
277.5016375799011143
 30
0.0
 40
1.5441410480383919
 50
287.0941582064708086
 51
302.2669226005286873
  0
ARC
  5
25B47
  8
0
 10
4513.994479230322213
 20
276.5288310882161795
 30
0.0
 40
0.3846442783212406
 50
300.0710022268959278
 51
335.8149248044027217
  0
ARC
  5
25B48
  8
0
 10
4514.1751307872973484
 20
276.4368897076417966
 30
0.0
 40
0.1824487149617049
 50
338.9131880240211103
 51
20.6082676943784904
  0
ARC
  5
25B49
  8
0
 10
4514.0775473293742834
 20
276.3953578625477121
 30
0.0
 40
0.2884414566250524
 50
21.5075572813115912
 51
43.0165816987397704
  0
ARC
  5
25B4A
  8
0
 10
4513.5461498780359761
 20
275.8263568303108855
 30
0.0
 40
1.0664971784412081
 50
45.8922038896395321
 51
54.2060130941169405
  0
ARC
  5
25B4B
  8
0
 10
4512.3206707484987419
 20
280.0945312389189894
 30
0.0
 40
4.827842750643021
 50
282.2626480181966144
 51
287.6219886111085771
  0
ARC
  5
25B4C
  8
0
 10
4512.229743004593729
 20
280.8735037622049049
 30
0.0
 40
5.608877901512539
 50
275.3498744967596963
 51
281.4801862000466031
  0
ARC
  5
25B4D
  8
0
 10
4512.0658856449135783
 20
282.415526699396878
 30
0.0
 40
7.1594874754622504
 50
273.527642925468399
 51
275.5048846304089238
  0
ARC
  5
25B4E
  8
0
 10
4512.0329985593325546
 20
282.9902326550948146
 30
0.0
 40
7.7351284563005169
 50
271.007335727423083
 51
273.508851269062518
  0
ARC
  5
25B4F
  8
0
 10
4512.0294949590770557
 20
283.2051230110761821
 30
0.0
 40
7.9500472010226844
 50
270.0008968363757162
 51
271.0053552237245071
  0
ARC
  5
25B50
  8
0
 10
4513.2731509166951582
 20
277.2081077402075948
 30
0.0
 40
1.7888386341404989
 50
286.5341584873394822
 51
299.2074503937786858
  0
ARC
  5
25B51
  8
0
 10
4513.7361664251347975
 20
276.3625359061067002
 30
0.0
 40
0.8248782967630423
 50
299.7957342190322265
 51
309.9139321613342872
  0
ARC
  5
25B52
  8
0
 10
4513.9628280373080997
 20
276.0953295977329276
 30
0.0
 40
0.4745004077371764
 50
309.6238536849635921
 51
325.8311898624885998
  0
ARC
  5
25B53
  8
0
 10
4514.1007201733546026
 20
276.000251398300918
 30
0.0
 40
0.3070136958533908
 50
326.0591745187757056
 51
344.8321494291656109
  0
ARC
  5
25B54
  8
0
 10
4513.4270838674628976
 20
276.1788694729397093
 30
0.0
 40
1.0039252636673981
 50
345.0524309703632753
 51
359.8523174342032007
  0
ARC
  5
25B55
  8
0
 10
4513.4348967981359237
 20
276.1744023410295767
 30
0.0
 40
0.9961107711836623
 50
0.1081062240768237
 51
15.0239436656598002
  0
ARC
  5
25B56
  8
0
 10
4514.0598833705589641
 20
276.3333948908368143
 30
0.0
 40
0.3513749647301416
 50
16.40241934989686
 51
42.8152694150470694
  0
ARC
  5
25B57
  8
0
 10
4513.8226682881659144
 20
276.1100286891272049
 30
0.0
 40
0.6771967974810803
 50
43.0377784392474467
 51
59.1514541751529421
  0
ARC
  5
25B58
  8
0
 10
4513.3917446490613656
 20
275.3883025601456893
 30
0.0
 40
1.5177821777268721
 50
59.1560145245901126
 51
68.7998330920230359
  0
ARC
  5
25B59
  8
0
 10
4513.0655401183494178
 20
274.5780088424626797
 30
0.0
 40
2.391227681931789
 50
68.5337810848951108
 51
72.5564291243051969
  0
ARC
  5
25B5A
  8
0
 10
4513.6153756278699802
 20
275.4459499268216973
 30
0.0
 40
0.0260999280190491
 50
332.0426400531466129
 51
359.845214627729888
  0
ARC
  5
25B5B
  8
0
 10
4513.6077340689462289
 20
275.4518453302277976
 30
0.0
 40
0.0356505920065822
 50
287.3704148948169745
 51
329.4302508761230115
  0
ARC
  5
25B5C
  8
0
 10
4513.567402823538032
 20
275.57572591024649
 30
0.0
 40
0.1659292130658323
 50
269.8930454924898186
 51
287.8910074522650007
  0
ARC
  5
25B5D
  8
0
 10
4513.5636685129293255
 20
275.5339755374387209
 30
0.0
 40
0.1242257632029055
 50
258.8997187230534109
 51
271.5796902833928925
  0
ARC
  5
25B5E
  8
0
 10
4513.5469633495267772
 20
275.4517688843491783
 30
0.0
 40
0.0403448295015037
 50
234.4761369728832108
 51
259.7030623550124915
  0
ARC
  5
25B5F
  8
0
 10
4513.2058053772379935
 20
275.3894608040369008
 30
0.0
 40
0.0445466381669194
 50
286.9308800921833154
 51
310.0180319216016755
  0
ARC
  5
25B60
  8
0
 10
4513.1924801194836618
 20
275.3285982091463211
 30
0.0
 40
0.0259136738018951
 50
322.6426339259277825
 51
358.6461878389321782
  0
ARC
  5
25B61
  8
0
 10
4513.1826140382090671
 20
275.3387181944340227
 30
0.0
 40
0.0399495562481892
 50
282.014721616350414
 51
319.6905264719898128
  0
ARC
  5
25B62
  8
0
 10
4513.1473901138060683
 20
275.4700460276861236
 30
0.0
 40
0.1758768236610931
 50
271.0707138050668163
 51
284.3331313140100747
  0
ARC
  5
25B63
  8
0
 10
4513.1431579729951409
 20
275.4273724692158112
 30
0.0
 40
0.1333846306764146
 50
256.4833111061386717
 51
273.2313696264333203
  0
ARC
  5
25B64
  8
0
 10
4513.1200496829669646
 20
275.3295661110477113
 30
0.0
 40
0.0328885917966357
 50
220.4697289700559111
 51
255.8005461209218936
  0
ARC
  5
25B65
  8
0
 10
4513.1150116202852587
 20
275.3244929556186094
 30
0.0
 40
0.0257699209966842
 50
187.2846882318791017
 51
219.159028438071914
  0
ARC
  5
25B66
  8
0
 10
4512.8061186169752546
 20
275.2928521162596098
 30
0.0
 40
0.0262686226475613
 50
325.4497158028891022
 51
357.0674633651153727
  0
ARC
  5
25B67
  8
0
 10
4512.7997091687702778
 20
275.2982905282075876
 30
0.0
 40
0.0346422002411162
 50
287.7896846863841915
 51
324.0532523602042829
  0
ARC
  5
25B68
  8
0
 10
4512.7725268248241264
 20
275.3780498190408821
 30
0.0
 40
0.1189022514481995
 50
273.6847983125421138
 51
288.5193738122496256
  0
ARC
  5
25B69
  8
0
 10
4512.7639148670750728
 20
275.4530130750558783
 30
0.0
 40
0.1943007088421007
 50
265.3540134605742082
 51
274.7984756056591777
  0
ARC
  5
25B6A
  8
0
 10
4512.7532653163243594
 20
275.3469826027919112
 30
0.0
 40
0.0877794189632059
 50
249.0654401118630972
 51
266.6766837005807815
  0
ARC
  5
25B6B
  8
0
 10
4512.734035730103642
 20
275.2951102565576207
 30
0.0
 40
0.0324655247650442
 50
219.179404710049198
 51
248.0526650796786043
  0
ARC
  5
25B6C
  8
0
 10
4512.729758749440407
 20
275.2911652970220189
 30
0.0
 40
0.0266602771961948
 50
194.4170625308159117
 51
218.4142244450169983
  0
ARC
  5
25B6D
  8
0
 10
4512.659825554782401
 20
275.2526940406049221
 30
0.0
 40
0.025429739852857
 50
330.7650429166861841
 51
357.3389402700735786
  0
ARC
  5
25B6E
  8
0
 10
4512.6563012335182066
 20
275.2552544473302873
 30
0.0
 40
0.0297600528764946
 50
294.3853748407191233
 51
329.7772939277772934
  0
ARC
  5
25B6F
  8
0
 10
4512.6321933477456696
 20
275.3150864026806062
 30
0.0
 40
0.0942478188876552
 50
273.3851285076261206
 51
292.7159311047597043
  0
ARC
  5
25B70
  8
0
 10
4512.6162426358032462
 20
275.4274252096499822
 30
0.0
 40
0.207540468357247
 50
262.2148321225952259
 51
275.9505639076660941
  0
ARC
  5
25B71
  8
0
 10
4512.5918980508677123
 20
275.264530300850879
 30
0.0
 40
0.042898506654597
 50
230.3497945239641069
 51
264.9600353199430742
  0
ARC
  5
25B72
  8
0
 10
4512.5818673178127938
 20
275.2506663173039101
 30
0.0
 40
0.0258476953459362
 50
185.9924762709715935
 51
227.8588359451944996
  0
ARC
  5
25B73
  8
0
 10
4512.4695284327690388
 20
275.3024550894290883
 30
0.0
 40
0.0448672587871754
 50
284.9962942897707876
 51
312.1533211500383231
  0
ARC
  5
25B74
  8
0
 10
4512.4479227489027835
 20
275.3770098540658182
 30
0.0
 40
0.1224836614082896
 50
273.0797528753328152
 51
285.7346234224049795
  0
ARC
  5
25B75
  8
0
 10
4512.4422983889826355
 20
275.4035372251840954
 30
0.0
 40
0.1493337154802441
 50
256.4269513263379281
 51
274.6879616016065029
  0
ARC
  5
25B76
  8
0
 10
4512.4206455326548166
 20
275.3108567837928717
 30
0.0
 40
0.0541646582941481
 50
240.8643061412867894
 51
255.6837420959371912
  0
ARC
  5
25B77
  8
0
 10
4512.3220232097291955
 20
275.2490182221714008
 30
0.0
 40
0.0265786263195489
 50
313.1996587061627224
 51
355.975805046142284
  0
ARC
  5
25B78
  8
0
 10
4512.3073471678835631
 20
275.2697549531067125
 30
0.0
 40
0.051859537633038
 50
278.284803792722812
 51
309.3334293977476932
  0
ARC
  5
25B79
  8
0
 10
4512.2829619068534157
 20
275.3954682320405141
 30
0.0
 40
0.1798752829054384
 50
267.7338667972185249
 51
280.2015303693444821
  0
ARC
  5
25B7A
  8
0
 10
4512.2779826617679646
 20
275.3492075203466243
 30
0.0
 40
0.1334909443294137
 50
256.1311517628903971
 51
269.0843531815232836
  0
ARC
  5
25B7B
  8
0
 10
4512.2554132939239935
 20
275.2603388431746225
 30
0.0
 40
0.041807621469211
 50
227.9922654947199021
 51
256.9665600954181741
  0
ARC
  5
25B7C
  8
0
 10
4512.2458220551516206
 20
275.2483549998277113
 30
0.0
 40
0.026499275107371
 50
184.9514558336931884
 51
226.0607727047564026
  0
ARC
  5
25B7D
  8
0
 10
4512.0686361711332211
 20
275.2258779350527789
 30
0.0
 40
0.0256077359303716
 50
318.0286512317135248
 51
355.6672092564003265
  0
ARC
  5
25B7E
  8
0
 10
4512.0631023660371284
 20
275.2317264883398025
 30
0.0
 40
0.0336395099018337
 50
286.5560128863064051
 51
316.925747509084772
  0
ARC
  5
25B7F
  8
0
 10
4512.0416763290568269
 20
275.3030382642912741
 30
0.0
 40
0.1081004376384236
 50
275.0267764811778761
 51
286.6711738894019277
  0
ARC
  5
25B80
  8
0
 10
4512.0298551030236922
 20
275.4156643690704982
 30
0.0
 40
0.2213373755849742
 50
269.9389918512118811
 51
275.5205134927987842
  0
ARC
  5
25B81
  8
0
 10
4512.6142434637840779
 20
277.1318884387919184
 30
0.0
 40
0.010853783203749
 50
188.3266339327365131
 51
220.5119111460087993
  0
ARC
  5
25B82
  8
0
 10
4506.142659663856648
 20
276.8844327840199071
 30
0.0
 40
6.4670229763796652
 50
2.6662349243753809
 51
3.8473518858391769
  0
ARC
  5
25B83
  8
0
 10
4512.7887441112197848
 20
277.5563024171851225
 30
0.0
 40
0.4737857952156127
 50
255.9958263695708069
 51
262.9406782460849854
  0
ARC
  5
25B84
  8
0
 10
4512.7381356293553836
 20
277.3602310803642013
 30
0.0
 40
0.2713002511090928
 50
246.0246579578677881
 51
256.3456627860689991
  0
ARC
  5
25B85
  8
0
 10
4512.6729566424110089
 20
277.2167427236929029
 30
0.0
 40
0.1137138240955257
 50
233.9216834336970123
 51
246.6544028405160134
  0
ARC
  5
25B86
  8
0
 10
4512.3981920718342735
 20
277.0463626763914817
 30
0.0
 40
0.2274069696017303
 50
27.4949486188838712
 51
46.4943329988631575
  0
ARC
  5
25B87
  8
0
 10
4512.2945550946769799
 20
276.9137667410178096
 30
0.0
 40
0.3952546661257701
 50
48.8308494637262314
 51
85.9470934791617367
  0
ARC
  5
25B88
  8
0
 10
4512.2083482225525586
 20
276.1251320851400806
 30
0.0
 40
1.1883951330438769
 50
84.4883805165527235
 51
92.621801753977465
  0
ARC
  5
25B89
  8
0
 10
4512.0149209952769525
 20
280.5886746384978778
 30
0.0
 40
3.2793413947212628
 50
270.2567924479700991
 51
272.4304589500928273
  0
ARC
  5
25B8A
  8
0
 10
4512.0281300614506108
 20
277.1164027753530945
 30
0.0
 40
0.6062306265774225
 50
22.1949373181200791
 51
40.4194728279844568
  0
ARC
  5
25B8B
  8
0
 10
4511.9622425608285994
 20
277.0676909789527826
 30
0.0
 40
0.6879987325241058
 50
39.9502006256055182
 51
65.5064584018650891
  0
ARC
  5
25B8C
  8
0
 10
4512.0173061114328448
 20
277.1894647579061939
 30
0.0
 40
0.5543549129332391
 50
65.4673898841982265
 51
83.2937956879257939
  0
ARC
  5
25B8D
  8
0
 10
4512.1691352666848616
 20
277.3051047483551201
 30
0.0
 40
0.4141108808763655
 50
9.3134265143393584
 51
47.7788367573326127
  0
ARC
  5
25B8E
  8
0
 10
4511.9668603880063529
 20
277.1561737544209905
 30
0.0
 40
0.6621990707619263
 50
43.4732524195215007
 51
64.5590316743952854
  0
ARC
  5
25B8F
  8
0
 10
4512.0223662280923236
 20
277.2757539390847796
 30
0.0
 40
0.5303719856101353
 50
64.4244247166664508
 51
89.2165349491096151
  0
LINE
  5
25B91
  8
0
 10
4498.0350571733843026
 20
277.0617668318569145
 30
0.0
 11
4498.0350571733843026
 21
275.2780553789622218
 31
0.0
  0
LINE
  5
25B92
  8
0
 10
4510.3263957558847324
 20
277.0617705574035199
 30
0.0
 11
4510.3263957558847324
 21
276.8746322082487268
 31
0.0
  0
LINE
  5
25B93
  8
0
 10
4510.3263957558847324
 20
275.4778388388292001
 30
0.0
 11
4510.3263957558847324
 21
275.2901160054746015
 31
0.0
  0
LINE
  5
25B94
  8
0
 10
4508.2791516614852299
 20
275.2428625067921075
 30
0.0
 11
4508.2791516614852299
 21
277.1090213322614773
 31
0.0
  0
LINE
  5
25B95
  8
0
 10
4508.2082855197850222
 20
275.2310600298213785
 30
0.0
 11
4508.2082855197850222
 21
277.1208238093215073
 31
0.0
  0
LINE
  5
25B96
  8
0
 10
4500.1374193779838606
 20
275.2310600298213785
 30
0.0
 11
4500.1374193779838606
 21
277.1208238093215073
 31
0.0
  0
LINE
  5
25B97
  8
0
 10
4500.0823012677838051
 20
275.2310600298213785
 30
0.0
 11
4500.0823012677838051
 21
277.1208238093215073
 31
0.0
  0
ENDSEC
  0
EOF
