  0
SECTION
  2
HEADER
  9
$ACADVER
  1
AC1009
  9
$INSBASE
 10
4475.4935367177786247
 20
280.5522025529555208
 30
0.0
  9
$EXTMIN
 10
4467.3309694815816329
 20
263.3694394806677224
 30
-0.0000000349181948
  9
$EXTMAX
 10
4475.5577143253140093
 20
297.270318078262676
 30
0.0000000814935746
  9
$LIMMIN
 10
0.0
 20
0.0
  9
$LIMMAX
 10
11.6929133858000007
 20
8.2677165353999982
  9
$ORTHOMODE
 70
     1
  9
$REGENMODE
 70
     1
  9
$FILLMODE
 70
     1
  9
$QTEXTMODE
 70
     0
  9
$MIRRTEXT
 70
     0
  9
$DRAGMODE
 70
     2
  9
$LTSCALE
 40
0.6431102362
  9
$OSMODE
 70
   575
  9
$ATTMODE
 70
     1
  9
$TEXTSIZE
 40
0.2
  9
$TRACEWID
 40
0.05
  9
$TEXTSTYLE
  7
STANDARD
  9
$CLAYER
  8
0
  9
$CELTYPE
  6
BYLAYER
  9
$CECOLOR
 62
   256
  9
$DIMSCALE
 40
1.0
  9
$DIMASZ
 40
0.1875
  9
$DIMEXO
 40
0.0625
  9
$DIMDLI
 40
0.4443307087
  9
$DIMRND
 40
0.0
  9
$DIMDLE
 40
0.0
  9
$DIMEXE
 40
0.125
  9
$DIMTP
 40
0.01
  9
$DIMTM
 40
0.01
  9
$DIMTXT
 40
2.0
  9
$DIMCEN
 40
0.1052362205
  9
$DIMTSZ
 40
0.0
  9
$DIMTOL
 70
     1
  9
$DIMLIM
 70
     0
  9
$DIMTIH
 70
     1
  9
$DIMTOH
 70
     1
  9
$DIMSE1
 70
     0
  9
$DIMSE2
 70
     0
  9
$DIMTAD
 70
     0
  9
$DIMZIN
 70
     0
  9
$DIMBLK
  1

  9
$DIMASO
 70
     1
  9
$DIMSHO
 70
     1
  9
$DIMPOST
  1
\X
  9
$DIMAPOST
  1

  9
$DIMALT
 70
     1
  9
$DIMALTD
 70
     2
  9
$DIMALTF
 40
25.3999999999999986
  9
$DIMLFAC
 40
1.0
  9
$DIMTOFL
 70
     0
  9
$DIMTVP
 40
0.0
  9
$DIMTIX
 70
     0
  9
$DIMSOXD
 70
     0
  9
$DIMSAH
 70
     0
  9
$DIMBLK1
  1

  9
$DIMBLK2
  1

  9
$DIMSTYLE
  2
STANDARD
  9
$DIMCLRD
 70
     0
  9
$DIMCLRE
 70
     0
  9
$DIMCLRT
 70
     0
  9
$DIMTFAC
 40
1.0
  9
$DIMGAP
 40
0.09
  9
$LUNITS
 70
     2
  9
$LUPREC
 70
     4
  9
$SKETCHINC
 40
0.1
  9
$FILLETRAD
 40
0.0
  9
$AUNITS
 70
     0
  9
$AUPREC
 70
     0
  9
$MENU
  1
.
  9
$ELEVATION
 40
0.0
  9
$PELEVATION
 40
0.0
  9
$THICKNESS
 40
0.0
  9
$LIMCHECK
 70
     0
  9
$BLIPMODE
 70
     0
  9
$CHAMFERA
 40
0.0
  9
$CHAMFERB
 40
0.0
  9
$SKPOLY
 70
     0
  9
$TDCREATE
 40
2458060.468368056230247
  9
$TDUPDATE
 40
2459369.81921296287328
  9
$TDINDWG
 40
0.5368936343
  9
$TDUSRTIMER
 40
0.5368936343
  9
$USRTIMER
 70
     1
  9
$ANGBASE
 50
0.0
  9
$ANGDIR
 70
     0
  9
$PDMODE
 70
     0
  9
$PDSIZE
 40
0.3125
  9
$PLINEWID
 40
0.0
  9
$COORDS
 70
     2
  9
$SPLFRAME
 70
     0
  9
$SPLINETYPE
 70
     6
  9
$SPLINESEGS
 70
     8
  9
$ATTDIA
 70
     1
  9
$ATTREQ
 70
     1
  9
$HANDLING
 70
     1
  9
$HANDSEED
  5
2623A
  9
$SURFTAB1
 70
     6
  9
$SURFTAB2
 70
     6
  9
$SURFTYPE
 70
     6
  9
$SURFU
 70
     6
  9
$SURFV
 70
     6
  9
$UCSNAME
  2

  9
$UCSORG
 10
0.0
 20
0.0
 30
0.0
  9
$UCSXDIR
 10
1.0
 20
0.0
 30
0.0
  9
$UCSYDIR
 10
0.0
 20
1.0
 30
0.0
  9
$PUCSNAME
  2

  9
$PUCSORG
 10
0.0
 20
0.0
 30
0.0
  9
$PUCSXDIR
 10
1.0
 20
0.0
 30
0.0
  9
$PUCSYDIR
 10
0.0
 20
1.0
 30
0.0
  9
$USERI1
 70
     0
  9
$USERI2
 70
     0
  9
$USERI3
 70
     0
  9
$USERI4
 70
     0
  9
$USERI5
 70
     0
  9
$USERR1
 40
0.0
  9
$USERR2
 40
0.0
  9
$USERR3
 40
0.0
  9
$USERR4
 40
0.0
  9
$USERR5
 40
0.0
  9
$WORLDVIEW
 70
     1
  9
$SHADEDGE
 70
     3
  9
$SHADEDIF
 70
    70
  9
$TILEMODE
 70
     1
  9
$MAXACTVP
 70
    64
  9
$PLIMCHECK
 70
     0
  9
$PEXTMIN
 10
1.0000000000000000E+20
 20
1.0000000000000000E+20
 30
1.0000000000000000E+20
  9
$PEXTMAX
 10
-1.0000000000000000E+20
 20
-1.0000000000000000E+20
 30
-1.0000000000000000E+20
  9
$PLIMMIN
 10
0.0
 20
0.0
  9
$PLIMMAX
 10
12.0
 20
9.0
  9
$UNITMODE
 70
     0
  9
$VISRETAIN
 70
     1
  9
$PLINEGEN
 70
     0
  9
$PSLTSCALE
 70
     1
  0
ENDSEC
  0
SECTION
  2
TABLES
  0
TABLE
  2
VPORT
 70
     1
  0
VPORT
  2
*ACTIVE
 70
     0
 10
0.0
 20
0.0
 11
1.0
 21
1.0
 12
564.5793358879559491
 22
148.7402281271837126
 13
0.0
 23
0.0
 14
1.0
 24
1.0
 15
0.0
 25
0.0
 16
0.0
 26
0.0
 36
60.4960186965801583
 17
3911.3653564453120453
 27
132.5796051025390057
 37
0.0
 40
3.9573039198245961
 41
2.5241264559068211
 42
50.0
 43
0.0
 44
0.0
 50
0.0
 51
0.0
 71
     0
 72
   100
 73
     1
 74
     1
 75
     0
 76
     0
 77
     0
 78
     0
  0
ENDTAB
  0
TABLE
  2
LTYPE
 70
     2
  0
LTYPE
  2
CONTINUOUS
 70
     0
  3
Solid line
 72
    65
 73
     0
 40
0.0
  0
LTYPE
  2
PHANTOM2
 70
     0
  3
___ _ _ ___ _ _ ___ _ _ ___ _ _
 72
    65
 73
     6
 40
1.25
 49
0.625
 49
-0.125
 49
0.125
 49
-0.125
 49
0.125
 49
-0.125
  0
ENDTAB
  0
TABLE
  2
LAYER
 70
     2
  0
LAYER
  2
0
 70
     0
 62
   255
  6
CONTINUOUS
  0
LAYER
  2
DEFPOINTS
 70
     0
 62
     7
  6
CONTINUOUS
  0
ENDTAB
  0
TABLE
  2
STYLE
 70
     1
  0
STYLE
  2
STANDARD
 70
     0
 40
0.0
 41
0.8
 50
0.0
 71
     0
 42
0.2
  3
txt
  4

  0
ENDTAB
  0
TABLE
  2
VIEW
 70
     2
  0
ENDTAB
  0
TABLE
  2
UCS
 70
     0
  0
ENDTAB
  0
TABLE
  2
APPID
 70
    11
  0
APPID
  2
ACAD
 70
     0
  0
APPID
  2
ACAD_MLEADERVER
 70
     0
  0
APPID
  2
ACAD_EXEMPT_FROM_CAD_STANDARDS
 70
     0
  0
APPID
  2
ACAD_NAV_VCDISPLAY
 70
     0
  0
APPID
  2
ACAECLAYERSTANDARD
 70
     0
  0
APPID
  2
ACCMTRANSPARENCY
 70
     0
  0
APPID
  2
ACAD_DSTYLE_DIMJAG
 70
     0
  0
APPID
  2
ACAD_DSTYLE_DIMTALN
 70
     0
  0
APPID
  2
ACDBATTR
 70
     0
  0
APPID
  2
ACADANNOTATIVE
 70
     0
  0
APPID
  2
DCO15
 70
     0
  0
ENDTAB
  0
TABLE
  2
DIMSTYLE
 70
     1
  0
DIMSTYLE
  2
STANDARD
 70
     0
  3

  4

  5

  6

  7

 40
1.0
 41
0.1875
 42
0.0625
 43
0.38
 44
0.125
 45
0.0
 46
0.0
 47
0.01
 48
0.01
140
0.15625
141
0.09
142
0.0
143
25.3999999999999986
144
1.0
145
0.0
146
1.0
147
0.09
 71
     1
 72
     0
 73
     1
 74
     1
 75
     0
 76
     0
 77
     0
 78
     4
170
     0
171
     2
172
     0
173
     0
174
     0
175
     0
176
     0
177
     0
178
     0
  0
ENDTAB
  0
ENDSEC
  0
SECTION
  2
BLOCKS
  0
BLOCK
  8
0
  2
$MODEL_SPACE
 70
     0
 10
0.0
 20
0.0
 30
0.0
  3
$MODEL_SPACE
  1

  0
ENDBLK
  5
21
  8
0
  0
BLOCK
 67
     1
  8
0
  2
$PAPER_SPACE
 70
     0
 10
0.0
 20
0.0
 30
0.0
  3
$PAPER_SPACE
  1

  0
ENDBLK
  5
1D
 67
     1
  8
0
  0
BLOCK
  8
0
  2
_CLOSED
 70
     0
 10
0.0
 20
0.0
 30
0.0
  3
_CLOSED
  1

  0
LINE
  5
255C0
  8
0
  6
BYBLOCK
 62
     0
 10
0.0
 20
0.0
 30
0.0
 11
-1.0
 21
0.1666666667
 31
0.0
  0
LINE
  5
255C1
  8
0
  6
BYBLOCK
 62
     0
 10
-1.0
 20
0.1666666667
 30
0.0
 11
-1.0
 21
-0.1666666667
 31
0.0
  0
LINE
  5
255C2
  8
0
  6
BYBLOCK
 62
     0
 10
-1.0
 20
-0.1666666667
 30
0.0
 11
0.0
 21
0.0
 31
0.0
  0
LINE
  5
255C3
  8
0
  6
BYBLOCK
 62
     0
 10
-1.0
 20
0.0
 30
0.0
 11
0.0
 21
0.0
 31
0.0
  0
ENDBLK
  5
255C4
  8
0
  6
BYBLOCK
 62
     0
  0
ENDSEC
  0
SECTION
  2
ENTITIES
  0
ATTDEF
  5
20106
  8
DEFPOINTS
 10
4475.4937326398603545
 20
280.5556240768110001
 30
0.0
 40
0.001
  1
K-72646X-9
  3

  2
MODELNUMBER
 70
     0
1001
ACDBATTR
1070
     0
1070
     1
  0
ATTDEF
  5
20107
  8
DEFPOINTS
 10
4475.4937329334516107
 20
280.5539572364318133
 30
0.0
 40
0.001
  1
OBLO
  3

  2
TRADENAME
 70
     0
1001
ACDBATTR
1070
     0
1070
     1
  0
ATTDEF
  5
20108
  8
DEFPOINTS
 10
4475.4937326398603545
 20
280.552290743477613
 30
0.0
 40
0.001
  1
 BATH AND SHOWER FAUCET 
  3

  2
PRODUCT
 70
     0
1001
ACDBATTR
1070
     0
1070
     1
  0
LINE
  5
25E3C
  8
0
 10
4471.1854032404799
 20
296.1234325126055182
 30
0.0
 11
4471.212514453314725
 21
296.132829151895919
 31
0.0
  0
LINE
  5
25E3D
  8
0
 10
4471.2085361891804496
 20
296.2439518462055048
 30
0.0
 11
4471.2426935087796664
 21
296.25468200180552
 31
0.0
  0
LINE
  5
25E3E
  8
0
 10
4471.1655243872801293
 20
296.3951428313055203
 30
0.0
 11
4471.2121195356658063
 21
296.4095209297325937
 31
0.0
  0
LINE
  5
25E3F
  8
0
 10
4471.196809192980254
 20
296.9452528366055049
 30
0.0
 11
4471.2024424610481219
 21
296.9469001194963766
 31
0.0
  0
LINE
  5
25E40
  8
0
 10
4471.2446621903800406
 20
296.3568605194054726
 30
0.0
 11
4471.2896330612802558
 21
296.3698041528055001
 31
0.0
  0
LINE
  5
25E41
  8
0
 10
4471.2452414366798621
 20
295.2077177273055213
 30
0.0
 11
4471.2721762494802533
 21
295.2175211974055173
 31
0.0
  0
LINE
  5
25E42
  8
0
 10
4471.2754372448789582
 20
295.1024124295054776
 30
0.0
 11
4471.3026890590799667
 21
295.1123312787054829
 31
0.0
  0
LINE
  5
25E43
  8
0
 10
4471.4397259619800025
 20
295.2336745140054859
 30
0.0
 11
4471.4790894168691011
 21
295.2478521569843792
 31
0.0
  0
LINE
  5
25E44
  8
0
 10
4471.5353494880801009
 20
295.0951766551054902
 30
0.0
 11
4471.5730671759292818
 21
295.1086427151898874
 31
0.0
  0
LINE
  5
25E45
  8
0
 10
4471.3371222999803649
 20
295.5926370588055079
 30
0.0
 11
4471.3792577703788993
 21
295.6075817693055114
 31
0.0
  0
LINE
  5
25E46
  8
0
 10
4471.2556959917801578
 20
295.8775103371054911
 30
0.0
 11
4471.2832984315282374
 21
295.8871805147293799
 31
0.0
  0
LINE
  5
25E47
  8
0
 10
4471.2392014861788994
 20
296.0728467192151925
 30
0.0
 11
4471.2492075788650254
 21
296.0763243784650172
 31
0.0
  0
LINE
  5
25E48
  8
0
 10
4471.2903842009800428
 20
295.3575663833054818
 30
0.0
 11
4471.3163963220786172
 21
295.3665230749055013
 31
0.0
  0
LINE
  5
25E49
  8
0
 10
4471.4029620112787597
 20
295.5605265123055005
 30
0.0
 11
4471.4438069101788642
 21
295.5743942198055265
 31
0.0
  0
LINE
  5
25E4A
  8
0
 10
4471.5055156442786028
 20
295.4368772359055129
 30
0.0
 11
4471.544802321566749
 21
295.4500725539097061
 31
0.0
  0
LINE
  5
25E4B
  8
0
 10
4471.2523250023796209
 20
295.6201554663055049
 30
0.0
 11
4471.2921475829989504
 21
295.6334799154204802
 31
0.0
  0
LINE
  5
25E4C
  8
0
 10
4471.3525261809800213
 20
295.2707124285054761
 30
0.0
 11
4471.3836090127797434
 21
295.2811125985055014
 31
0.0
  0
LINE
  5
25E4D
  8
0
 10
4471.2632769486799589
 20
295.3026075972055082
 30
0.0
 11
4471.2697375292127617
 21
295.3047382430276002
 31
0.0
  0
LINE
  5
25E4E
  8
0
 10
4471.2903508012786915
 20
295.9563650926054947
 30
0.0
 11
4471.3339006456799325
 21
295.9705089466054915
 31
0.0
  0
LINE
  5
25E4F
  8
0
 10
4471.3600761820789558
 20
295.9498162532054835
 30
0.0
 11
4471.4025052028337086
 21
295.9629231948471784
 31
0.0
  0
LINE
  5
25E50
  8
0
 10
4471.8280073186797381
 20
294.2995545559055017
 30
0.0
 11
4471.8605898529785918
 21
294.3124964021055234
 31
0.0
  0
LINE
  5
25E51
  8
0
 10
4471.8069572940803482
 20
294.1404838100054917
 30
0.0
 11
4471.8384443713794099
 21
294.1528737973055172
 31
0.0
  0
LINE
  5
25E52
  8
0
 10
4471.7698079217798295
 20
294.0788763492054727
 30
0.0
 11
4471.7980262527689774
 21
294.0895416160973923
 31
0.0
  0
LINE
  5
25E53
  8
0
 10
4471.6745565334786079
 20
294.6058631783055262
 30
0.0
 11
4471.7090494854801364
 21
294.6188193971054829
 31
0.0
  0
LINE
  5
25E54
  8
0
 10
4471.6672022307793668
 20
294.4378434017054929
 30
0.0
 11
4471.7005227553790974
 21
294.4502522280055246
 31
0.0
  0
LINE
  5
25E55
  8
0
 10
4471.553463708878553
 20
294.8357598188055135
 30
0.0
 11
4471.5897882000363097
 21
294.8490647320592757
 31
0.0
  0
LINE
  5
25E56
  8
0
 10
4471.6667517530786427
 20
294.8682375119054768
 30
0.0
 11
4471.7026397139179608
 21
294.881381960606177
 31
0.0
  0
LINE
  5
25E57
  8
0
 10
4471.3172149487918432
 20
294.9567160324692168
 30
0.0
 11
4471.3315631031582598
 21
294.9619383337008003
 31
0.0
  0
LINE
  5
25E58
  8
0
 10
4471.3280809824800599
 20
294.9188218985054846
 30
0.0
 11
4471.3505921167798078
 21
294.9270152814054882
 31
0.0
  0
LINE
  5
25E59
  8
0
 10
4471.3739960282800894
 20
294.7586971046055169
 30
0.0
 11
4471.3886772621626733
 21
294.7640406367996775
 31
0.0
  0
LINE
  5
25E5A
  8
0
 10
4471.4749313185793653
 20
294.406693915705489
 30
0.0
 11
4471.4896969993797029
 21
294.4120681840054772
 31
0.0
  0
LINE
  5
25E5B
  8
0
 10
4471.5060432851796577
 20
294.735334631105502
 30
0.0
 11
4471.52386909948018
 21
294.7412990651055225
 31
0.0
  0
LINE
  5
25E5C
  8
0
 10
4471.6410439680066702
 20
294.26453129977358
 30
0.0
 11
4471.6473430080786784
 21
294.2666389291055111
 31
0.0
  0
LINE
  5
25E5D
  8
0
 10
4471.4953644781799085
 20
294.4418038531055117
 30
0.0
 11
4471.4898426688787367
 21
294.440020996405508
 31
0.0
  0
LINE
  5
25E5E
  8
0
 10
4471.5219124942796043
 20
294.4007323340055109
 30
0.0
 11
4471.5283843774986963
 21
294.4027294884423895
 31
0.0
  0
LINE
  5
25E5F
  8
0
 10
4472.0889742024801308
 20
293.3793191155054956
 30
0.0
 11
4472.1164179357792818
 21
293.391626505705517
 31
0.0
  0
LINE
  5
25E60
  8
0
 10
4472.0444510671786702
 20
293.3057427194054867
 30
0.0
 11
4472.0706998070218106
 21
293.31692531936352
 31
0.0
  0
LINE
  5
25E61
  8
0
 10
4471.973497607779791
 20
293.7865025751054873
 30
0.0
 11
4472.0031822082437429
 21
293.799136162589889
 31
0.0
  0
LINE
  5
25E62
  8
0
 10
4472.0014260517800722
 20
293.4569631278055226
 30
0.0
 11
4472.0286089805786105
 21
293.4683823041054893
 31
0.0
  0
LINE
  5
25E63
  8
0
 10
4471.91958997437996
 20
293.7445975255055259
 30
0.0
 11
4471.9485679393810642
 21
293.7564450641054918
 31
0.0
  0
LINE
  5
25E64
  8
0
 10
4471.9035174837799786
 20
293.6110935633054737
 30
0.0
 11
4471.9307071005787293
 21
293.6215673063055078
 31
0.0
  0
LINE
  5
25E65
  8
0
 10
4471.8512367375797112
 20
293.7939974998055277
 30
0.0
 11
4471.8797698228909212
 21
293.8049077083530278
 31
0.0
  0
LINE
  5
25E66
  8
0
 10
4472.2088849008787292
 20
292.9971333383055025
 30
0.0
 11
4472.2552045479787921
 21
293.0109899863055034
 31
0.0
  0
LINE
  5
25E67
  8
0
 10
4472.133241533079854
 20
293.2580160854054725
 30
0.0
 11
4472.1782380751801611
 21
293.2708701926055141
 31
0.0
  0
LINE
  5
25E68
  8
0
 10
4472.1631222472788068
 20
293.1178807516055258
 30
0.0
 11
4472.1891553730802116
 21
293.1299419441054965
 31
0.0
  0
LINE
  5
25E69
  8
0
 10
4471.2703442562797136
 20
295.3205692497054997
 30
0.0
 11
4471.2858226928792647
 21
295.3534730672055275
 31
0.0
  0
LINE
  5
25E6A
  8
0
 10
4467.623900049178701
 20
278.9274507689054872
 30
0.0
 11
4467.7106418172788835
 21
278.7938937790054865
 31
0.0
  0
LINE
  5
25E6B
  8
0
 10
4467.8128376245786058
 20
278.6365420822054944
 30
0.0
 11
4467.9264909286794136
 21
278.4615491865055219
 31
0.0
  0
LINE
  5
25E6C
  8
0
 10
4468.0286867359800453
 20
278.3041974897054729
 30
0.0
 11
4468.1154285041793628
 21
278.1706404998054722
 31
0.0
  0
LINE
  5
25E6D
  8
0
 10
4467.3480781606804157
 20
279.3666249761055269
 30
0.0
 11
4468.1783028952786481
 21
278.073843982005485
 31
0.0
  0
LINE
  5
25E6E
  8
0
 10
4471.6851498271789751
 20
277.4817418301054772
 30
0.0
 11
4472.4347834540785698
 21
277.4817418301054772
 31
0.0
  0
LINE
  5
25E6F
  8
0
 10
4471.4635107778785823
 20
278.9188667435054754
 30
0.0
 11
4472.6564233334802339
 21
278.9188667435054754
 31
0.0
  0
LINE
  5
25E70
  8
0
 10
4471.448761656581155
 20
279.1639328445056094
 30
0.0
 11
4472.6711716245799835
 21
279.1639328445056094
 31
0.0
  0
LINE
  5
25E71
  8
0
 10
4472.5885254361792249
 20
279.1973240721055163
 30
0.0
 11
4471.5314078450801389
 21
279.1973240721055163
 31
0.0
  0
LINE
  5
25E72
  8
0
 10
4471.6654804966801748
 20
277.5008710137054777
 30
0.0
 11
4471.6075532919785473
 21
278.9105503368054997
 31
0.0
  0
LINE
  5
25E73
  8
0
 10
4471.4241398689800917
 20
278.95823682230548
 30
0.0
 11
4471.4241398689800917
 21
279.1274295431055066
 31
0.0
  0
LINE
  5
25E74
  8
0
 10
4471.5560296326793832
 20
279.2338273735055054
 30
0.0
 11
4471.5560296326793832
 21
279.5763470585055188
 31
0.0
  0
LINE
  5
25E75
  8
0
 10
4467.623900049178701
 20
278.9274507689054872
 30
0.0
 11
4467.6282865324155864
 21
278.9302996749290742
 31
0.0
  0
LINE
  5
25E76
  8
0
 10
4467.6846641097063184
 20
278.8425115648228143
 30
0.0
 11
4467.6807267011663498
 21
278.839954321096684
 31
0.0
  0
LINE
  5
25E77
  8
0
 10
4467.7106418172788835
 20
278.7938937790054865
 30
0.0
 11
4467.714342820487218
 21
278.7962974837100774
 31
0.0
  0
LINE
  5
25E78
  8
0
 10
4467.8128376245786058
 20
278.6365420822054944
 30
0.0
 11
4467.8157310216065525
 21
278.6384212678232757
 31
0.0
  0
LINE
  5
25E79
  8
0
 10
4467.9284861762616856
 20
278.4628450474941133
 30
0.0
 11
4467.9264909286794136
 21
278.4615491865055219
 31
0.0
  0
LINE
  5
25E7A
  8
0
 10
4468.0298743773828392
 20
278.3049688316073116
 30
0.0
 11
4468.0286867359800453
 21
278.3041974897054729
 31
0.0
  0
LINE
  5
25E7B
  8
0
 10
4468.0586018521180449
 20
278.2581369476300779
 30
0.0
 11
4468.0595530881628292
 21
278.2587547504945746
 31
0.0
  0
LINE
  5
25E7C
  8
0
 10
4468.1159306654535612
 20
278.1709666403882011
 30
0.0
 11
4468.1154285041793628
 21
278.1706404998054722
 31
0.0
  0
LINE
  5
25E7D
  8
0
 10
4471.5002067576797344
 20
279.5595936377055182
 30
0.0
 11
4471.5383130977797919
 21
279.5595936377055182
 31
0.0
  0
LINE
  5
25E7E
  8
0
 10
4472.5816201833786181
 20
279.5595936377055182
 30
0.0
 11
4472.9040983028417031
 21
279.5595936377055182
 31
0.0
  0
LINE
  5
25E7F
  8
0
 10
4472.5639036484799362
 20
279.5763470585055188
 30
0.0
 11
4471.5560296326793832
 21
279.5763470585055188
 31
0.0
  0
LINE
  5
25E80
  8
0
 10
4471.7241991480250363
 20
279.7234623955055213
 30
0.0
 11
4472.3957491871024104
 21
279.7234623955055213
 31
0.0
  0
LINE
  5
25E81
  8
0
 10
4471.7481164617338436
 20
279.7431474867054817
 30
0.0
 11
4472.3718377906661772
 21
279.7431474867054817
 31
0.0
  0
LINE
  5
25E82
  8
0
 10
4471.8434370169788963
 20
279.8730686947055233
 30
0.0
 11
4472.3759710677686599
 21
279.873069496840003
 31
0.0
  0
LINE
  5
25E83
  8
0
 10
4473.576213997580453
 20
279.9124387734054835
 30
0.0
 11
4474.2533792321792134
 21
279.9124387734054835
 31
0.0
  0
LINE
  5
25E84
  8
0
 10
4473.576213997580453
 20
280.3061395608056046
 30
0.0
 11
4473.9699146705788735
 21
280.3061395608056046
 31
0.0
  0
LINE
  5
25E85
  8
0
 10
4474.33143226087941
 20
279.370539886705501
 30
0.0
 11
4475.4935367177786247
 21
279.3603983548055112
 31
0.0
  0
LINE
  5
25E86
  8
0
 10
4472.5885254361792249
 20
279.1973240721055163
 30
0.0
 11
4472.6711716245799835
 21
279.1639328445056094
 31
0.0
  0
LINE
  5
25E87
  8
0
 10
4471.5160397659801674
 20
294.9001031167055089
 30
0.0
 11
4471.5170321123787289
 21
294.8877878539054791
 31
0.0
  0
LINE
  5
25E88
  8
0
 10
4471.1960629553032049
 20
296.6251837469953898
 30
0.0
 11
4471.1922303684787039
 21
296.7209661469054822
 31
0.0
  0
LINE
  5
25E89
  8
0
 10
4471.6209902626796975
 20
279.5763470585055188
 30
0.0
 11
4471.6209902626796975
 21
279.6350439038628792
 31
0.0
  0
LINE
  5
25E8A
  8
0
 10
4472.4989430185796664
 20
279.5763470585055188
 30
0.0
 11
4472.4989430185796664
 21
279.635044238872581
 31
0.0
  0
LINE
  5
25E8B
  8
0
 10
4472.5639036484799362
 20
279.2338273735055054
 30
0.0
 11
4472.5639036484799362
 21
279.5763470585055188
 31
0.0
  0
LINE
  5
25E8C
  8
0
 10
4472.6957934122801817
 20
278.95823682230548
 30
0.0
 11
4472.6957934122801817
 21
279.1274295431055066
 31
0.0
  0
LINE
  5
25E8D
  8
0
 10
4472.4544527844800541
 20
277.5008710137054777
 30
0.0
 11
4472.5123799891789531
 21
278.9105503369054873
 31
0.0
  0
LINE
  5
25E8E
  8
0
 10
4473.5565288437801428
 20
281.172281182205495
 30
0.0
 11
4473.576213997580453
 21
281.1919663325055012
 31
0.0
  0
LINE
  5
25E8F
  8
0
 10
4471.5314078450801389
 20
279.1973240721055163
 30
0.0
 11
4471.448761656581155
 21
279.1639328445056094
 31
0.0
  0
LINE
  5
25E90
  8
0
 10
4471.1581882293421586
 20
280.5029899545056082
 30
0.0
 11
4471.1660827612276989
 21
280.5029899545056082
 31
0.0
  0
LINE
  5
25E91
  8
0
 10
4471.1581882293348826
 20
280.6014151514054902
 30
0.0
 11
4471.166082761222242
 21
280.6014151514054902
 31
0.0
  0
LINE
  5
25E92
  8
0
 10
4473.9699146705788735
 20
280.7982655451056075
 30
0.0
 11
4473.576213997580453
 21
280.7982655451056075
 31
0.0
  0
LINE
  5
25E93
  8
0
 10
4473.576213997580453
 20
281.1919663325055012
 30
0.0
 11
4474.2533792321792134
 21
281.1919663325055012
 31
0.0
  0
LINE
  5
25E94
  8
0
 10
4472.3749243656302497
 20
281.2313364112993099
 30
0.0
 11
4471.8434342256960008
 21
281.2313364112987983
 31
0.0
  0
LINE
  5
25E95
  8
0
 10
4473.5565288437801428
 20
279.9321239237054897
 30
0.0
 11
4473.576213997580453
 21
279.9124387734054835
 31
0.0
  0
LINE
  5
25E96
  8
0
 10
4471.7002510661795895
 20
294.2654059880055115
 30
0.0
 11
4471.700251308479892
 21
294.2654036228054792
 31
0.0
  0
LINE
  5
25E97
  8
0
 10
4472.7958487597788917
 20
286.678608208905473
 30
0.0
 11
4472.7379214481798044
 21
288.0688636878055036
 31
0.0
  0
LINE
  5
25E98
  8
0
 10
4473.061959381880115
 20
287.3852110659055938
 30
0.0
 11
4473.061959381779161
 21
287.385214852405511
 31
0.0
  0
LINE
  5
25E99
  8
0
 10
4473.1980375067787463
 20
287.2625051918054737
 30
0.0
 11
4473.1980375067787463
 21
287.2631427378054809
 31
0.0
  0
LINE
  5
25E9A
  8
0
 10
4473.5565288437801428
 20
279.9321239237054897
 30
0.0
 11
4473.5565288437801428
 21
280.4073698965054859
 31
0.0
  0
LINE
  5
25E9B
  8
0
 10
4473.5565288437801428
 20
280.4073698965054859
 30
0.0
 11
4473.5565288437801428
 21
280.6970352094054988
 31
0.0
  0
LINE
  5
25E9C
  8
0
 10
4473.5565288437801428
 20
280.6970352094054988
 30
0.0
 11
4473.5565288437801428
 21
281.172281182205495
 31
0.0
  0
LINE
  5
25E9D
  8
0
 10
4473.576213997580453
 20
281.1919663325055012
 30
0.0
 11
4473.576213997580453
 21
280.7982655451056075
 31
0.0
  0
LINE
  5
25E9E
  8
0
 10
4473.576213997580453
 20
280.3061395608056046
 30
0.0
 11
4473.576213997580453
 21
279.9124387734054835
 31
0.0
  0
LINE
  5
25E9F
  8
0
 10
4473.6402260359582215
 20
288.0082939608872721
 30
0.0
 11
4473.6427497745798973
 21
288.0688636878055036
 31
0.0
  0
LINE
  5
25EA0
  8
0
 10
4474.33143226087941
 20
281.7338652192054838
 30
0.0
 11
4475.4935367177786247
 21
281.744006751205518
 31
0.0
  0
LINE
  5
25EA1
  8
0
 10
4471.2694735352979478
 20
295.3046511800263829
 30
0.0
 11
4471.2687396456785791
 21
295.308953692705586
 31
0.0
  0
LINE
  5
25EA2
  8
0
 10
4471.321611199336985
 20
295.3751914403550813
 30
0.0
 11
4471.320794840083181
 21
295.3804081066861045
 31
0.0
  0
LINE
  5
25EA3
  8
0
 10
4471.5120595752796362
 20
294.923925757205609
 30
0.0
 11
4471.5160397659801674
 21
294.9001031167055089
 31
0.0
  0
LINE
  5
25EA4
  8
0
 10
4471.2392014861788994
 20
296.0728467192151925
 30
0.0
 11
4471.2341105663663257
 21
296.1179908902834086
 31
0.0
  0
LINE
  5
25EA5
  8
0
 10
4473.9699146705788735
 20
280.7982655451056075
 30
0.0
 11
4473.9699146705788735
 21
280.3061395608056046
 31
0.0
  0
LINE
  5
25EA6
  8
0
 10
4474.2533792321792134
 20
281.6551257070055954
 30
0.0
 11
4474.2533792321792134
 21
279.4492770460054771
 31
0.0
  0
LINE
  5
25EA7
  8
0
 10
4471.4929872480797712
 20
294.4181962674055058
 30
0.0
 11
4471.4933123338096266
 21
294.4166702426941811
 31
0.0
  0
LINE
  5
25EA8
  8
0
 10
4471.1279985089786351
 20
296.6809170120055228
 30
0.0
 11
4471.1436458010794013
 21
296.6004186726054854
 31
0.0
  0
LINE
  5
25EA9
  8
0
 10
4472.1466607870797816
 20
293.1632512289056081
 30
0.0
 11
4472.1466984488797607
 21
293.162991686405519
 31
0.0
  0
LINE
  5
25EAA
  8
0
 10
4475.4933130972785875
 20
285.9834251829055916
 30
0.0
 11
4475.4933130972785875
 21
287.9734941285523178
 31
0.0
  0
LINE
  5
25EAB
  8
0
 10
4475.4935367177786247
 20
279.3603983548055112
 30
0.0
 11
4475.4935367177786247
 21
281.744006751205518
 31
0.0
  0
LINE
  5
25EAC
  8
0
 10
4471.4014423838789298
 20
294.7226864973055172
 30
0.0
 11
4471.4353208747843382
 21
294.6216041523061904
 31
0.0
  0
LINE
  5
25EAD
  8
0
 10
4471.383598307171269
 20
294.7804945193328194
 30
0.0
 11
4471.4014423838789298
 21
294.7226864973055172
 31
0.0
  0
LINE
  5
25EAE
  8
0
 10
4471.8898215098788569
 20
293.5806000426055107
 30
0.0
 11
4471.9314320298790335
 21
293.4406930330055161
 31
0.0
  0
LINE
  5
25EAF
  8
0
 10
4471.2379286902787499
 20
295.1933594945055006
 30
0.0
 11
4471.2681222684414024
 21
295.0880619739569966
 31
0.0
  0
LINE
  5
25EB0
  8
0
 10
4471.2681244974801302
 20
295.08805420050561
 30
0.0
 11
4471.3022024209803931
 21
294.9692103577056059
 31
0.0
  0
LINE
  5
25EB1
  8
0
 10
4471.3099016674786981
 20
294.9423598946054881
 30
0.0
 11
4471.3548461575801412
 21
294.7856198305054818
 31
0.0
  0
LINE
  5
25EB2
  8
0
 10
4471.3666826900798696
 20
294.744340936105516
 30
0.0
 11
4471.4007617958786795
 21
294.625492970405503
 31
0.0
  0
LINE
  5
25EB3
  8
0
 10
4471.4676174419037125
 20
294.3923396245908748
 30
0.0
 11
4471.5282811275801578
 21
294.1807802109054819
 31
0.0
  0
LINE
  5
25EB4
  8
0
 10
4471.3986081187231321
 20
294.7589156343066179
 30
0.0
 11
4471.484566189979887
 21
294.4591842887055009
 31
0.0
  0
LINE
  5
25EB5
  8
0
 10
4471.5842104163803015
 20
294.1629325390055101
 30
0.0
 11
4471.5156343153794296
 21
294.4020858243055159
 31
0.0
  0
LINE
  5
25EB6
  8
0
 10
4471.4345538588795534
 20
294.6848469792054743
 30
0.0
 11
4471.2593035462787157
 21
295.2960174508054934
 31
0.0
  0
LINE
  5
25EB7
  8
0
 10
4471.5976712087785927
 20
294.1610975923055094
 30
0.0
 11
4471.5283843770794192
 21
294.402729489905596
 31
0.0
  0
LINE
  5
25EB8
  8
0
 10
4471.4467195423785597
 20
294.6875286139054992
 30
0.0
 11
4471.2697375292127617
 21
295.3047382430276002
 31
0.0
  0
LINE
  5
25EB9
  8
0
 10
4471.2903842002660895
 20
295.357566383054575
 30
0.0
 11
4471.642470782968303
 21
294.1296945491458246
 31
0.0
  0
LINE
  5
25EBA
  8
0
 10
4471.2421854707799866
 20
295.6008751741055107
 30
0.0
 11
4471.3022384476789739
 21
295.3914455551055198
 31
0.0
  0
LINE
  5
25EBB
  8
0
 10
4471.3423851253128305
 20
295.251437451943616
 30
0.0
 11
4471.4024402023787843
 21
295.0420005085055095
 31
0.0
  0
LINE
  5
25EBC
  8
0
 10
4471.4959022772800381
 20
294.7160595185055172
 30
0.0
 11
4471.5559582230798696
 21
294.5066195458055063
 31
0.0
  0
LINE
  5
25EBD
  8
0
 10
4471.6309043752798971
 20
294.2452512522056054
 30
0.0
 11
4471.744273561578666
 21
293.8498859144056041
 31
0.0
  0
LINE
  5
25EBE
  8
0
 10
4471.3516609897560556
 20
295.2703944935568074
 30
0.0
 11
4471.321611199336985
 21
295.3751914403550813
 31
0.0
  0
LINE
  5
25EBF
  8
0
 10
4471.6401787732338562
 20
294.2642133628294232
 30
0.0
 11
4471.5738703315273597
 21
294.4954583801796275
 31
0.0
  0
LINE
  5
25EC0
  8
0
 10
4471.5051780903240797
 20
294.7350166941629936
 30
0.0
 11
4471.4203532192314015
 21
295.0308361748624861
 31
0.0
  0
LINE
  5
25EC1
  8
0
 10
4471.2871831053189453
 20
295.7525451430493035
 30
0.0
 11
4471.333506171836234
 21
295.5909974342068836
 31
0.0
  0
LINE
  5
25EC2
  8
0
 10
4471.3688408590978725
 20
295.4677706618904836
 30
0.0
 11
4471.4363983352186551
 21
295.2321697522513091
 31
0.0
  0
LINE
  5
25EC3
  8
0
 10
4471.4717319616829627
 20
295.1089467680585017
 30
0.0
 11
4471.5504539262738035
 21
294.8344107216776138
 31
0.0
  0
LINE
  5
25EC4
  8
0
 10
4471.5857908895141009
 20
294.7111760171134733
 30
0.0
 11
4471.6645117734642554
 21
294.4366437129835958
 31
0.0
  0
LINE
  5
25EC5
  8
0
 10
4471.6998493108931143
 20
294.3134070027239204
 30
0.0
 11
4471.7674051348240027
 21
294.0778119179398118
 31
0.0
  0
LINE
  5
25EC6
  8
0
 10
4471.802740832433301
 20
293.9545823187182236
 30
0.0
 11
4471.8490631040631342
 21
293.7930370056222955
 31
0.0
  0
LINE
  5
25EC7
  8
0
 10
4471.1942313395802557
 20
296.9755357031054928
 30
0.0
 11
4472.4183216441788318
 21
292.7066254944055004
 31
0.0
  0
LINE
  5
25EC8
  8
0
 10
4471.2071496561002277
 20
297.0911312713631105
 30
0.0
 11
4472.4863827340786884
 21
292.6299153584055261
 31
0.0
  0
LINE
  5
25EC9
  8
0
 10
4471.188313165418549
 20
296.9338878248910873
 30
0.0
 11
4472.3906156338789515
 21
292.7409286653054892
 31
0.0
  0
LINE
  5
25ECA
  8
0
 10
4471.1703220591798527
 20
296.0949989384055243
 30
0.0
 11
4471.2091737564796858
 21
295.9543008489055183
 31
0.0
  0
LINE
  5
25ECB
  8
0
 10
4475.1000500464797369
 20
285.986857137505524
 30
0.0
 11
4475.4933130972785875
 21
285.9834251829055916
 31
0.0
  0
LINE
  5
25ECC
  8
0
 10
4471.3889753059020222
 20
294.7815568309496825
 30
0.0
 11
4471.4120657791800113
 21
294.727284423105516
 31
0.0
  0
LINE
  5
25ECD
  8
0
 10
4471.4995142408788524
 20
294.9632652915055928
 30
0.0
 11
4471.5065779764790932
 21
294.9446501165054997
 31
0.0
  0
LINE
  5
25ECE
  8
0
 10
4471.4345538598799976
 20
294.6848469786056057
 30
0.0
 11
4471.4351102641785474
 21
294.683486974505513
 31
0.0
  0
LINE
  5
25ECF
  8
0
 10
4471.7284990819789527
 20
297.2405646713839928
 30
0.0
 11
4472.982811803880395
 21
292.8659119847055194
 31
0.0
  0
LINE
  5
25ED0
  8
0
 10
4472.8155208227799449
 20
286.6597426684054994
 30
0.0
 11
4473.5239001642094081
 21
286.6597426684054994
 31
0.0
  0
LINE
  5
25ED1
  8
0
 10
4473.6958090773787262
 20
288.0277445374055105
 30
0.0
 11
4473.7393314081800781
 21
287.9752923959055124
 31
0.0
  0
LINE
  5
25ED2
  8
0
 10
4471.4120657791800113
 20
294.727284423105516
 30
0.0
 11
4471.4351102641785474
 21
294.683486974505513
 31
0.0
  0
LINE
  5
25ED3
  8
0
 10
4471.9977116601821763
 20
293.4549972411057865
 30
0.0
 11
4471.978105194732052
 21
293.4959815305422808
 31
0.0
  0
LINE
  5
25ED4
  8
0
 10
4471.8095966366799985
 20
293.8469424518054893
 30
0.0
 11
4471.7246647025640414
 21
294.0284190346608284
 31
0.0
  0
LINE
  5
25ED5
  8
0
 10
4474.1199356486959005
 20
287.9614411821243039
 30
0.0
 11
4475.4933130972785875
 21
287.9734941285523178
 31
0.0
  0
LINE
  5
25ED6
  8
0
 10
4472.723080172580012
 20
288.077065503105473
 30
0.0
 11
4473.6565376048802136
 21
288.077065503105473
 31
0.0
  0
LINE
  5
25ED7
  8
0
 10
4471.212517393680173
 20
296.4087646575056283
 30
0.0
 11
4471.2121195356658063
 21
296.4095209297325937
 31
0.0
  0
LINE
  5
25ED8
  8
0
 10
4471.648521586280367
 20
294.3788888556055099
 30
0.0
 11
4471.6484989144801148
 21
294.378914680605476
 31
0.0
  0
LINE
  5
25ED9
  8
0
 10
4472.33649364178018
 20
292.7145683060055035
 30
0.0
 11
4472.4101105227109656
 21
292.7352610780142754
 31
0.0
  0
LINE
  5
25EDA
  8
0
 10
4471.6058704020324512
 20
294.1504503779740958
 30
0.0
 11
4471.6364332783787177
 21
294.1307486472055075
 31
0.0
  0
LINE
  5
25EDB
  8
0
 10
4472.0864154042792507
 20
293.1836141973054737
 30
0.0
 11
4472.1335498525786534
 21
293.1961126220055007
 31
0.0
  0
LINE
  5
25EDC
  8
0
 10
4472.0154175508787375
 20
293.6643692980055107
 30
0.0
 11
4472.0583450588801497
 21
293.6757379463056168
 31
0.0
  0
LINE
  5
25EDD
  8
0
 10
4472.0427724654800841
 20
293.3346242068054721
 30
0.0
 11
4472.0774256315271487
 21
293.3436251404178279
 31
0.0
  0
LINE
  5
25EDE
  8
0
 10
4471.9597574305798844
 20
293.6218667447055282
 30
0.0
 11
4472.004184893979982
 21
293.6329499777056071
 31
0.0
  0
LINE
  5
25EDF
  8
0
 10
4471.9592890957810596
 20
293.4245718030055059
 30
0.0
 11
4471.9871627041584361
 21
293.4309474614926216
 31
0.0
  0
LINE
  5
25EE0
  8
0
 10
4471.9289256333868252
 20
293.4847746631886025
 30
0.0
 11
4471.9884628473037083
 21
293.4983417963779857
 31
0.0
  0
LINE
  5
25EE1
  8
0
 10
4471.8885818313801792
 20
293.6703751189054969
 30
0.0
 11
4471.9171204944941564
 21
293.6768027710241995
 31
0.0
  0
LINE
  5
25EE2
  8
0
 10
4471.5910967251793409
 20
294.1594583894054722
 30
0.0
 11
4471.5976712087785927
 21
294.1610975923055094
 31
0.0
  0
LINE
  5
25EE3
  8
0
 10
4471.7630891639801121
 20
293.8389091517055931
 30
0.0
 11
4471.8051567978800449
 21
293.8490086970055017
 31
0.0
  0
LINE
  5
25EE4
  8
0
 10
4471.7097732303791418
 20
294.0248439085054883
 30
0.0
 11
4471.7470582669802752
 21
294.033795253805522
 31
0.0
  0
LINE
  5
25EE5
  8
0
 10
4471.5747725391802305
 20
294.4956472378055992
 30
0.0
 11
4471.6000376944803065
 21
294.501712864905528
 31
0.0
  0
LINE
  5
25EE6
  8
0
 10
4471.8669409432795874
 20
294.1764374279055119
 30
0.0
 11
4471.907250735080197
 21
294.1860660134055934
 31
0.0
  0
LINE
  5
25EE7
  8
0
 10
4471.8454946635802116
 20
294.0172317487055125
 30
0.0
 11
4471.8874818676786163
 21
294.0271157645054814
 31
0.0
  0
LINE
  5
25EE8
  8
0
 10
4471.4415130342658813
 20
294.6807629503775274
 30
0.0
 11
4471.4476138963800622
 21
294.6821769334055148
 31
0.0
  0
LINE
  5
25EE9
  8
0
 10
4471.6424707836786183
 20
294.1296945492055102
 30
0.0
 11
4471.6627005108648518
 21
294.134364949702217
 31
0.0
  0
LINE
  5
25EEA
  8
0
 10
4471.806675418980376
 20
293.9551107295055203
 30
0.0
 11
4471.8503278144798969
 21
293.9647652936055238
 31
0.0
  0
LINE
  5
25EEB
  8
0
 10
4471.7111677573793713
 20
294.4820254834056072
 30
0.0
 11
4471.7502902996793637
 21
294.4905929910054851
 31
0.0
  0
LINE
  5
25EEC
  8
0
 10
4471.7034670915800234
 20
294.3138998893055032
 30
0.0
 11
4471.7443625471787527
 21
294.3227360940055064
 31
0.0
  0
LINE
  5
25EED
  8
0
 10
4471.5420919701800813
 20
294.1724768890055088
 30
0.0
 11
4471.5731156646788804
 21
294.179071178905474
 31
0.0
  0
LINE
  5
25EEE
  8
0
 10
4471.5155067583800701
 20
294.26519054080552
 30
0.0
 11
4471.5430263406788072
 21
294.271040008605496
 31
0.0
  0
LINE
  5
25EEF
  8
0
 10
4471.414571406216055
 20
294.6171937166412818
 30
0.0
 11
4471.4353208747843382
 21
294.6216041523061904
 31
0.0
  0
LINE
  5
25EF0
  8
0
 10
4471.5890595087794281
 20
294.7116225121055209
 30
0.0
 11
4471.6269141768580084
 21
294.7195881898048242
 31
0.0
  0
LINE
  5
25EF1
  8
0
 10
4471.702343774180008
 20
294.7441133833056028
 30
0.0
 11
4471.7397432780890085
 21
294.7519838310649902
 31
0.0
  0
LINE
  5
25EF2
  8
0
 10
4471.4212554352798179
 20
295.0310250345054897
 30
0.0
 11
4471.4330849393800236
 21
295.0338663172054794
 31
0.0
  0
LINE
  5
25EF3
  8
0
 10
4471.3210542482684104
 20
295.3804680702635892
 30
0.0
 11
4471.3240720530793624
 21
295.3811925811056085
 31
0.0
  0
LINE
  5
25EF4
  8
0
 10
4471.3686564223798996
 20
294.7773185237055031
 30
0.0
 11
4471.3880491900799825
 21
294.7814413026055149
 31
0.0
  0
LINE
  5
25EF5
  8
0
 10
4471.3160126846787534
 20
294.9609090546055086
 30
0.0
 11
4471.334515612578798
 21
294.9648419734054983
 31
0.0
  0
LINE
  5
25EF6
  8
0
 10
4471.4746516707800765
 20
295.1093470059054766
 30
0.0
 11
4471.5094847542786738
 21
295.1164809122055885
 31
0.0
  0
LINE
  5
25EF7
  8
0
 10
4471.5699253895791117
 20
294.9707553409054981
 30
0.0
 11
4471.606042821779738
 21
294.9780463239055166
 31
0.0
  0
LINE
  5
25EF8
  8
0
 10
4471.3714426752785585
 20
295.4681410636055148
 30
0.0
 11
4471.4011201378289115
 21
295.4740688628714906
 31
0.0
  0
LINE
  5
25EF9
  8
0
 10
4471.2895354372785732
 20
295.7528827276054813
 30
0.0
 11
4471.3195144481787793
 21
295.7587505879055243
 31
0.0
  0
LINE
  5
25EFA
  8
0
 10
4471.4355941100775453
 20
295.4355811418055282
 30
0.0
 11
4471.4688623589800045
 21
295.4417594455055109
 31
0.0
  0
LINE
  5
25EFB
  8
0
 10
4471.5377401959785857
 20
295.3118363121055268
 30
0.0
 11
4471.572229512422382
 21
295.31812704858811
 31
0.0
  0
LINE
  5
25EFC
  8
0
 10
4471.1705646111786336
 20
296.618186514205604
 30
0.0
 11
4471.2171887528529624
 21
296.6309810694655198
 31
0.0
  0
LINE
  5
25EFD
  8
0
 10
4471.1450326949789087
 20
296.7082310186054883
 30
0.0
 11
4471.1922303684787039
 21
296.7209661469054822
 31
0.0
  0
LINE
  5
25EFE
  8
0
 10
4471.2369477050788191
 20
295.9356986373055065
 30
0.0
 11
4471.2655560553521354
 21
295.941224702996692
 31
0.0
  0
LINE
  5
25EFF
  8
0
 10
4471.3213242715801243
 20
295.8309979788054989
 30
0.0
 11
4471.3521772184803922
 21
295.8363066780054851
 31
0.0
  0
LINE
  5
25F00
  8
0
 10
4471.2383021580799323
 20
296.1182922858055235
 30
0.0
 11
4471.267405865280125
 21
296.1230130429055976
 31
0.0
  0
LINE
  5
25F01
  8
0
 10
4471.3892468304802605
 20
295.8240271747055203
 30
0.0
 11
4471.4211156320798182
 21
295.8290437346054773
 31
0.0
  0
LINE
  5
25F02
  8
0
 10
4471.1946548675796294
 20
296.26933425990552
 30
0.0
 11
4471.2228409835788625
 21
296.2737605976054738
 31
0.0
  0
LINE
  5
25F03
  8
0
 10
4471.2714021774800131
 20
296.2305316044054848
 30
0.0
 11
4471.3011976321704424
 21
296.2346372983660103
 31
0.0
  0
LINE
  5
25F04
  8
0
 10
4471.1957421213801354
 20
296.4915362955055116
 30
0.0
 11
4471.2242108611790172
 21
296.4951033721055182
 31
0.0
  0
ARC
  5
25F05
  8
0
 10
4472.374927262246274
 20
265.7645991106388124
 30
0.0
 40
15.4667373006607907
 50
88.0374012373767982
 51
90.0000107303776815
  0
ARC
  5
25F06
  8
0
 10
4471.8434312074796253
 20
280.5522025530055998
 30
0.0
 40
0.6870078740000001
 50
175.8921996072789113
 51
184.1078004010815903
  0
ARC
  5
25F07
  8
0
 10
4472.3749272704799296
 20
280.5522025530055998
 30
0.0
 40
0.6791338582999999
 50
270.0880609944396724
 51
321.2052574612018248
  0
ARC
  5
25F08
  8
0
 10
4472.3749272704799296
 20
280.5522025530055998
 30
0.0
 40
0.6791338582999999
 50
38.75684659519532
 51
90.0002450703994867
  0
ARC
  5
25F09
  8
0
 10
4471.8434312074923582
 20
280.5522025529930943
 30
0.0
 40
0.6791338583124259
 50
89.9997453663351337
 51
270.0004901229772827
  0
ARC
  5
25F0A
  8
0
 10
4473.5171587650802394
 20
281.1624387734055972
 30
0.0
 40
0.0393700787
 50
0.0
 51
166.5811912212186883
  0
ARC
  5
25F0B
  8
0
 10
4473.5171587650802394
 20
279.9419663325055012
 30
0.0
 40
0.0393700787
 50
186.7738465665408967
 51
0.0
  0
ARC
  5
25F0C
  8
0
 10
4472.6564233334802339
 20
278.95823682230548
 30
0.0
 40
0.0393700787
 50
270.0
 51
0.0
  0
ARC
  5
25F0D
  8
0
 10
4471.4635099478664415
 20
278.9582368223823892
 30
0.0
 40
0.0393700788856499
 50
180.0000001119065871
 51
270.0012079305129191
  0
ARC
  5
25F0E
  8
0
 10
4472.6564233334802339
 20
279.1274295431055066
 30
0.0
 40
0.0393700787
 50
0.0
 51
67.9999999999061231
  0
ARC
  5
25F0F
  8
0
 10
4471.4635099476799951
 20
279.1274295431055066
 30
0.0
 40
0.0393700787
 50
112.0000000000938059
 51
180.0
  0
ARC
  5
25F10
  8
0
 10
4472.6032737271789301
 20
279.2338273735055054
 30
0.0
 40
0.0393700787
 50
180.0
 51
247.9999999999060947
  0
ARC
  5
25F11
  8
0
 10
4471.5166595539785703
 20
279.2338273735055054
 30
0.0
 40
0.0393700787
 50
292.0000000000939053
 51
0.0
  0
ARC
  5
25F12
  8
0
 10
4474.3321193895799297
 20
279.4492770460054771
 30
0.0
 40
0.0787401575
 50
180.0
 51
269.4999993854232798
  0
ARC
  5
25F13
  8
0
 10
4474.3321193895480974
 20
281.6551280600020277
 30
0.0
 40
0.0787401574032632
 50
90.5000005920120856
 51
180.0017121729368057
  0
ARC
  5
25F14
  8
0
 10
4473.2745890894293552
 20
287.4457486860570725
 30
0.0
 40
0.1963118992441349
 50
129.5826711512407883
 51
164.1223042118602109
  0
ARC
  5
25F15
  8
0
 10
4473.1013258715329357
 20
287.3852142469950763
 30
0.0
 40
0.0393666006318896
 50
171.5285612545569052
 51
219.6858008182692004
  0
ARC
  5
25F16
  8
0
 10
4472.723087511574704
 20
288.0967580228086717
 30
0.0
 40
0.019692521070764
 50
181.1142274851646903
 51
269.9786470461996259
  0
ARC
  5
25F17
  8
0
 10
4472.8155167344302754
 20
286.6794277081436917
 30
0.0
 40
0.0196850401626949
 50
182.385944922962409
 51
270.0118996578768815
  0
ARC
  5
25F18
  8
0
 10
4472.7457886377787872
 20
288.0691914873056021
 30
0.0
 40
0.0078740157
 50
90.0
 51
182.3859439963989928
  0
ARC
  5
25F19
  8
0
 10
4470.6617838099882647
 20
293.399240945625877
 30
0.0
 40
1.241528679544182
 50
27.2454816585953985
 51
28.1397263620160096
  0
ARC
  5
25F1A
  8
0
 10
4471.3055466373898525
 20
293.745784289893777
 30
0.0
 40
0.5104244163837554
 50
27.9187775999166909
 51
29.7915147941313982
  0
ARC
  5
25F1B
  8
0
 10
4471.8574677541446363
 20
293.1144038123603082
 30
0.0
 40
0.2943938287320533
 50
358.4999502741202946
 51
8.2219679544401192
  0
ARC
  5
25F1C
  8
0
 10
4471.9540219975788204
 20
293.4475991518056048
 30
0.0
 40
0.0236220472
 50
196.999240626395391
 51
282.8837602199964181
  0
ARC
  5
25F1D
  8
0
 10
4472.1293539783800952
 20
293.1536823097055162
 30
0.0
 40
0.0196850402
 50
8.2430587836018976
 51
28.2227057808107489
  0
ARC
  5
25F1E
  8
0
 10
4471.6169476411187134
 20
294.167461343458001
 30
0.0
 40
0.0202997086801493
 50
198.2696670781064938
 51
236.928538499771804
  0
ARC
  5
25F1F
  8
0
 10
4471.7594128591372282
 20
293.8542220650746799
 30
0.0
 40
0.0157480326755353
 50
195.98260755239221
 51
283.4999985964564075
  0
ARC
  5
25F20
  8
0
 10
4471.7060969254098381
 20
294.0401568205516014
 30
0.0
 40
0.0157480314185243
 50
195.9999998805637063
 51
283.5000001675807084
  0
ARC
  5
25F21
  8
0
 10
4471.6460409009951036
 20
294.24959707039352
 30
0.0
 40
0.0157480330982336
 50
108.5000335955045045
 51
196.0191978921411078
  0
ARC
  5
25F22
  8
0
 10
4471.5396363208355979
 20
294.1840298166824255
 30
0.0
 40
0.0118110266955651
 50
195.9699532113816076
 51
281.9999941114386957
  0
ARC
  5
25F23
  8
0
 10
4471.5130511084898899
 20
294.2767434652129168
 30
0.0
 40
0.0118110236113254
 50
196.0000000006704965
 51
282.0000000050774247
  0
ARC
  5
25F24
  8
0
 10
4471.6406995155703044
 20
294.1373667548493813
 30
0.0
 40
0.0078740160371359
 50
237.1929180269584947
 51
282.9999936792735866
  0
ARC
  5
25F25
  8
0
 10
4471.5896680522801034
 20
294.1651884822055081
 30
0.0
 40
0.0059055118
 50
202.4580177100964136
 51
283.99999999997749
  0
ARC
  5
25F26
  8
0
 10
4471.4175791304369341
 20
295.0463379474130079
 30
0.0
 40
0.0157480322264807
 50
195.9874835119206011
 51
283.4999989873484765
  0
ARC
  5
25F27
  8
0
 10
4471.3575231048362184
 20
295.2557781976997262
 30
0.0
 40
0.0157480315529225
 50
108.5000004441643995
 51
195.9999999226909893
  0
ARC
  5
25F28
  8
0
 10
4471.3662007727407399
 20
294.7888714496206717
 30
0.0
 40
0.0118110250337058
 50
195.9801146353611898
 51
281.9999972871776208
  0
ARC
  5
25F29
  8
0
 10
4471.3321205904512681
 20
294.9077231668082959
 30
0.0
 40
0.0118110235734006
 50
109.9999999800829045
 51
195.9999999850581958
  0
ARC
  5
25F2A
  8
0
 10
4471.2492810458879831
 20
295.1966189943041741
 30
0.0
 40
0.0118110252216758
 50
110.0000034525349975
 51
196.0198845299628942
  0
ARC
  5
25F2B
  8
0
 10
4471.3135570351932984
 20
294.9724619807174122
 30
0.0
 40
0.011811025194619
 50
195.9801340746612937
 51
281.9999963698991792
  0
ARC
  5
25F2C
  8
0
 10
4471.2794768538224162
 20
295.091313696711893
 30
0.0
 40
0.0118110249353941
 50
110.0000025827307013
 51
196.0198667981528899
  0
ARC
  5
25F2D
  8
0
 10
4471.3780356364450199
 20
294.7475983726898221
 30
0.0
 40
0.0118110238448741
 50
110.0000004989122004
 51
196.009473594357388
  0
ARC
  5
25F2E
  8
0
 10
4471.4121158183406806
 20
294.6287466545771281
 30
0.0
 40
0.011811023950534
 50
195.9905367582234987
 51
281.9996920961671094
  0
ARC
  5
25F2F
  8
0
 10
4471.3212546164959349
 20
294.9456173221615813
 30
0.0
 40
0.0118110239030685
 50
110.0003077518900056
 51
196.0094279501307142
  0
ARC
  5
25F30
  8
0
 10
4471.288156839083058
 20
295.3121899503013879
 30
0.0
 40
0.019685039106181
 50
154.8070207351298109
 51
189.4624908342057097
  0
ARC
  5
25F31
  8
0
 10
4471.3173779519711388
 20
295.3957809863828174
 30
0.0
 40
0.0157480333546796
 50
195.9798842719845879
 51
283.4999660298936988
  0
ARC
  5
25F32
  8
0
 10
4471.2573219273763243
 20
295.6052212339760104
 30
0.0
 40
0.015748033359614
 50
108.5000026176530952
 51
196.0201124535547024
  0
ARC
  5
25F33
  8
0
 10
4471.2929477299703649
 20
295.3501213548819919
 30
0.0
 40
0.0078740160678188
 50
109.0000063660158958
 51
154.807082004689704
  0
ARC
  5
25F34
  8
0
 10
4471.3138327914230103
 20
295.3739681052990136
 30
0.0
 40
0.007874018472733
 50
289.0000073357849146
 51
8.9378779470125931
  0
ARC
  5
25F35
  8
0
 10
4471.1931391236803393
 20
296.1011130765054986
 30
0.0
 40
0.0236220472
 50
109.116239779976496
 51
195.0007593736006015
  0
ARC
  5
25F36
  8
0
 10
4471.6556081530952724
 20
294.4672694747629862
 30
0.0
 40
0.1758691895814198
 50
196.5864898623001977
 51
198.412334150724007
  0
ARC
  5
25F37
  8
0
 10
4471.5110402169793815
 20
294.7204004030054989
 30
0.0
 40
0.0157480315
 50
108.5000312609034978
 51
196.0005283302018881
  0
ARC
  5
25F38
  8
0
 10
4471.5710962425800972
 20
294.5109601519055218
 30
0.0
 40
0.0157480315
 50
195.9994747671009065
 51
283.499968917210083
  0
ARC
  5
25F39
  8
0
 10
4471.4789709265705824
 20
294.3955951838967735
 30
0.0
 40
0.011811023684648
 50
109.9999998818178
 51
195.999999838245401
  0
ARC
  5
25F3A
  8
0
 10
4471.4854411876785889
 20
294.4811030865055272
 30
0.0
 40
0.0078740157
 50
197.2141007247055029
 51
225.0513748563840863
  0
ARC
  5
25F3B
  8
0
 10
4471.4401798780299941
 20
294.6865162009037249
 30
0.0
 40
0.0059056919293716
 50
210.8594176004932876
 51
283.0464498005021028
  0
ARC
  5
25F3C
  8
0
 10
4471.8952491762438513
 20
296.0079199258809126
 30
0.0
 40
0.5592711755445047
 50
191.8893928694292867
 51
195.6838859611397936
  0
ARC
  5
25F3D
  8
0
 10
4471.974500189508035
 20
295.4911544403586277
 30
0.0
 40
0.4929981569143413
 50
192.61733706600441
 51
196.7744218351795098
  0
ARC
  5
25F3E
  8
0
 10
4471.8360973006801942
 20
295.9957287081055028
 30
0.0
 40
0.4988766712
 50
190.9845519036954897
 51
191.918905461696113
  0
ARC
  5
25F3F
  8
0
 10
4473.304280124095385
 20
293.8274888178518154
 30
0.0
 40
1.3758037125639391
 50
197.0407012022913023
 51
199.319166693717591
  0
ARC
  5
25F40
  8
0
 10
4472.6753035060419279
 20
293.9270054718339793
 30
0.0
 40
0.7984001944457421
 50
196.1825082932925
 51
201.3726156854201008
  0
ARC
  5
25F41
  8
0
 10
4472.7111406840913332
 20
293.5372252866943086
 30
0.0
 40
0.6626279382014995
 50
196.9879283082883035
 51
200.8224178672284097
  0
ARC
  5
25F42
  8
0
 10
4472.5247864794800989
 20
293.9073951266054792
 30
0.0
 40
0.5854820071
 50
197.303407583801004
 51
200.0845732560991053
  0
ARC
  5
25F43
  8
0
 10
4472.3658591157800402
 20
293.8574603170055184
 30
0.0
 40
0.4188952038
 50
196.0603182848979031
 51
197.2480278853996936
  0
ARC
  5
25F44
  8
0
 10
4472.5549875899887411
 20
292.663175006331187
 30
0.0
 40
0.0800924136471162
 50
219.6033983239560996
 51
257.6318636200304013
  0
ARC
  5
25F45
  8
0
 10
4472.5292515146511505
 20
292.5458710831899225
 30
0.0
 40
0.0400015341903552
 50
4.3796912776358887
 51
77.6129534763905014
  0
ARC
  5
25F46
  8
0
 10
4472.4008922331795475
 20
292.7472212876054982
 30
0.0
 40
0.0315682681
 50
211.6927793613907056
 51
219.2622440546963105
  0
ARC
  5
25F47
  8
0
 10
4472.4334591051210737
 20
292.7109660347164208
 30
0.0
 40
0.0157474765137103
 50
195.999801610632403
 51
218.4453700219829955
  0
ARC
  5
25F48
  8
0
 10
4472.2570246547293209
 20
295.22864107359851
 30
0.0
 40
0.755104283996309
 50
193.928145165862702
 51
196.7060022194297062
  0
ARC
  5
25F49
  8
0
 10
4472.3171744801366003
 20
296.1433142235027276
 30
0.0
 40
1.065131053277091
 50
192.6494528660280139
 51
194.5853337543717885
  0
ARC
  5
25F4A
  8
0
 10
4472.224452310380002
 20
295.7084113899055069
 30
0.0
 40
0.8560328768999999
 50
194.0392609271945901
 51
195.9266738308980962
  0
ARC
  5
25F4B
  8
0
 10
4473.9127715981267102
 20
287.2644297555344792
 30
0.0
 40
0.8597525222229048
 50
164.1353534406001131
 51
171.5333984407143078
  0
ARC
  5
25F4C
  8
0
 10
4473.9264000863640831
 20
287.2561750243032748
 30
0.0
 40
0.7305760206210237
 50
116.8747941425526022
 51
140.7313316935486966
  0
ARC
  5
25F4D
  8
0
 10
4473.9185107835801318
 20
287.2696986513054753
 30
0.0
 40
0.7204718629000002
 50
73.7652464369207053
 51
103.7276288580128067
  0
ARC
  5
25F4E
  8
0
 10
4473.9184592535502816
 20
287.2625106413972276
 30
0.0
 40
0.7204207827693995
 50
156.2216541506749934
 51
273.5233448316415092
  0
ARC
  5
25F4F
  8
0
 10
4473.9185039285357561
 20
287.2619411788307957
 30
0.0
 40
0.6889713756632725
 50
91.5107393053010156
 51
179.9992058625230129
  0
ARC
  5
25F50
  8
0
 10
4473.9181700742938119
 20
287.2613649752898937
 30
0.0
 40
0.6886377704753511
 50
179.9512644026918906
 51
258.4201645145723205
  0
ARC
  5
25F51
  8
0
 10
4473.6565286400546029
 20
288.096758537231608
 30
0.0
 40
0.0196930361665488
 50
270.0260826528606799
 51
1.9259175302806411
  0
ARC
  5
25F52
  8
0
 10
4473.634882585082778
 20
288.0691914873153792
 30
0.0
 40
0.0078740156901358
 50
357.6140563511177106
 51
90.0
  0
ARC
  5
25F53
  8
0
 10
4476.5096876420793706
 20
296.1897694978055142
 30
0.0
 40
5.251637270499999
 50
206.4946114976968943
 51
207.2421669715594987
  0
ARC
  5
25F54
  8
0
 10
4476.4489046432672694
 20
296.1723341255507762
 30
0.0
 40
5.2516224771273752
 50
199.0391071311140081
 51
199.2558069908378968
  0
ARC
  5
25F55
  8
0
 10
4476.4375524442275491
 20
296.1690804675757818
 30
0.0
 40
5.2516243535539751
 50
202.2825998510149077
 51
202.4579461701254957
  0
ARC
  5
25F56
  8
0
 10
4475.683870003179436
 20
296.0530671165054741
 30
0.0
 40
4.4888653939999994
 50
189.7093690743014065
 51
190.7191788910245123
  0
ARC
  5
25F57
  8
0
 10
4473.9929926009626797
 20
296.2576415488896941
 30
0.0
 40
2.7595993520200861
 50
194.960624802800794
 51
195.7444777562645015
  0
ARC
  5
25F58
  8
0
 10
4473.0021472209336935
 20
296.2863154627453923
 30
0.0
 40
1.814934489664173
 50
194.6231638116628062
 51
196.6049365698468137
  0
ARC
  5
25F59
  8
0
 10
4472.8301397357799942
 20
296.5616851281055233
 30
0.0
 40
1.6740755383000001
 50
192.7221257673982109
 51
193.8803591362035093
  0
ARC
  5
25F5A
  8
0
 10
4472.0782758942777946
 20
296.7335838254069245
 30
0.0
 40
0.9358281998161663
 50
188.7596247826068065
 51
193.8963308082277877
  0
ARC
  5
25F5B
  8
0
 10
4471.6668157603853615
 20
297.1896208002137882
 30
0.0
 40
0.0800006885773002
 50
39.5530883493710874
 51
91.8313915718682949
  0
ARC
  5
25F5C
  8
0
 10
4471.2864584225244471
 20
297.0806349399917963
 30
0.0
 40
0.0800003337731545
 50
120.1686491223976958
 51
172.4608510676006858
  0
ARC
  5
25F5D
  8
0
 10
4471.1668339045800167
 20
296.6049256643055969
 30
0.0
 40
0.0236220472
 50
190.9992404661985006
 51
238.1158345817825079
  0
ARC
  5
25F5E
  8
0
 10
4471.1511864929798321
 20
296.6854246185055217
 30
0.0
 40
0.0236220472
 50
105.1003723222788011
 51
191.0007595307044994
  0
ARC
  5
25F5F
  8
0
 10
4471.2093687753413178
 20
296.9798763492206035
 30
0.0
 40
0.0157474813478094
 50
173.5546352476316088
 51
196.0001966612782098
  0
ARC
  5
25F60
  8
0
 10
4471.2001241540801857
 20
296.933916553705501
 30
0.0
 40
0.0118110236000144
 50
106.3000000000509004
 51
180.1393648419611964
  0
ARC
  5
25F61
  8
0
 10
4472.3701708383796358
 20
305.0120140802055175
 30
0.0
 40
25.2512871979000018
 50
269.9546143985315894
 51
271.2116933560566281
  0
ARC
  5
25F62
  8
0
 10
4479.249938329880024
 20
296.9754997875054983
 30
0.0
 40
8.0806534027999994
 50
209.4781644455100889
 51
211.6892421864110929
  0
ARC
  5
25F63
  8
0
 10
4479.2507391165618174
 20
296.9757185439420937
 30
0.0
 40
8.0625344666989331
 50
180.297268113179797
 51
181.8106796410565096
  0
ARC
  5
25F64
  8
0
 10
4479.2506977660787015
 20
296.9757220265054798
 30
0.0
 40
8.0624932766999997
 50
183.4367076442912037
 51
184.0356257745328037
  0
ARC
  5
25F65
  8
0
 10
4479.2506689559786537
 20
296.9757300380055085
 30
0.0
 40
8.0624668496999998
 50
204.1895906797072087
 51
204.6135786511244135
  0
ARC
  5
25F66
  8
0
 10
4479.2506712076801705
 20
296.9757221830054732
 30
0.0
 40
8.0624668489999998
 50
187.3864213493637862
 51
187.8104093200180102
  0
ARC
  5
25F67
  8
0
 10
4479.2506525925800815
 20
296.9757192961055239
 30
0.0
 40
8.0624480247000001
 50
184.9992354969610062
 51
185.1792575623609878
  0
ARC
  5
25F68
  8
0
 10
4479.2506516365801872
 20
296.9757226202054881
 30
0.0
 40
8.0624480217999999
 50
206.8207424380175041
 51
207.0007645037227917
  0
ARC
  5
25F69
  8
0
 10
4479.2506515450786537
 20
296.9757227855055248
 30
0.0
 40
8.0624480170000012
 50
207.9643723308886081
 51
208.5632943610835923
  0
ARC
  5
25F6A
  8
0
 10
4476.9336001537785705
 20
296.3332031974055099
 30
0.0
 40
5.7763907648000004
 50
172.4604023668962895
 51
173.5545558779012936
  0
ARC
  5
25F6B
  8
0
 10
4476.9414277166088141
 20
296.2897326215166913
 30
0.0
 40
5.7715576961924393
 50
218.4452061116072059
 51
219.583056664211
  0
ARC
  5
25F6C
  8
0
 10
4481.2271582879793641
 20
296.6732427956055176
 30
0.0
 40
9.9934274936000005
 50
185.2767005618653968
 51
185.9799160739098056
  0
LINE
  5
25F6D
  8
0
 10
4471.3342688701786756
 20
295.5062850791055098
 30
0.0
 11
4471.3347104174927154
 21
295.5167472131573732
 31
0.0
  0
LINE
  5
25F6E
  8
0
 10
4471.4873602368561478
 20
294.4160580451277838
 30
0.0
 11
4471.4859632806801528
 21
294.4211143798054877
 31
0.0
  0
LINE
  5
25F6F
  8
0
 10
4471.4859632806801528
 20
294.4211143798054877
 30
0.0
 11
4471.485416127078679
 21
294.4234897743056081
 31
0.0
  0
LINE
  5
25F70
  8
0
 10
4471.5500359139787179
 20
294.2687240078055879
 30
0.0
 11
4471.5494192354799452
 21
294.2724576297055137
 31
0.0
  0
LINE
  5
25F71
  8
0
 10
4471.57958241687993
 20
294.1767535927054951
 30
0.0
 11
4471.5784340280797551
 21
294.1803129365055156
 31
0.0
  0
LINE
  5
25F72
  8
0
 10
4471.7485128743801397
 20
293.9993863357055943
 30
0.0
 11
4471.7415912054675573
 21
294.0098639361091841
 31
0.0
  0
LINE
  5
25F73
  8
0
 10
4471.3920283853803994
 20
294.7801846258054752
 30
0.0
 11
4471.3932564106798964
 21
294.7783561031055228
 31
0.0
  0
LINE
  5
25F74
  8
0
 10
4471.3414844701928814
 20
294.9604199916672087
 30
0.0
 11
4471.3392330279793896
 21
294.9630668466054999
 31
0.0
  0
LINE
  5
25F75
  8
0
 10
4471.7867111201803709
 20
293.9078148678054845
 30
0.0
 11
4471.7868376235937831
 21
293.9084677742434906
 31
0.0
  0
LINE
  5
25F76
  8
0
 10
4473.3037545593788309
 20
287.7249205810055059
 30
0.0
 11
4473.1495009292793839
 21
287.5970474434054722
 31
0.0
  0
LINE
  5
25F77
  8
0
 10
4471.3433313628802352
 20
295.9525621317055197
 30
0.0
 11
4471.340414950678678
 21
295.9614908214055049
 31
0.0
  0
LINE
  5
25F78
  8
0
 10
4471.2426935087796664
 20
296.25468200180552
 30
0.0
 11
4471.2387610863797818
 21
296.2698836012555148
 31
0.0
  0
LINE
  5
25F79
  8
0
 10
4471.3467667183940648
 20
295.9394837328341055
 30
0.0
 11
4471.3433313628802352
 21
295.9525621317055197
 31
0.0
  0
LINE
  5
25F7A
  8
0
 10
4471.2049492552787342
 20
296.1600823266055045
 30
0.0
 11
4471.2103568554794037
 21
296.1393360756055131
 31
0.0
  0
LINE
  5
25F7B
  8
0
 10
4472.5816201838797497
 20
279.5595936382055129
 30
0.0
 11
4472.5639036484799362
 21
279.5763470585055188
 31
0.0
  0
LINE
  5
25F7C
  8
0
 10
4471.5383130972786603
 20
279.5595936382055129
 30
0.0
 11
4471.5560296326793832
 21
279.5763470585055188
 31
0.0
  0
LINE
  5
25F7D
  8
0
 10
4473.0710309956793935
 20
287.3600756364054973
 30
0.0
 11
4473.1851181806787281
 21
287.2225731790055079
 31
0.0
  0
ARC
  5
25F7E
  8
0
 10
4473.0987592108713216
 20
287.1613515549566955
 30
0.0
 40
0.1058582019383266
 50
11.4521571949224601
 51
35.3336005876233514
  0
ARC
  5
25F7F
  8
0
 10
4473.6804759219949119
 20
288.0131414892392741
 30
0.0
 40
0.0211743871173567
 50
43.6029033032016784
 51
125.7941052818346037
  0
LINE
  5
25F80
  8
0
 10
4471.4353208747797908
 20
294.6216041523055083
 30
0.0
 11
4471.4779198841179095
 21
294.4787728255827801
 31
0.0
  0
ARC
  5
25F81
  8
0
 10
4472.3801929780456703
 20
281.0031571841370805
 30
0.0
 40
1.1300955736161831
 50
269.7859488978456284
 51
297.6254522442213215
  0
LINE
  5
25F82
  8
0
 10
4473.576213997580453
 20
280.3061395608056046
 30
0.0
 11
4473.5565288437801428
 21
280.3631226697056036
 31
0.0
  0
ARC
  5
25F83
  8
0
 10
4474.3605601719218612
 20
280.4954801281883192
 30
0.0
 40
0.8407603284540847
 50
158.8916447129302014
 51
163.001917795582699
  0
ARC
  5
25F84
  8
0
 10
4473.2574559812246662
 20
280.5522025528414929
 30
0.0
 40
0.7537535274118524
 50
340.9465417319003109
 51
19.0534582680996714
  0
ARC
  5
25F85
  8
0
 10
4469.689117449060177
 20
276.4600934328926769
 30
0.0
 40
4.2397443733695201
 50
47.3080434351484627
 51
51.1232351005085235
  0
ARC
  5
25F86
  8
0
 10
4472.1533531252416651
 20
279.4952589105323
 30
0.0
 40
0.3304750750186233
 50
53.4450309486045967
 51
83.8557111784949853
  0
ARC
  5
25F87
  8
0
 10
4472.0595084970209427
 20
278.9599029974158952
 30
0.0
 40
0.8735424063511265
 50
81.4934700745289149
 51
97.5265223815000155
  0
ARC
  5
25F88
  8
0
 10
4471.9975399986678894
 20
279.3888886262025721
 30
0.0
 40
0.4401670602260394
 50
96.8439215877037753
 51
113.5552904968921979
  0
ARC
  5
25F89
  8
0
 10
4471.9067435173246849
 20
279.5947516387975043
 30
0.0
 40
0.2151744121342372
 50
113.2993921448137939
 51
128.8379705858270938
  0
ARC
  5
25F8A
  8
0
 10
4474.423704784747315
 20
276.4679452040193155
 30
0.0
 40
4.2291515540069513
 50
128.8330193033949058
 51
132.6932741574707961
  0
ARC
  5
25F8B
  8
0
 10
4471.3845814884880383
 20
276.7287152122495968
 30
0.0
 40
2.833238758486007
 50
87.6610936119042776
 51
112.7697698738156049
  0
ARC
  5
25F8C
  8
0
 10
4473.1047565998242135
 20
273.3457112781438241
 30
0.0
 40
6.6241402151607778
 50
115.1646294253399958
 51
119.9630284965135019
  0
LINE
  5
25F8D
  8
0
 10
4468.1783028952786481
 20
278.073843982005485
 30
0.0
 11
4469.7963889105785711
 21
279.0845209825055235
 31
0.0
  0
ARC
  5
25F8E
  8
0
 10
4484.3959114979352307
 20
253.7927899956087003
 30
0.0
 40
30.7351534420201986
 50
119.3836039193924989
 51
123.6879115379905016
  0
ARC
  5
25F8F
  8
0
 10
4471.33501063433323
 20
276.9173522948930213
 30
0.0
 40
4.1772214119235329
 50
98.9056357146906038
 51
118.9103498816913032
  0
ARC
  5
25F90
  8
0
 10
4471.4538054145250499
 20
275.0986927578260861
 30
0.0
 40
5.9945953817562758
 50
91.3696948531313637
 51
97.3362264287557508
  0
ARC
  5
25F91
  8
0
 10
4471.3274219255317803
 20
281.4319598897429273
 30
0.0
 40
0.340804236939197
 50
267.1563096281929006
 51
299.9228827915796955
  0
ARC
  5
25F92
  8
0
 10
4473.1366012652970312
 20
283.462786673204107
 30
0.0
 40
3.1895124427536752
 50
52.6410089678091708
 51
78.3633971266433491
  0
ARC
  5
25F93
  8
0
 10
4475.101753375320186
 20
286.0320664519741172
 30
0.0
 40
0.0452413908258453
 50
228.9121330056059094
 51
267.8423160026330265
  0
ARC
  5
25F94
  8
0
 10
4462.00271563565002
 20
301.4849781370555206
 30
0.0
 40
17.8059727255060203
 50
309.3960221670780015
 51
310.8115670303106981
  0
ARC
  5
25F95
  8
0
 10
4473.9051477115726811
 20
287.2706658934855
 30
0.0
 40
0.7049541513449561
 50
140.5498246188811038
 51
156.3919894406932087
  0
ARC
  5
25F96
  8
0
 10
4473.9609717820812875
 20
287.1798533971939946
 30
0.0
 40
0.8142907515240827
 50
104.3723409351956946
 51
116.6170700812894978
  0
ARC
  5
25F97
  8
0
 10
4473.7529150577029213
 20
287.9860851378892903
 30
0.0
 40
0.0173493173895765
 50
218.4685183269859863
 51
251.9452027138351013
  0
ARC
  5
25F98
  8
0
 10
4473.7547137449446382
 20
287.9876102281371004
 30
0.0
 40
0.0193962879140329
 50
248.2873307112527073
 51
282.3028096904789095
  0
ARC
  5
25F99
  8
0
 10
4356.3452463257472118
 20
286.8160042277052071
 30
0.0
 40
116.3651965871481053
 50
0.6304404492341171
 51
2.823913376245609
  0
ARC
  5
25F9A
  8
0
 10
4476.8802124015001027
 20
279.8013111080605881
 30
0.0
 40
13.5252353822690896
 50
106.7509707153802054
 51
108.2637028429825961
  0
ARC
  5
25F9B
  8
0
 10
4473.0601143898156806
 20
291.6633968219236976
 30
0.0
 40
1.067313128708673
 50
113.0907495025178946
 51
118.5177272747357051
  0
ARC
  5
25F9C
  8
0
 10
4473.4318559171715606
 20
291.8994574034887819
 30
0.0
 40
1.1265728267522239
 50
141.4709603051533975
 51
142.5211566106397925
  0
ARC
  5
25F9D
  8
0
 10
4472.9040537735054386
 20
292.8657690903023081
 30
0.0
 40
0.1374359441974656
 50
304.5871873495344175
 51
328.3244895936621788
  0
ARC
  5
25F9E
  8
0
 10
4473.2698412544514213
 20
288.0830949697158871
 30
0.0
 40
0.0062143276118848
 50
284.0102448313170953
 51
337.4057767511213228
  0
ARC
  5
25F9F
  8
0
 10
4473.2468870764068924
 20
288.0939343264515173
 30
0.0
 40
0.0315936117572147
 50
335.2501155931317953
 51
355.7659038170826875
  0
ARC
  5
25FA0
  8
0
 10
4399.2319590955612512
 20
287.169843695546092
 30
0.0
 40
74.0521723386261215
 50
0.7132026864698516
 51
4.2416286603276401
  0
ARC
  5
25FA1
  8
0
 10
4472.8543012601821829
 20
292.6326882069718067
 30
0.0
 40
0.2274489180217031
 50
3.5946138376116918
 51
32.04959028295292
  0
ARC
  5
25FA2
  8
0
 10
4472.2906423847553015
 20
292.2916152215714192
 30
0.0
 40
0.8862480937638519
 50
31.4019433646760007
 51
34.5006836328627386
  0
ARC
  5
25FA3
  8
0
 10
4473.2847090979375935
 20
292.9791670225342841
 30
0.0
 40
0.3224417462947298
 50
200.5632914740560864
 51
215.1349623772713926
  0
ARC
  5
25FA4
  8
0
 10
4395.898685579963967
 20
286.2504621191250749
 30
0.0
 40
77.7994514475144854
 50
1.3603290657527369
 51
4.1381695543804344
  0
ARC
  5
25FA5
  8
0
 10
4460.6368835879748076
 20
290.8849211849022254
 30
0.0
 40
12.8956930381453603
 50
4.3570116333845981
 51
16.2939792072424687
  0
ARC
  5
25FA6
  8
0
 10
4464.5111568786132921
 20
292.4424001871389009
 30
0.0
 40
8.7495701492199327
 50
13.6216927550777296
 51
25.0996288147333892
  0
ARC
  5
25FA7
  8
0
 10
4467.3616491362336092
 20
293.6306540558218217
 30
0.0
 40
5.6657597108428952
 50
26.4458616914206495
 51
39.5792591750276586
  0
ARC
  5
25FA8
  8
0
 10
4471.6858252477341011
 20
296.4050685906041167
 30
0.0
 40
0.8647809877860142
 50
91.4290082324183544
 51
120.5508578087977014
  0
LINE
  5
25FA9
  8
0
 10
4472.3764502674339383
 20
292.7272426524837101
 30
0.0
 11
4472.409493812958317
 21
292.7374118005157015
 31
0.0
  0
ARC
  5
25FAA
  8
0
 10
4472.4008132589760862
 20
292.7472687966280205
 30
0.0
 40
0.0120078643822067
 50
211.8703004604136879
 51
282.8158235283527233
  0
ARC
  5
25FAB
  8
0
 10
4472.5979523784435514
 20
292.6629101645718265
 30
0.0
 40
0.1163462194381122
 50
196.4746778878306941
 51
205.8843482209171043
  0
ARC
  5
25FAC
  8
0
 10
4474.3936278932042114
 20
293.1760658375429216
 30
0.0
 40
2.1082649976190782
 50
192.6443862330550871
 51
197.1699785975494876
  0
ARC
  5
25FAD
  8
0
 10
4472.0606678928197653
 20
292.4684104090612209
 30
0.0
 40
0.3298678865301562
 50
341.7957418891269867
 51
14.9826949569046608
  0
ARC
  5
25FAE
  8
0
 10
4472.2360193627200715
 20
292.4125938481640787
 30
0.0
 40
0.1458661529562164
 50
312.1299318910287752
 51
341.1052314902403282
  0
ARC
  5
25FAF
  8
0
 10
4472.2649363627888306
 20
292.383489052051516
 30
0.0
 40
0.1049009643240988
 50
272.9038562280617839
 51
311.0802744847273971
  0
ARC
  5
25FB0
  8
0
 10
4472.2619385262541982
 20
292.4976096038315063
 30
0.0
 40
0.2190445860977709
 50
244.3926852925935123
 51
272.1747384373692853
  0
ARC
  5
25FB1
  8
0
 10
4472.3047626322531869
 20
292.6090376566198756
 30
0.0
 40
0.3381711305528473
 50
220.1418140715038021
 51
246.0094993891914896
  0
ARC
  5
25FB2
  8
0
 10
4472.2609924788439457
 20
292.5657382912427806
 30
0.0
 40
0.2768397369786587
 50
185.989492426681295
 51
219.1312754774810116
  0
ARC
  5
25FB3
  8
0
 10
4472.3813641222122897
 20
292.5766672481707928
 30
0.0
 40
0.3976982662191564
 50
160.7133365020079907
 51
185.7458701592856016
  0
ARC
  5
25FB4
  8
0
 10
4473.4406655115462854
 20
292.1789696192532801
 30
0.0
 40
1.5291193880887151
 50
152.254315516058
 51
159.7579492972114963
  0
ARC
  5
25FB5
  8
0
 10
4471.574261051792746
 20
293.1645661393412183
 30
0.0
 40
0.5815430797881259
 50
331.9218264045218802
 51
352.4298052184208814
  0
ARC
  5
25FB6
  8
0
 10
4471.8161873705021208
 20
292.8450348240729113
 30
0.0
 40
0.469336977012951
 50
20.7073537021009386
 51
37.3759051820007286
  0
ARC
  5
25FB7
  8
0
 10
4471.9364598765032497
 20
293.2232962529569136
 30
0.0
 40
0.2464142388115244
 50
11.1317023850888308
 51
43.0878575086761728
  0
ARC
  5
25FB8
  8
0
 10
4471.67616804933823
 20
293.2106608093159252
 30
0.0
 40
0.4366176575576188
 50
21.8930315633606085
 51
36.1760388903111334
  0
ARC
  5
25FB9
  8
0
 10
4471.878869343313454
 20
293.6695355701505719
 30
0.0
 40
0.1795828553852276
 50
1.979257231631433
 51
46.1930076003597918
  0
ARC
  5
25FBA
  8
0
 10
4471.890259999519003
 20
293.6304647967712071
 30
0.0
 40
0.1139519973585042
 50
1.2496636494639159
 51
18.2608085214433089
  0
ARC
  5
25FBB
  8
0
 10
4471.928174178381596
 20
293.721479495085589
 30
0.0
 40
0.0404783461184652
 50
29.7626955757258287
 51
59.7470118507811279
  0
ARC
  5
25FBC
  8
0
 10
4471.6442827571672751
 20
293.6329416778070822
 30
0.0
 40
0.291592993374239
 50
21.9437041296816098
 51
36.1390413985320578
  0
ARC
  5
25FBD
  8
0
 10
4471.7215005461412147
 20
293.9647575299815117
 30
0.0
 40
0.1288272685724694
 50
0.0034528628607359
 51
23.7347652797509703
  0
ARC
  5
25FBE
  8
0
 10
4471.6970784527829892
 20
294.0253104935429178
 30
0.0
 40
0.1904119728573872
 50
0.543221915701153
 51
42.0619099513297598
  0
ARC
  5
25FBF
  8
0
 10
4471.754647116783417
 20
294.2015711552572839
 30
0.0
 40
0.1533892882224059
 50
354.1984274631249718
 51
46.3161307375599307
  0
ARC
  5
25FC0
  8
0
 10
4471.5300523764881291
 20
294.3203507693683036
 30
0.0
 40
0.2143234449042565
 50
0.6376897131425115
 51
37.3080449319463128
  0
ARC
  5
25FC1
  8
0
 10
4471.5795877970040237
 20
294.5064360443519718
 30
0.0
 40
0.1714361302617256
 50
354.6975171287317039
 51
40.9606578387405804
  0
ARC
  5
25FC2
  8
0
 10
4471.596494406842794
 20
294.7809273059680777
 30
0.0
 40
0.1461436411641515
 50
348.5771578311116059
 51
43.422226484118859
  0
ARC
  5
25FC3
  8
0
 10
4471.4365513323482446
 20
295.0047110269155723
 30
0.0
 40
0.1715761387149824
 50
351.0594056336286144
 51
37.2825965509798181
  0
ARC
  5
25FC4
  8
0
 10
4471.4238236207538648
 20
295.3561016416541065
 30
0.0
 40
0.1531873963497555
 50
345.6469374349283044
 51
37.8384826951851423
  0
ARC
  5
25FC5
  8
0
 10
4471.2817039640804069
 20
295.4750879010904896
 30
0.0
 40
0.1901027373104124
 50
349.9028284198299161
 51
31.4921524144720308
  0
ARC
  5
25FC6
  8
0
 10
4471.2607750662109538
 20
295.5359382146355074
 30
0.0
 40
0.1384592001743123
 50
9.1016459373533838
 51
31.1603136602987192
  0
ARC
  5
25FC7
  8
0
 10
4471.246741210892651
 20
295.8730373848446789
 30
0.0
 40
0.1798384831602641
 50
345.8401092274322082
 51
29.9877018627913685
  0
ARC
  5
25FC8
  8
0
 10
4471.0505487222317242
 20
295.7810008718096242
 30
0.0
 40
0.269884488009339
 50
355.2709546658513773
 51
10.6120256662732508
  0
ARC
  5
25FC9
  8
0
 10
4470.5969936859546578
 20
295.928860656427787
 30
0.0
 40
0.6686766867640952
 50
1.0594777308920349
 51
12.7402040758403494
  0
ARC
  5
25FCA
  8
0
 10
4470.8321031501036487
 20
296.154807652460704
 30
0.0
 40
0.436462313419738
 50
355.8225214384655146
 51
10.0760707942999606
  0
ARC
  5
25FCB
  8
0
 10
4471.059007363605815
 20
296.2819941923044098
 30
0.0
 40
0.246776825473992
 50
348.9362135383909731
 51
20.8441634027700999
  0
ARC
  5
25FCC
  8
0
 10
4470.7569643876413465
 20
296.5390765486163787
 30
0.0
 40
0.4693110986188322
 50
354.6236546175308035
 51
11.2931303437425097
  0
ARC
  5
25FCD
  8
0
 10
4472.2021053211428807
 20
293.0197999308130079
 30
0.0
 40
0.023658764069653
 50
241.8034372492923012
 51
286.651928530584712
  0
ARC
  5
25FCE
  8
0
 10
4472.2024342488621187
 20
293.0203441955483754
 30
0.0
 40
0.0242938815914644
 50
206.9934857559181864
 51
241.7262441047114976
  0
ARC
  5
25FCF
  8
0
 10
4473.1407142189400474
 20
293.4212236838750982
 30
0.0
 40
1.044570256893063
 50
198.6055012471501868
 51
203.2242439262309119
  0
ARC
  5
25FD0
  8
0
 10
4472.4936320338138103
 20
293.1740965795161742
 30
0.0
 40
0.3514557322424636
 50
197.5456431736388083
 51
203.9672246651385024
  0
ARC
  5
25FD1
  8
0
 10
4471.8250941368769418
 20
292.9207243763328847
 30
0.0
 40
0.3645686331666478
 50
17.6612443215527115
 51
23.8516235172465016
  0
ARC
  5
25FD2
  8
0
 10
4472.1748705500858705
 20
293.0960332321171222
 30
0.0
 40
0.025451643458769
 50
155.2291400443328939
 51
198.5096976896315937
  0
ARC
  5
25FD3
  8
0
 10
4472.1730667996553166
 20
293.0964149266645791
 30
0.0
 40
0.0236574673696122
 50
114.857049338185206
 51
154.2381043788248007
  0
ARC
  5
25FD4
  8
0
 10
4472.0803794738067154
 20
293.2065670201765215
 30
0.0
 40
0.0237331947787953
 50
199.104237320628414
 51
284.7335562497851811
  0
ARC
  5
25FD5
  8
0
 10
4472.6773833765810195
 20
293.4550647349656742
 30
0.0
 40
0.6703472309100506
 50
195.4038620877531116
 51
202.4754415839489923
  0
ARC
  5
25FD6
  8
0
 10
4472.0537527638043684
 20
293.2839645876136956
 30
0.0
 40
0.0236813974343426
 50
113.1278987981609987
 51
197.0871857681738106
  0
ARC
  5
25FD7
  8
0
 10
4471.1345073123893599
 20
292.753138064685686
 30
0.0
 40
1.0928460346924711
 50
23.9124548640259
 51
31.0568959226447383
  0
ARC
  5
25FD8
  8
0
 10
4472.1267530268760311
 20
293.2813404041680769
 30
0.0
 40
0.0242100094692555
 50
209.2321058448879114
 51
285.5458392253426041
  0
ARC
  5
25FD9
  8
0
 10
4472.325188676725702
 20
293.3830233824958782
 30
0.0
 40
0.2471664888253977
 50
199.2145870913277008
 51
207.3373377505191968
  0
ARC
  5
25FDA
  8
0
 10
4472.1008757102208619
 20
293.3557532313794809
 30
0.0
 40
0.0264006966039859
 50
116.7952019305583065
 51
207.3474467813121009
  0
ARC
  5
25FDB
  8
0
 10
4471.9115313459124081
 20
293.2458631968352165
 30
0.0
 40
0.1915576411334983
 50
14.14282240528137
 51
25.9391324635716494
  0
ARC
  5
25FDC
  8
0
 10
4472.2707362309993186
 20
293.3768940916426118
 30
0.0
 40
0.1928213247835424
 50
194.1816126237673075
 51
205.9003422450703908
  0
ARC
  5
25FDD
  8
0
 10
4472.0368275228001949
 20
293.3575353593831778
 30
0.0
 40
0.0236698807748775
 50
227.5541356639253081
 51
284.5462041928115013
  0
ARC
  5
25FDE
  8
0
 10
4472.0402350107024176
 20
293.3604969867848808
 30
0.0
 40
0.0281597234646382
 50
198.0169789630080004
 51
226.5048886020248062
  0
ARC
  5
25FDF
  8
0
 10
4472.6021278025409629
 20
293.57858223133411
 30
0.0
 40
0.6308489115140957
 50
199.0832416337314896
 51
201.0699625976961897
  0
ARC
  5
25FE0
  8
0
 10
4472.0145444326662982
 20
293.4344827122491211
 30
0.0
 40
0.0276090031334398
 50
161.3209489784269977
 51
201.6244261546287078
  0
ARC
  5
25FE1
  8
0
 10
4472.0105928950406451
 20
293.4351511112138269
 30
0.0
 40
0.0236599890777452
 50
112.7953471180397997
 51
159.7894404674763109
  0
ARC
  5
25FE2
  8
0
 10
4471.9265348344897575
 20
293.4969902889064883
 30
0.0
 40
0.0124473865149657
 50
220.7474922468196041
 51
281.0737494982431031
  0
ARC
  5
25FE3
  8
0
 10
4471.3543272124652503
 20
293.2762704830428788
 30
0.0
 40
0.6718955808584556
 50
19.3000138655884612
 51
30.9249204345729787
  0
ARC
  5
25FE4
  8
0
 10
4471.9121627013082616
 20
293.588888127168218
 30
0.0
 40
0.0238289987235861
 50
111.2724000463358038
 51
200.3537323750672954
  0
ARC
  5
25FE5
  8
0
 10
4471.9540734240354141
 20
293.6452985913098814
 30
0.0
 40
0.0241113949345583
 50
202.5732374826991133
 51
283.6352137518475729
  0
ARC
  5
25FE6
  8
0
 10
4471.6701965832953647
 20
293.5950373870300041
 30
0.0
 40
0.2623720290341476
 50
13.8197256135580009
 51
22.4248546717933586
  0
ARC
  5
25FE7
  8
0
 10
4472.1694809766977414
 20
293.7584436995667261
 30
0.0
 40
0.264445203935128
 50
193.8535192904982978
 51
202.3910609948532908
  0
ARC
  5
25FE8
  8
0
 10
4472.0014412701566471
 20
293.7344220392146212
 30
0.0
 40
0.0976062218436081
 50
188.9135926302012933
 51
197.8562867886535059
  0
ARC
  5
25FE9
  8
0
 10
4471.928700295334238
 20
293.7224999982129816
 30
0.0
 40
0.0239018547466557
 50
112.4052690316047034
 51
187.6976135897014046
  0
ARC
  5
25FEA
  8
0
 10
4472.0093088320800234
 20
293.6874982731567911
 30
0.0
 40
0.0239220805305177
 50
243.0670295463370962
 51
284.7948592077552803
  0
ARC
  5
25FEB
  8
0
 10
4472.0103336997080987
 20
293.689160970126693
 30
0.0
 40
0.025869146476049
 50
212.4573367314565928
 51
242.7113420945896962
  0
ARC
  5
25FEC
  8
0
 10
4472.1385133929461517
 20
293.759448846365899
 30
0.0
 40
0.1720091036986271
 50
197.9854676248079102
 51
209.2972773738366925
  0
ARC
  5
25FED
  8
0
 10
4472.0832806493272074
 20
293.778787599642726
 30
0.0
 40
0.1256071082544349
 50
188.615615687350811
 51
197.234031011820008
  0
ARC
  5
25FEE
  8
0
 10
4471.9849326423682214
 20
293.7636901483157885
 30
0.0
 40
0.0261079510323403
 50
151.5336712977183993
 51
188.1896889221605988
  0
ARC
  5
25FEF
  8
0
 10
4471.9828626384432937
 20
293.7645205515082125
 30
0.0
 40
0.0238937891672975
 50
113.0755237200125976
 51
150.9182387346197061
  0
ARC
  5
25FF0
  8
0
 10
4471.8432567404515794
 20
293.673551846324699
 30
0.0
 40
0.1393880384043815
 50
10.8203930565572506
 51
27.0622542506406205
  0
ARC
  5
25FF1
  8
0
 10
4472.1057517577683029
 20
293.7636355433784274
 30
0.0
 40
0.1409146445760352
 50
190.9089557687576075
 51
206.9736915384463032
  0
ARC
  5
25FF2
  8
0
 10
4471.8834002443381905
 20
293.6935525486875918
 30
0.0
 40
0.0237495704292812
 50
196.5672632607287937
 51
282.6019251435188835
  0
ARC
  5
25FF3
  8
0
 10
4472.3517459702707129
 20
293.8779841237375194
 30
0.0
 40
0.5270172558987097
 50
192.2391328241178883
 51
201.2724501386090878
  0
ARC
  5
25FF4
  8
0
 10
4471.8597086208437759
 20
293.7718855644512246
 30
0.0
 40
0.0236793262395194
 50
110.9636458017488962
 51
193.7420514441076875
  0
ARC
  5
25FF5
  8
0
 10
4471.8060762305531171
 20
293.8451811570599261
 30
0.0
 40
0.0039364220399692
 50
26.5792634091755104
 51
103.5073827394141972
  0
ARC
  5
25FF6
  8
0
 10
4472.4132930736986964
 20
294.2150804564100213
 30
0.0
 40
0.6978660949033361
 50
206.1225801148763992
 51
212.2285769226826062
  0
ARC
  5
25FF7
  8
0
 10
4470.8795004889116171
 20
293.4843676131009147
 30
0.0
 40
1.0092807865587159
 50
20.8084677362841788
 51
28.6074613328941396
  0
ARC
  5
25FF8
  8
0
 10
4471.7929260871760562
 20
293.9463649102527256
 30
0.0
 40
0.0383830992298112
 50
260.8729886416015802
 51
273.8400750279300837
  0
ARC
  5
25FF9
  8
0
 10
4471.8015726506473584
 20
293.9781896954268063
 30
0.0
 40
0.0236363472780214
 50
223.8380762638504962
 51
282.467541611746185
  0
ARC
  5
25FFA
  8
0
 10
4471.8022098633500718
 20
293.9787195398628228
 30
0.0
 40
0.0244630226949262
 50
200.499321076605014
 51
223.6994891913149104
  0
ARC
  5
25FFB
  8
0
 10
4473.8338597169677087
 20
294.6290678863605876
 30
0.0
 40
2.1576379697314501
 50
195.6017256609422077
 51
197.7814655358588141
  0
ARC
  5
25FFC
  8
0
 10
4471.7806934734780953
 20
294.0565567540663778
 30
0.0
 40
0.0261571645090347
 50
169.0857567331356961
 51
197.310532172608788
  0
ARC
  5
25FFD
  8
0
 10
4471.7781735254966407
 20
294.0567616092531011
 30
0.0
 40
0.023645621539364
 50
133.5528354374390858
 51
168.4170229921942905
  0
ARC
  5
25FFE
  8
0
 10
4471.7781638914202631
 20
294.0567698824501122
 30
0.0
 40
0.0236329875604824
 50
110.705968962879993
 51
133.5497279165840894
  0
ARC
  5
25FFF
  8
0
 10
4472.4619088440349515
 20
294.2673455704980938
 30
0.0
 40
0.7649537845380517
 50
199.6697185920963875
 51
208.0345022265314867
  0
ARC
  5
26000
  8
0
 10
4471.8400593816177206
 20
294.0403967676368211
 30
0.0
 40
0.0237941251592296
 50
227.2224441739240888
 51
283.2046320391007157
  0
ARC
  5
26001
  8
0
 10
4471.8493648512012442
 20
294.0484570943759763
 30
0.0
 40
0.0360557243896481
 50
194.9815349799976048
 51
225.0671695546720912
  0
ARC
  5
26002
  8
0
 10
4472.2891849468724104
 20
294.2224972480224778
 30
0.0
 40
0.5088359881667895
 50
192.4299308679264016
 51
201.1219082317161053
  0
ARC
  5
26003
  8
0
 10
4471.8159962668032676
 20
294.1179873342018141
 30
0.0
 40
0.0242444725964486
 50
111.8900175434578017
 51
191.937275869163102
  0
ARC
  5
26004
  8
0
 10
4471.6069090200580831
 20
294.0102836824855217
 30
0.0
 40
0.2088186383549738
 50
11.9539757695963296
 51
22.7719452462124217
  0
ARC
  5
26005
  8
0
 10
4472.0064831500676519
 20
294.1352190048982038
 30
0.0
 40
0.211678993833858
 50
192.0272792649838038
 51
202.6986417508219063
  0
ARC
  5
26006
  8
0
 10
4471.8615411127402695
 20
294.2012100045074021
 30
0.0
 40
0.0253542643624515
 50
202.5654892407274872
 51
282.2967661457500981
  0
ARC
  5
26007
  8
0
 10
4472.0336096801383974
 20
294.2957727469889733
 30
0.0
 40
0.2215625641948439
 50
188.7495580587898871
 51
208.0805266673077938
  0
ARC
  5
26008
  8
0
 10
4471.8585508628693788
 20
294.2749694054335805
 30
0.0
 40
0.0457803663022851
 50
171.1011910286584907
 51
196.3662414934404978
  0
ARC
  5
26009
  8
0
 10
4471.8369684072540622
 20
294.2771234344435243
 30
0.0
 40
0.0241548404773001
 50
111.776390587041206
 51
168.2286909025083901
  0
ARC
  5
2600A
  8
0
 10
4471.7157888116889808
 20
294.1963073060485954
 30
0.0
 40
0.1179494486358894
 50
7.9628989681429569
 51
27.1768754141018292
  0
ARC
  5
2600B
  8
0
 10
4471.9391257578163277
 20
294.2670247898125808
 30
0.0
 40
0.1196012699483775
 50
188.0968129354972973
 51
207.0429614182639
  0
ARC
  5
2600C
  8
0
 10
4471.7060874907083416
 20
294.5052636656992036
 30
0.0
 40
0.0237870180094119
 50
236.569487957245201
 51
282.3318264353611085
  0
ARC
  5
2600D
  8
0
 10
4471.7089013127761064
 20
294.5083415527751072
 30
0.0
 40
0.0279135182141386
 50
200.9206342409190995
 51
235.2298226344283876
  0
ARC
  5
2600E
  8
0
 10
4471.6829385479495613
 20
294.5835877005744123
 30
0.0
 40
0.0238003166939508
 50
110.6207604640010942
 51
154.7544725830288996
  0
ARC
  5
2600F
  8
0
 10
4471.6841151766748226
 20
294.5831512085903228
 30
0.0
 40
0.0250509554282286
 50
154.9992645060127927
 51
182.4919845226725954
  0
ARC
  5
26010
  8
0
 10
4471.7634194634929372
 20
294.5921676072588866
 30
0.0
 40
0.1048198262324729
 50
185.532438408152899
 51
195.0398647018766951
  0
ARC
  5
26011
  8
0
 10
4471.9559076330151584
 20
294.6243356960411006
 30
0.0
 40
0.2996572797748073
 50
191.4270031989040035
 51
200.7296877927080061
  0
ARC
  5
26012
  8
0
 10
4471.9241439535599056
 20
294.5966832392873016
 30
0.0
 40
0.2605725295596732
 50
197.5134677345166097
 51
202.1653214038969963
  0
ARC
  5
26013
  8
0
 10
4471.5047649280995756
 20
294.488335502602979
 30
0.0
 40
0.1753613276758583
 50
10.0247909531057893
 51
22.9146533164546113
  0
ARC
  5
26014
  8
0
 10
4471.8545677854008318
 20
294.5917507887564852
 30
0.0
 40
0.1915305504849743
 50
190.5708999577578027
 51
202.3685443118073977
  0
ARC
  5
26015
  8
0
 10
4471.6974273482646822
 20
294.7678778522114271
 30
0.0
 40
0.0242676992348699
 50
224.5401905075208049
 51
281.6885351000772744
  0
ARC
  5
26016
  8
0
 10
4471.711462477387613
 20
294.7794816326775162
 30
0.0
 40
0.0424395455690777
 50
200.2271622548256005
 51
222.4151505589535986
  0
ARC
  5
26017
  8
0
 10
4471.8806339796492466
 20
294.8618966659630019
 30
0.0
 40
0.2304441711335313
 50
187.7050922909708106
 51
204.9172601757923928
  0
ARC
  5
26018
  8
0
 10
4471.6926341014568607
 20
294.8419659962024753
 30
0.0
 40
0.041826772395567
 50
161.5198479015743089
 51
195.1991980265379993
  0
ARC
  5
26019
  8
0
 10
4471.6750574219613554
 20
294.8456271688284005
 30
0.0
 40
0.0240875849689906
 50
110.170270644185905
 51
156.5207131827158094
  0
ARC
  5
2601A
  8
0
 10
4471.5561737119123791
 20
294.7693147558370015
 30
0.0
 40
0.1134626405921734
 50
6.0338512982996546
 51
26.0152342450180392
  0
ARC
  5
2601B
  8
0
 10
4471.7715973661161115
 20
294.8311863714270089
 30
0.0
 40
0.114101343474771
 50
186.0903448787429113
 51
205.9587406645638055
  0
ARC
  5
2601C
  8
0
 10
4471.732701937244201
 20
294.3022039904229814
 30
0.0
 40
0.0449153776474425
 50
203.6414928520048022
 51
215.0755752451281921
  0
ARC
  5
2601D
  8
0
 10
4471.7003689480507092
 20
294.2797478712853945
 30
0.0
 40
0.0055533646029349
 50
217.1641558311517031
 51
251.9114427932466924
  0
ARC
  5
2601E
  8
0
 10
4471.9370531516724441
 20
294.3756502060005005
 30
0.0
 40
0.2619795690930984
 50
191.9632243382525871
 51
200.4324585360737956
  0
ARC
  5
2601F
  8
0
 10
4471.4398928820728543
 20
294.207319080195191
 30
0.0
 40
0.2673230479187357
 50
14.5133578648572694
 51
24.8307109073453383
  0
ARC
  5
26020
  8
0
 10
4471.6984760672030461
 20
294.3370103728332765
 30
0.0
 40
0.0236432817775546
 50
255.5872182674027044
 51
282.1866433254180038
  0
ARC
  5
26021
  8
0
 10
4471.698487262560775
 20
294.3370327290832051
 30
0.0
 40
0.0236677216039476
 50
234.2004911210549949
 51
255.5744400770703066
  0
ARC
  5
26022
  8
0
 10
4471.6985230737836901
 20
294.337077961856096
 30
0.0
 40
0.0237253564375664
 50
221.3256774999478864
 51
234.1942451138224044
  0
ARC
  5
26023
  8
0
 10
4471.7183336626130767
 20
294.349303776495276
 30
0.0
 40
0.0468383440486819
 50
190.5242483796369015
 51
216.5488048791806079
  0
LINE
  5
26024
  8
0
 10
4471.6709540099845981
 20
294.3433868636980719
 30
0.0
 11
4471.6520076180859178
 21
294.4124961094375976
 31
0.0
  0
ARC
  5
26025
  8
0
 10
4471.6754857258902121
 20
294.4156498974006126
 30
0.0
 40
0.0236889831898986
 50
110.4675668144323026
 51
187.6506804109451139
  0
ARC
  5
26026
  8
0
 10
4471.4439887618700595
 20
294.2273776024737799
 30
0.0
 40
0.2548948264319412
 50
26.4090013037922517
 51
34.6372193898493208
  0
ARC
  5
26027
  8
0
 10
4471.6086316048158551
 20
294.3423620158134781
 30
0.0
 40
0.0540871578695111
 50
33.5502960819865876
 51
49.7646521507452988
  0
ARC
  5
26028
  8
0
 10
4471.6393716112534094
 20
294.3787792618413732
 30
0.0
 40
0.0064307067294051
 50
49.2648308589242276
 51
83.8056243590266661
  0
ARC
  5
26029
  8
0
 10
4471.640060478101077
 20
294.3828758327518926
 30
0.0
 40
0.0022965960101004
 50
89.8748180934458105
 51
158.9893252923114915
  0
ARC
  5
2602A
  8
0
 10
4471.648971766620889
 20
294.379576859468898
 30
0.0
 40
0.0117987901830099
 50
159.5498879022952963
 51
184.0946289738213011
  0
ARC
  5
2602B
  8
0
 10
4471.8296932333023506
 20
294.4080777418599268
 30
0.0
 40
0.1947138593127396
 50
188.6674899644964967
 51
203.6796763804175043
  0
ARC
  5
2602C
  8
0
 10
4471.9894714995316463
 20
294.4657613540152852
 30
0.0
 40
0.3643832886095061
 50
201.8957044219640977
 51
210.7494121105490876
  0
ARC
  5
2602D
  8
0
 10
4471.7862164838670651
 20
294.3440124036191037
 30
0.0
 40
0.1274572209002584
 50
210.4296262429751039
 51
219.6007631666601014
  0
ARC
  5
2602E
  8
0
 10
4471.7142732223592247
 20
294.2842805076375043
 30
0.0
 40
0.033949838598979
 50
219.3229554076359875
 51
232.8133718476773026
  0
ARC
  5
2602F
  8
0
 10
4471.6990076122583559
 20
294.2643550572479967
 30
0.0
 40
0.0088498667492698
 50
233.5803513140949121
 51
252.1748969013790997
  0
ARC
  5
26030
  8
0
 10
4471.6972739642405941
 20
294.2583847481661792
 30
0.0
 40
0.0026414167810481
 50
248.3291571445001864
 51
309.6509883274699177
  0
ARC
  5
26031
  8
0
 10
4471.6960376659762915
 20
294.2592525082450834
 30
0.0
 40
0.0041177332074554
 50
315.1997683928893821
 51
349.2212214616836832
  0
ARC
  5
26032
  8
0
 10
4471.6815295621745463
 20
294.2622252995005852
 30
0.0
 40
0.0189269612346599
 50
348.5943594247455053
 51
5.5514972663304558
  0
ARC
  5
26033
  8
0
 10
4471.5890092865993211
 20
294.251054827255814
 30
0.0
 40
0.1121148765296023
 50
6.6593248685267348
 51
11.9722804105025595
  0
ARC
  5
26034
  8
0
 10
4471.746613777229868
 20
294.0353845957162093
 30
0.0
 40
0.0016503268906398
 50
285.6246616735202224
 51
335.2387303075574891
  0
ARC
  5
26035
  8
0
 10
4471.7414746578406266
 20
294.0376127082703874
 30
0.0
 40
0.0072513298690382
 50
336.259636501952798
 51
1.4757402192306921
  0
ARC
  5
26036
  8
0
 10
4471.6967299467241901
 20
294.0369236893610037
 30
0.0
 40
0.0520010109342701
 50
0.9649840049361056
 51
12.7379504875401697
  0
ARC
  5
26037
  8
0
 10
4471.4491277092402015
 20
293.9814351862486888
 30
0.0
 40
0.30574459049611
 50
12.6495868575772903
 51
19.3689522025139915
  0
ARC
  5
26038
  8
0
 10
4470.6960022531020513
 20
293.7203310042557973
 30
0.0
 40
1.102845619969641
 50
19.1898352595303088
 51
26.3322027467863613
  0
ARC
  5
26039
  8
0
 10
4471.4161443443190365
 20
294.0875861567309926
 30
0.0
 40
0.2946822875053639
 50
24.4437795025751505
 51
36.6063114959823466
  0
ARC
  5
2603A
  8
0
 10
4471.6405977120075477
 20
294.2527953797937812
 30
0.0
 40
0.0160321660351597
 50
40.9796363762570621
 51
56.155544065686577
  0
ARC
  5
2603B
  8
0
 10
4471.647439916161602
 20
294.2629795712945793
 30
0.0
 40
0.0037629763720178
 50
56.3203617619546222
 51
81.5944611952931069
  0
ARC
  5
2603C
  8
0
 10
4471.6478276953366731
 20
294.2650202677024254
 30
0.0
 40
0.001689670522863
 50
84.4884197493244216
 51
106.6696502456725995
  0
ARC
  5
2603D
  8
0
 10
4471.574221737667358
 20
294.173039139134687
 30
0.0
 40
0.0061326096607039
 50
24.120710314687269
 51
100.3906868279020017
  0
ARC
  5
2603E
  8
0
 10
4471.5753486850826448
 20
294.1752977385187933
 30
0.0
 40
0.0044770521934903
 50
3.1697441168439462
 51
18.9765665828629295
  0
ARC
  5
2603F
  8
0
 10
4468.7763012800051001
 20
293.1602258213710002
 30
0.0
 40
2.9820338127356449
 50
20.0035063108571585
 51
21.8721840957603284
  0
ARC
  5
26040
  8
0
 10
4471.5441999387749092
 20
294.2658016083818779
 30
0.0
 40
0.0053682557124055
 50
50.0342034225241719
 51
102.6278828616684962
  0
ARC
  5
26041
  8
0
 10
4471.5562931118156484
 20
294.2743058589051088
 30
0.0
 40
0.0096957017926052
 50
206.9211856956868019
 51
223.3067374533740974
  0
ARC
  5
26042
  8
0
 10
4471.5499657270565876
 20
294.2683588431074213
 30
0.0
 40
0.0010123080774288
 50
224.0075431371377874
 51
247.7454503337012
  0
ARC
  5
26043
  8
0
 10
4471.549684594714563
 20
294.2676457902945231
 30
0.0
 40
0.0002460967459222
 50
245.4497266429578985
 51
316.929890408590893
  0
ARC
  5
26044
  8
0
 10
4471.5476558011660018
 20
294.2684166702704829
 30
0.0
 40
0.0023998736145851
 50
336.9680339231388189
 51
7.357735468850775
  0
ARC
  5
26045
  8
0
 10
4470.686044165488056
 20
294.0267579888878231
 30
0.0
 40
0.8976551815587994
 50
15.8853153293562492
 51
25.9540744193807917
  0
ARC
  5
26046
  8
0
 10
4471.500356120925062
 20
294.417988787650927
 30
0.0
 40
0.007371793191938
 50
167.2374722890305918
 51
178.3871923710192107
  0
ARC
  5
26047
  8
0
 10
4471.4872171416282072
 20
294.4177374530167981
 30
0.0
 40
0.0061879160938245
 50
293.6255820896623732
 51
350.0687226877382159
  0
ARC
  5
26048
  8
0
 10
4471.5197846805749577
 20
294.4060998922686849
 30
0.0
 40
0.0057739304524039
 50
224.0435917974407971
 51
291.6244225872407014
  0
ARC
  5
26049
  8
0
 10
4471.3132006655523583
 20
294.2545747997921808
 30
0.0
 40
0.250477314212826
 50
36.0803841935620611
 51
43.7046018998834782
  0
ARC
  5
2604A
  8
0
 10
4471.4795474974462195
 20
294.4141963231738259
 30
0.0
 40
0.019939505883915
 50
42.3927432817820815
 51
66.0912050033184357
  0
ARC
  5
2604B
  8
0
 10
4471.486838346562763
 20
294.4304027190005968
 30
0.0
 40
0.0021710744419999
 50
68.6539163246719824
 51
117.4855462657333049
  0
ARC
  5
2604C
  8
0
 10
4471.4868340849116066
 20
294.4307559007478972
 30
0.0
 40
0.0018626082711264
 50
122.3893521035027021
 51
153.7006960987989999
  0
ARC
  5
2604D
  8
0
 10
4471.4905854617582008
 20
294.4293094246236819
 30
0.0
 40
0.0058779273174766
 50
157.2641103984481106
 51
181.8987503712120031
  0
ARC
  5
2604E
  8
0
 10
4471.510460602546118
 20
294.4294870410952853
 30
0.0
 40
0.0257525330857801
 50
180.8285045833316929
 51
193.4667275359832104
  0
ARC
  5
2604F
  8
0
 10
4471.4773677154680627
 20
294.3879382125787174
 30
0.0
 40
0.0531176208699065
 50
16.1684766002631513
 51
24.8388786129192916
  0
ARC
  5
26050
  8
0
 10
4471.5191358649353788
 20
294.4072307300908165
 30
0.0
 40
0.0071092634334531
 50
25.142263745160669
 51
40.9890975819184789
  0
ARC
  5
26051
  8
0
 10
4471.3191785001135941
 20
294.2616484904748972
 30
0.0
 40
0.2544237977372435
 50
36.1947475606879792
 51
43.2516528555037567
  0
ARC
  5
26052
  8
0
 10
4471.4792053348483023
 20
294.411936214478601
 30
0.0
 40
0.0348908208528286
 50
43.5616632442285479
 51
55.4993682763988332
  0
ARC
  5
26053
  8
0
 10
4471.4939931320768665
 20
294.4333622112034732
 30
0.0
 40
0.0088573409768353
 50
55.8286658513215173
 51
69.7080645590046402
  0
ARC
  5
26054
  8
0
 10
4471.4960116239972194
 20
294.4391602304207254
 30
0.0
 40
0.0027216793728658
 50
67.2325842645191898
 51
103.7552237689378956
  0
ARC
  5
26055
  8
0
 10
4471.4922881822612908
 20
294.4327704195068804
 30
0.0
 40
0.0076518887251418
 50
108.6384972291363056
 51
153.1762295412399908
  0
ARC
  5
26056
  8
0
 10
4471.4955159494656982
 20
294.431418810327898
 30
0.0
 40
0.0111450667293925
 50
154.4633574680212007
 51
180.980507996487006
  0
ARC
  5
26057
  8
0
 10
4471.5368648170897359
 20
294.4338417245965047
 30
0.0
 40
0.0525573295020056
 50
182.8504463086823932
 51
198.6145391310452055
  0
ARC
  5
26058
  8
0
 10
4472.3911827149713645
 20
294.9882010799723275
 30
0.0
 40
1.0096963495075859
 50
195.8487777574900974
 51
201.3167108559159999
  0
ARC
  5
26059
  8
0
 10
4472.8540490237792255
 20
295.1528870269523281
 30
0.0
 40
1.5008362978035841
 50
200.7500365105969991
 51
203.1820744525909106
  0
ARC
  5
2605A
  8
0
 10
4471.462485735417431
 20
294.5569143530930774
 30
0.0
 40
0.0129774973720422
 50
8.5766659095740838
 51
23.4384019194581086
  0
ARC
  5
2605B
  8
0
 10
4471.5295522871192588
 20
294.5409669710422804
 30
0.0
 40
0.0571063827835826
 50
161.7509524402915986
 51
190.1628168746265999
  0
ARC
  5
2605C
  8
0
 10
4471.6908583915801501
 20
294.5543571130614851
 30
0.0
 40
0.2187786540500985
 50
186.1574263254196921
 51
189.8566904106938011
  0
ARC
  5
2605D
  8
0
 10
4471.6711017327061199
 20
294.5681146792609866
 30
0.0
 40
0.2023786351858217
 50
194.6572345179855859
 51
202.5841652744292958
  0
ARC
  5
2605E
  8
0
 10
4471.4970868630807672
 20
294.4960345848875249
 30
0.0
 40
0.0140289175963263
 50
203.7113174004799987
 51
209.9896777620074886
  0
ARC
  5
2605F
  8
0
 10
4471.4857122962903304
 20
294.489411366593913
 30
0.0
 40
0.0008681507596937
 50
206.6243007331439117
 51
240.4478129987479065
  0
ARC
  5
26060
  8
0
 10
4471.4841393438227897
 20
294.4890732274075162
 30
0.0
 40
0.0012183754318012
 50
339.9818759187489832
 51
13.9559404414847705
  0
ARC
  5
26061
  8
0
 10
4471.6841599765275532
 20
294.5226515280879767
 30
0.0
 40
0.20160479570528
 50
182.7831290022191126
 51
189.5029014823884097
  0
ARC
  5
26062
  8
0
 10
4471.519868684858011
 20
294.515596442409219
 30
0.0
 40
0.0371763717850833
 50
160.5237113397718929
 51
184.2173678625875937
  0
ARC
  5
26063
  8
0
 10
4471.4916154982465741
 20
294.525866980313026
 30
0.0
 40
0.0071203262424781
 50
92.7818367885557791
 51
162.6386318917654137
  0
ARC
  5
26064
  8
0
 10
4424.9359545424904354
 20
281.1966732887495937
 30
0.0
 40
48.4278271067300707
 50
15.8247349458115902
 51
16.1752650634201096
  0
ARC
  5
26065
  8
0
 10
4471.4451461885728349
 20
294.6834848548621153
 30
0.0
 40
0.0027928910392651
 50
332.0757519558596869
 51
356.9646896927778812
  0
ARC
  5
26066
  8
0
 10
4471.5460403048064109
 20
294.5392489509458187
 30
0.0
 40
0.0615649996223635
 50
168.033933067259909
 51
189.4247733449956002
  0
ARC
  5
26067
  8
0
 10
4471.3562909276906794
 20
294.4933370376098196
 30
0.0
 40
0.1405050249983825
 50
23.374070210282639
 51
26.8213334452155401
  0
LINE
  5
26068
  8
0
 10
4471.4801275490799526
 20
294.5562890958055959
 30
0.0
 11
4471.4816801238575863
 21
294.556734289399401
 31
0.0
  0
ARC
  5
26069
  8
0
 10
4471.4790724711492658
 20
294.5601043462356188
 30
0.0
 40
0.0039584498586098
 50
198.4784798653454914
 51
285.4583704003296134
  0
ARC
  5
2606A
  8
0
 10
4471.2049864713781062
 20
294.5080200081271187
 30
0.0
 40
0.3951015678656363
 50
359.0853287697656242
 51
36.1873913781968994
  0
ARC
  5
2606B
  8
0
 10
4471.4248764021403986
 20
294.7317170805357023
 30
0.0
 40
0.202401512848927
 50
356.5644978130706022
 51
35.434828131206622
  0
ARC
  5
2606C
  8
0
 10
4471.5842139842670804
 20
294.7349032257665158
 30
0.0
 40
0.0237796286003554
 50
199.2416369465103116
 51
281.7573814370305172
  0
ARC
  5
2606D
  8
0
 10
4472.1625083800108769
 20
294.9412392623366941
 30
0.0
 40
0.6377815021261981
 50
191.7129254246239043
 51
199.6217319500107124
  0
ARC
  5
2606E
  8
0
 10
4471.5616207601979113
 20
294.8135298564474169
 30
0.0
 40
0.0236792886854684
 50
110.150081922832797
 51
184.2757895447691112
  0
ARC
  5
2606F
  8
0
 10
4471.5652278539491817
 20
294.9940845837459733
 30
0.0
 40
0.0237974875249726
 50
233.8523316559231944
 51
281.3847420075035188
  0
ARC
  5
26070
  8
0
 10
4471.5669562315688381
 20
294.9960664447347085
 30
0.0
 40
0.026418326470513
 50
202.0144304910523942
 51
233.3608199184969862
  0
ARC
  5
26071
  8
0
 10
4471.7882096882904079
 20
295.0842105398086801
 30
0.0
 40
0.2645828193562647
 50
195.9332123200815943
 51
201.7508420692219886
  0
ARC
  5
26072
  8
0
 10
4471.6438340173654069
 20
295.0821013088893778
 30
0.0
 40
0.1247850833943372
 50
184.8424145070748068
 51
196.3930599236084902
  0
ARC
  5
26073
  8
0
 10
4471.5435293027767329
 20
295.0725548712827049
 30
0.0
 40
0.0240552379288766
 50
109.8794924311759047
 51
182.352389860498505
  0
ARC
  5
26074
  8
0
 10
4471.7211054263570986
 20
295.4140991348110106
 30
0.0
 40
0.2281481515366965
 50
196.6122798248862864
 51
201.0166496424033937
  0
ARC
  5
26075
  8
0
 10
4471.5453147269299734
 20
295.3450891976816024
 30
0.0
 40
0.039326038185623
 50
199.0148446154161093
 51
220.8955912609727079
  0
ARC
  5
26076
  8
0
 10
4471.533470585748546
 20
295.3356752424418801
 30
0.0
 40
0.0242182611082152
 50
222.4054094341734924
 51
280.1541526256522729
  0
ARC
  5
26077
  8
0
 10
4471.6230770854372167
 20
295.4180985156719998
 30
0.0
 40
0.1342150640104557
 50
181.9326043083565025
 51
194.9542426032633102
  0
ARC
  5
26078
  8
0
 10
4471.5134850001149971
 20
295.4136601215664086
 30
0.0
 40
0.0245467926759133
 50
108.9449629733177005
 51
180.2050854219592964
  0
ARC
  5
26079
  8
0
 10
4471.3864361976802684
 20
295.3394295764381923
 30
0.0
 40
0.1194379359490006
 50
5.0063320602199086
 51
23.9781311594640911
  0
ARC
  5
2607A
  8
0
 10
4471.6145353969786811
 20
295.398387046447283
 30
0.0
 40
0.1194240748955582
 50
185.0052208987289077
 51
203.9792423209611059
  0
ARC
  5
2607B
  8
0
 10
4471.296435405702141
 20
295.1363896328305145
 30
0.0
 40
0.2139775270589979
 50
354.6614119622701082
 51
31.3931525009043391
  0
ARC
  5
2607C
  8
0
 10
4471.4699539382527291
 20
295.132749552500286
 30
0.0
 40
0.0238693920744958
 50
196.1966222622781117
 51
281.350471999649983
  0
ARC
  5
2607D
  8
0
 10
4473.0272699221713992
 20
295.6118387842242896
 30
0.0
 40
1.653209761645452
 50
194.2168896797408024
 51
197.0868340943924011
  0
ARC
  5
2607E
  8
0
 10
4471.4478325280852005
 20
295.2113159378994851
 30
0.0
 40
0.0237828160551044
 50
109.9291643436881998
 51
193.3567310380711888
  0
ARC
  5
2607F
  8
0
 10
4471.3890058458546264
 20
294.777542212766889
 30
0.0
 40
0.004014734342747
 50
41.1611253174530276
 51
103.7854123312173016
  0
ARC
  5
26080
  8
0
 10
4471.3959560287339627
 20
294.7802758205406235
 30
0.0
 40
0.0033125900244474
 50
215.4169007992857132
 51
246.660395095325498
  0
ARC
  5
26081
  8
0
 10
4470.9489854138273586
 20
294.7460379245129047
 30
0.0
 40
0.4467487807400664
 50
4.0042100297723824
 51
24.8741978219912916
  0
ARC
  5
26082
  8
0
 10
4471.3476248506140109
 20
294.9330520417631192
 30
0.0
 40
0.0067265997439263
 50
296.175633769823321
 51
7.6943634707935598
  0
ARC
  5
26083
  8
0
 10
4474.77611289309516
 20
295.8640341895637107
 30
0.0
 40
3.5607162465604301
 50
194.6397812509200094
 51
195.3108564774965998
  0
ARC
  5
26084
  8
0
 10
4471.3354421497224394
 20
294.9601484038977901
 30
0.0
 40
0.0047841473430985
 50
37.5912082474323768
 51
101.1669332850069054
  0
ARC
  5
26085
  8
0
 10
4471.2652063943878602
 20
295.296951358322076
 30
0.0
 40
0.0059762696601395
 50
108.8354400704894971
 51
188.9904192968859888
  0
ARC
  5
26086
  8
0
 10
4470.3802016316376466
 20
294.9630755306753258
 30
0.0
 40
0.9330391245315411
 50
9.1737013231848152
 51
16.2479494687435206
  0
ARC
  5
26087
  8
0
 10
4471.2697344977232206
 20
295.2233215336505054
 30
0.0
 40
0.0062933339492364
 50
292.82950005565732
 51
7.4257374164179737
  0
ARC
  5
26088
  8
0
 10
4471.2986844601427947
 20
295.119021206510979
 30
0.0
 40
0.0077969190513327
 50
300.9047905580545716
 51
0.3782765559908744
  0
ARC
  5
26089
  8
0
 10
4470.7947874436767961
 20
294.9229908986063151
 30
0.0
 40
0.5479768022539327
 50
3.9165893523090758
 51
20.9669040200370098
  0
ARC
  5
2608A
  8
0
 10
4470.9871798831427441
 20
295.0732106081720758
 30
0.0
 40
0.4476374564409277
 50
354.9575837154051783
 51
27.6741665029160515
  0
ARC
  5
2608B
  8
0
 10
4471.4335365557999467
 20
294.8818603812180754
 30
0.0
 40
0.0837056921666923
 50
348.898231495448897
 51
4.0606993321739573
  0
ARC
  5
2608C
  8
0
 10
4471.5022587815019506
 20
294.8679201961946887
 30
0.0
 40
0.0135926125716185
 50
313.7412459291804225
 51
350.7815023688401084
  0
ARC
  5
2608D
  8
0
 10
4471.5086538373207077
 20
294.8615385135443034
 30
0.0
 40
0.0045652193737932
 50
227.0172309757197127
 51
311.1308308860213856
  0
ARC
  5
2608E
  8
0
 10
4471.5431933445916002
 20
294.8950509658457122
 30
0.0
 40
0.0526854277670164
 50
199.5101366965448051
 51
224.3849576677010873
  0
ARC
  5
2608F
  8
0
 10
4471.7161113748061325
 20
294.9675620369666831
 30
0.0
 40
0.240125677205614
 50
189.2410843327191969
 51
202.0396247015534072
  0
ARC
  5
26090
  8
0
 10
4471.6223124346233817
 20
294.957373982928118
 30
0.0
 40
0.1459939235193724
 50
175.7707095632192136
 51
191.2065806148391971
  0
ARC
  5
26091
  8
0
 10
4471.5038077194212747
 20
294.9652423058358863
 30
0.0
 40
0.0272462591051899
 50
150.8614263200850871
 51
173.8933533572065073
  0
ARC
  5
26092
  8
0
 10
4471.4857482477373196
 20
294.975425230510325
 30
0.0
 40
0.0065147827587975
 50
120.9164781633441947
 51
151.7465546157687015
  0
ARC
  5
26093
  8
0
 10
4471.4844018753410637
 20
294.9773372867995818
 30
0.0
 40
0.0041862100322837
 50
66.5210118812943421
 51
118.5523119967614036
  0
ARC
  5
26094
  8
0
 10
4471.4790512980143831
 20
294.9664878107029722
 30
0.0
 40
0.0162796700786471
 50
30.5815411908556491
 51
64.4616320532914528
  0
ARC
  5
26095
  8
0
 10
4471.4125098952908957
 20
294.9220653293397731
 30
0.0
 40
0.0962662611394144
 50
25.3393864174323795
 51
33.195112578207052
  0
ARC
  5
26096
  8
0
 10
4471.2818375771321371
 20
294.8741190965055807
 30
0.0
 40
0.2355480245747016
 50
12.2073471809093803
 51
17.42359390305338
  0
ARC
  5
26097
  8
0
 10
4470.3272415886967792
 20
294.5817800830324131
 30
0.0
 40
1.2293812198959611
 50
14.6549248207300504
 51
17.8181720758755517
  0
ARC
  5
26098
  8
0
 10
4471.5122687447392309
 20
294.9632451206138057
 30
0.0
 40
0.0155400820655413
 50
163.8428914580943001
 51
199.8537970324325954
  0
ARC
  5
26099
  8
0
 10
4471.4312639716117701
 20
295.4589517838397796
 30
0.0
 40
0.023768403569366
 50
230.3617594083935103
 51
280.4967907044622279
  0
ARC
  5
2609A
  8
0
 10
4471.4335510290920865
 20
295.4611398395438755
 30
0.0
 40
0.026914879685457
 50
201.874265707439406
 51
229.5839004126031
  0
ARC
  5
2609B
  8
0
 10
4471.6545478823381927
 20
295.543607427707002
 30
0.0
 40
0.2627899702379117
 50
195.4705482072363907
 51
200.6081142221138123
  0
ARC
  5
2609C
  8
0
 10
4471.7806477500962501
 20
295.6018382647080784
 30
0.0
 40
0.3996544817345114
 50
190.3919760637512866
 51
194.6516251305370986
  0
ARC
  5
2609D
  8
0
 10
4471.4155637533422123
 20
295.5366874103143005
 30
0.0
 40
0.0288615104545563
 50
158.9035499429703009
 51
193.9123453064715079
  0
ARC
  5
2609E
  8
0
 10
4471.4106158111972036
 20
295.538021238870499
 30
0.0
 40
0.0237711586920192
 50
108.7826131065766049
 51
157.6102440906088873
  0
ARC
  5
2609F
  8
0
 10
4471.3668151183601367
 20
295.4913232727848253
 30
0.0
 40
0.0236395665247084
 50
225.9688891091819869
 51
281.2888160773447908
  0
ARC
  5
260A0
  8
0
 10
4471.3699768323622266
 20
295.4937667500431075
 30
0.0
 40
0.0275998672312646
 50
192.1719076452679076
 51
224.7755133917796968
  0
ARC
  5
260A1
  8
0
 10
4470.342689381332093
 20
295.2086195873400811
 30
0.0
 40
1.0385760617716651
 50
15.6019569304602399
 51
16.8017033529482482
  0
ARC
  5
260A2
  8
0
 10
4471.8070586204548817
 20
295.5053298131755923
 30
0.0
 40
0.472790715325365
 50
179.8842347331249982
 51
185.7390684402286922
  0
ARC
  5
260A3
  8
0
 10
4472.0572524320086814
 20
295.5226698831305043
 30
0.0
 40
0.723506113868038
 50
185.124069998012601
 51
189.5827513512070936
  0
ARC
  5
260A4
  8
0
 10
4471.5891877292751815
 20
295.4415615637893779
 30
0.0
 40
0.2484789506443191
 50
189.1084476946219866
 51
195.6709599418630887
  0
ARC
  5
260A5
  8
0
 10
4471.395000690600682
 20
295.3873174116411064
 30
0.0
 40
0.0468585976448204
 50
195.9454794182460944
 51
203.3213580099701119
  0
ARC
  5
260A6
  8
0
 10
4471.3604956378121642
 20
295.3722878490708013
 30
0.0
 40
0.0092237109550745
 50
202.4423583013069958
 51
219.1359067570409991
  0
ARC
  5
260A7
  8
0
 10
4471.3548432643574415
 20
295.3677302281370771
 30
0.0
 40
0.0019631125388836
 50
220.0827548765751942
 51
245.6382483538432098
  0
ARC
  5
260A8
  8
0
 10
4471.3543388860844061
 20
295.3666817126053274
 30
0.0
 40
0.0008003575871415
 50
247.5685618561755064
 51
310.9475810935655886
  0
ARC
  5
260A9
  8
0
 10
4471.3529409914817734
 20
295.3681556676214086
 30
0.0
 40
0.0028312119566853
 50
312.7663940638694839
 51
342.4619643829780102
  0
ARC
  5
260AA
  8
0
 10
4471.3317685449455894
 20
295.3749260361040001
 30
0.0
 40
0.0250597912259229
 50
342.2891575018886101
 51
354.9179527483340166
  0
ARC
  5
260AB
  8
0
 10
4471.1556576789089377
 20
295.3877575471078103
 30
0.0
 40
0.2016346959013546
 50
355.7190778396113728
 51
2.4540422138572899
  0
ARC
  5
260AC
  8
0
 10
4470.5376994211601414
 20
295.3648928678676953
 30
0.0
 40
0.8200132099515194
 50
2.2013822144307671
 51
7.6698273383881483
  0
LINE
  5
260AD
  8
0
 10
4471.3269341033792443
 20
295.5452366983053025
 30
0.0
 11
4471.3217162429891687
 21
295.5662703734212755
 31
0.0
  0
ARC
  5
260AE
  8
0
 10
4471.3450652473738955
 20
295.5703117707859064
 30
0.0
 40
0.0236961789849553
 50
109.5846700117696031
 51
189.8198331978734075
  0
ARC
  5
260AF
  8
0
 10
4470.1877302916145709
 20
295.3655632862245284
 30
0.0
 40
1.136449239388708
 50
0.7879990002374756
 51
13.6357704674215796
  0
ARC
  5
260B0
  8
0
 10
4471.2850022202010223
 20
295.7761062927289117
 30
0.0
 40
0.0236618687791318
 50
200.913655275335401
 51
281.045193705950112
  0
ARC
  5
260B1
  8
0
 10
4471.8215979912465627
 20
295.9859431477148064
 30
0.0
 40
0.5968402824492385
 50
193.1182256185371955
 51
195.3335440286352878
  0
ARC
  5
260B2
  8
0
 10
4471.2635376070857092
 20
295.855173028456079
 30
0.0
 40
0.0236737468163642
 50
109.343859275949896
 51
191.4250034965610894
  0
ARC
  5
260B3
  8
0
 10
4471.3855474694573786
 20
295.847746009154605
 30
0.0
 40
0.024005590590544
 50
222.10094200424939
 51
278.8648433310959831
  0
ARC
  5
260B4
  8
0
 10
4471.4185327441418849
 20
295.8687235312448252
 30
0.0
 40
0.0628856968261853
 50
190.9926206448971016
 51
216.1223057528191021
  0
ARC
  5
260B5
  8
0
 10
4471.4957561203027581
 20
295.9338426222843736
 30
0.0
 40
0.1530338519066319
 50
183.7316553337398943
 51
192.5189617338315884
  0
ARC
  5
260B6
  8
0
 10
4471.3716722927056253
 20
295.9254842353158779
 30
0.0
 40
0.0286703343017791
 50
157.7322001279113977
 51
183.2023847024821066
  0
ARC
  5
260B7
  8
0
 10
4471.3672652600544097
 20
295.9268593183085727
 30
0.0
 40
0.0240741781232327
 50
126.3244480993072045
 51
156.786237049536112
  0
ARC
  5
260B8
  8
0
 10
4471.3671088593482636
 20
295.9270488183565249
 30
0.0
 40
0.0238288614743333
 50
107.1654974385811983
 51
126.2913708877277941
  0
ARC
  5
260B9
  8
0
 10
4471.2191478852801083
 20
295.8508579150918081
 30
0.0
 40
0.1391738783614088
 50
4.925178982992894
 51
21.1871886139026699
  0
ARC
  5
260BA
  8
0
 10
4471.4896775529741717
 20
295.9135940921985934
 30
0.0
 40
0.1413116151196336
 50
185.0489967917307865
 51
201.0633708051670965
  0
ARC
  5
260BB
  8
0
 10
4471.3513100055733958
 20
295.8389065637844055
 30
0.0
 40
0.0027407050712763
 50
288.4465373238140842
 51
339.9397947604763885
  0
ARC
  5
260BC
  8
0
 10
4471.3256775799982279
 20
295.8486726940627136
 30
0.0
 40
0.0301703481115521
 50
339.2152116802055275
 51
356.4375861742726102
  0
ARC
  5
260BD
  8
0
 10
4471.3173084459740494
 20
295.8543502661050866
 30
0.0
 40
0.0236950665204421
 50
245.5011530910946931
 51
279.7575515329211271
  0
ARC
  5
260BE
  8
0
 10
4471.3175360225222903
 20
295.8547077053316912
 30
0.0
 40
0.0241147674950821
 50
209.6441104180669015
 51
245.361287990654489
  0
ARC
  5
260BF
  8
0
 10
4471.4319446357621928
 20
295.9033185772934189
 30
0.0
 40
0.1482873540114671
 50
190.9735670914132868
 51
204.0949463983984913
  0
ARC
  5
260C0
  8
0
 10
4471.432397100158596
 20
295.9490734210157825
 30
0.0
 40
0.1593490496096449
 50
186.0842633931079888
 51
194.1695675966687986
  0
ARC
  5
260C1
  8
0
 10
4471.298300355721949
 20
295.9335213597451002
 30
0.0
 40
0.0243914051008509
 50
148.6259587853193977
 51
183.1433809828278072
  0
ARC
  5
260C2
  8
0
 10
4471.2976696318137328
 20
295.9338334679159743
 30
0.0
 40
0.0236904915851385
 50
107.9950820289200948
 51
148.476263588699112
  0
ARC
  5
260C3
  8
0
 10
4471.3164419873428415
 20
295.9537751005705104
 30
0.0
 40
0.0251840290488218
 50
17.840820139750889
 51
39.9364490602892133
  0
ARC
  5
260C4
  8
0
 10
4471.3343384964837242
 20
295.9686331963075077
 30
0.0
 40
0.0019261756170465
 50
42.7900524529184381
 51
103.1391129619250933
  0
ARC
  5
260C5
  8
0
 10
4471.232511760316811
 20
295.9591105603691972
 30
0.0
 40
0.0238284650675416
 50
191.6450052452150032
 51
280.7288627126438882
  0
ARC
  5
260C6
  8
0
 10
4471.2345165158803866
 20
296.1416427531547129
 30
0.0
 40
0.0236553463785702
 50
238.1084981417656934
 51
279.2088267609232162
  0
ARC
  5
260C7
  8
0
 10
4471.2348030319672034
 20
296.1419817382038104
 30
0.0
 40
0.0240946171263287
 50
202.3250239792147056
 51
237.9558895103376983
  0
ARC
  5
260C8
  8
0
 10
4471.2683592389930709
 20
296.1549576165073177
 30
0.0
 40
0.0600692020372883
 50
195.0735672607173115
 51
201.615918764113303
  0
ARC
  5
260C9
  8
0
 10
4471.8005834651557961
 20
296.3312218020885211
 30
0.0
 40
0.6190450069578214
 50
190.9624412895965122
 51
192.9004355509335937
  0
ARC
  5
260CA
  8
0
 10
4471.2234542449959918
 20
296.2207404396842207
 30
0.0
 40
0.0314637106906656
 50
169.6428513421680861
 51
193.302632905111011
  0
ARC
  5
260CB
  8
0
 10
4471.2156801922856175
 20
296.2213432118952028
 30
0.0
 40
0.0237216108660753
 50
134.4168509006298962
 51
167.6988642920670998
  0
ARC
  5
260CC
  8
0
 10
4471.2156267473246771
 20
296.2213858663855035
 30
0.0
 40
0.0236537409311725
 50
107.443475051449596
 51
134.3966946452194122
  0
ARC
  5
260CD
  8
0
 10
4471.2681673124952795
 20
296.2541046213166283
 30
0.0
 40
0.023793937836287
 50
233.1116957874164939
 51
277.8137497068482844
  0
ARC
  5
260CE
  8
0
 10
4471.2748041705572177
 20
296.2600115911022272
 30
0.0
 40
0.032549948108227
 50
189.423797941593989
 51
230.0077390574234073
  0
ARC
  5
260CF
  8
0
 10
4471.2512417577727319
 20
296.3340220265407083
 30
0.0
 40
0.0237673613054281
 50
106.0712222810913943
 51
140.6232618519929929
  0
ARC
  5
260D0
  8
0
 10
4471.2518316799596505
 20
296.3336438586241002
 30
0.0
 40
0.0244634192400442
 50
140.8151646117657094
 51
175.9939319673108002
  0
ARC
  5
260D1
  8
0
 10
4471.2848787106222517
 20
296.3327443005347845
 30
0.0
 40
0.0575098709144927
 50
177.4001945841104941
 51
190.2770578471393037
  0
ARC
  5
260D2
  8
0
 10
4471.92279495377079
 20
296.4333757857592104
 30
0.0
 40
0.7033008077146055
 50
189.0718687042738111
 51
193.4421867468954019
  0
ARC
  5
260D3
  8
0
 10
4471.0499295961581083
 20
296.2496609954030191
 30
0.0
 40
0.1918271023583334
 50
6.0574045355806208
 51
17.8372100922039287
  0
ARC
  5
260D4
  8
0
 10
4471.4230896528142694
 20
296.3286199982948119
 30
0.0
 40
0.1916216070828038
 50
186.0510658158436001
 51
197.8435488119305035
  0
LINE
  5
260D5
  8
0
 10
4471.1497507166786818
 20
296.3656047702054934
 30
0.0
 11
4471.1681187286785644
 21
296.2866379291054955
 31
0.0
  0
ARC
  5
260D6
  8
0
 10
4471.1729231811214049
 20
296.3722110957573932
 30
0.0
 40
0.0240957806584359
 50
107.8820001147849013
 51
195.9125215206790926
  0
ARC
  5
260D7
  8
0
 10
4471.1909996071753994
 20
296.292727871702823
 30
0.0
 40
0.0236774576664921
 50
194.9042363094052916
 51
278.8806796196352025
  0
ARC
  5
260D8
  8
0
 10
4470.0563283515894
 20
296.2524555962668842
 30
0.0
 40
1.1667071713485611
 50
1.046324682319528
 51
7.6993269262250914
  0
ARC
  5
260D9
  8
0
 10
4471.1928033831845823
 20
296.5150257746566922
 30
0.0
 40
0.023672596244803
 50
228.2590597576256073
 51
277.1311484888390169
  0
ARC
  5
260DA
  8
0
 10
4471.1938110469409366
 20
296.515895371576903
 30
0.0
 40
0.0249929212394183
 50
196.4215311780830007
 51
227.8626064879130126
  0
ARC
  5
260DB
  8
0
 10
4471.1785484074462147
 20
296.594802039420415
 30
0.0
 40
0.0254605971901982
 50
154.828548624784986
 51
188.4354430179363078
  0
ARC
  5
260DC
  8
0
 10
4471.1768312831118237
 20
296.5953615271985768
 30
0.0
 40
0.02366962629574
 50
105.3524456323222012
 51
154.2863560210930984
  0
ARC
  5
260DD
  8
0
 10
4471.6852790900084074
 20
277.5015516994121754
 30
0.0
 40
0.0198102910333787
 50
181.9690824491154899
 51
269.6261404198356786
  0
ARC
  5
260DE
  8
0
 10
4472.4346541913237161
 20
277.5015516992330049
 30
0.0
 40
0.0198102908536708
 50
270.3738593705203925
 51
358.030918051695096
  0
ARC
  5
260DF
  8
0
 10
4471.615479274440986
 20
278.9109318115367842
 30
0.0
 40
0.007935157047362
 50
90.4315451891775837
 51
182.7552701601152876
  0
ARC
  5
260E0
  8
0
 10
4472.5044540090002556
 20
278.9109318121647902
 30
0.0
 40
0.0079351550192998
 50
357.2444961639733947
 51
89.5697983322018416
  0
ARC
  5
260E1
  8
0
 10
4474.1957156330317957
 20
284.1715336929624982
 30
0.0
 40
3.7906650316838189
 50
91.1454883229542645
 51
94.469128623804437
  0
LINE
  5
260E2
  8
0
 10
4473.6402260359582215
 20
288.0082939608872721
 30
0.0
 11
4473.6680915686802109
 21
288.0303165427404224
 31
0.0
  0
ARC
  5
260E3
  8
0
 10
4471.1425177479950435
 20
295.8611609513944245
 30
0.0
 40
0.2137549743664605
 50
356.1472008715662128
 51
359.3345031061354007
  0
ARC
  5
260E4
  8
0
 10
2195.2676864294239749
 20
282.0310849825705191
 30
0.0
 40
2278.2113392052970084
 50
359.6279399142439956
 51
0.1164083103685009
  0
ARC
  5
260E5
  8
0
 10
4452.4903266793953662
 20
267.0493363874277861
 30
0.0
 40
20.9415084703826686
 50
353.7390736801402795
 51
0.5140775584587503
  0
ARC
  5
260E6
  8
0
 10
4467.9886176322070241
 20
265.320484382740176
 30
0.0
 40
5.3471888765550037
 50
345.2587179917276785
 51
354.0428695585060268
  0
ARC
  5
260E7
  8
0
 10
4471.9758490807644193
 20
264.2247006077238893
 30
0.0
 40
1.213211292639534
 50
328.3068359692766762
 51
347.3912763768084915
  0
ARC
  5
260E8
  8
0
 10
4472.6535467130643156
 20
263.8053366929011077
 30
0.0
 40
0.4162555950475968
 50
303.2419550678934002
 51
328.4147046576434263
  0
ARC
  5
260E9
  8
0
 10
4472.6751533730030133
 20
263.7508732782757761
 30
0.0
 40
0.3590535968770036
 50
271.328222379995907
 51
305.1227998653210989
  0
ARC
  5
260EA
  8
0
 10
4472.6863681935783461
 20
263.7683560019419247
 30
0.0
 40
0.3764509564868086
 50
211.3904269408756988
 51
269.5598279022635211
  0
ARC
  5
260EB
  8
0
 10
4473.8738414853178256
 20
264.4368338100351821
 30
0.0
 40
1.738970341438518
 50
190.1016762771311051
 51
209.8127475177770975
  0
ARC
  5
260EC
  8
0
 10
4484.0561089168550097
 20
266.5824205585179243
 30
0.0
 40
12.1441062897713508
 50
185.6066431752007873
 51
191.6418222971450973
  0
ARC
  5
260ED
  8
0
 10
4512.2923920286502835
 20
269.2542538399503087
 30
0.0
 40
40.5064652150307367
 50
181.2680203297879018
 51
185.4657813339204893
  0
ARC
  5
260EE
  8
0
 10
4644.5716681469339164
 20
272.0742365090147814
 30
0.0
 40
172.8157863559906957
 50
179.3135155975006114
 51
181.2322274122745114
  0
ARC
  5
260EF
  8
0
 10
4139.1381446748400776
 20
276.2279845736482002
 30
0.0
 40
332.6366645967369777
 50
359.6411685096322799
 51
0.2159568594288174
  0
ARC
  5
260F0
  8
0
 10
5141.6635578291097772
 20
272.3060739285501199
 30
0.0
 40
669.3329505109611546
 50
179.5569516158290071
 51
180.1969366080570865
  0
ARC
  5
260F1
  8
0
 10
13459.8341401961497468
 20
277.5800092885742174
 30
0.0
 40
8986.9302599184902647
 50
179.9421125484213064
 51
180.027359733510707
  0
ARC
  5
260F2
  8
0
 10
2578.4851946332041734
 20
283.6855568533076166
 30
0.0
 40
1894.4482403741560574
 50
359.4928327383790929
 51
359.6855521874774126
  0
ARC
  5
260F3
  8
0
 10
4452.8203506649360861
 20
267.0047635145119216
 30
0.0
 40
20.0390605894186784
 50
354.1076541891492866
 51
359.7479653087273732
  0
ARC
  5
260F4
  8
0
 10
4468.0035945681438534
 20
265.3392171958283825
 30
0.0
 40
4.7660608040875134
 50
348.0992398231578022
 51
355.2863362121324826
  0
ARC
  5
260F5
  8
0
 10
4472.8382487091248549
 20
264.8076309330073173
 30
0.0
 40
0.482582355933403
 50
208.5146862509971868
 51
249.2424764506191082
  0
ARC
  5
260F6
  8
0
 10
4474.2419289248373389
 20
265.4743973926284752
 30
0.0
 40
2.0360346849487332
 50
188.685631409932995
 51
206.144259905738096
  0
ARC
  5
260F7
  8
0
 10
4483.3807427765341345
 20
267.1023234644085278
 30
0.0
 40
11.3182010629699299
 50
181.5610053290824908
 51
189.8458698437814007
  0
ARC
  5
260F8
  8
0
 10
4487.0763383376934144
 20
267.3605585394774948
 30
0.0
 40
15.0202852297213596
 50
173.3888968168847953
 51
182.1616812436905093
  0
ARC
  5
260F9
  8
0
 10
4475.8047817324913922
 20
268.8532033582224017
 30
0.0
 40
3.656515932787987
 50
159.3181211803781991
 51
176.2894485592402134
  0
ARC
  5
260FA
  8
0
 10
4472.7569688741232312
 20
270.0325772012470225
 30
0.0
 40
0.3895201489974915
 50
91.4098288077797747
 51
163.2849537101971009
  0
ARC
  5
260FB
  8
0
 10
4472.735626015482012
 20
270.0386415636407946
 30
0.0
 40
0.383518192656382
 50
66.7874652423066664
 51
88.2429516091101789
  0
ARC
  5
260FC
  8
0
 10
4485.7758207599390516
 20
267.2774521936964902
 30
0.0
 40
13.14691910014235
 50
181.5950993837300018
 51
187.1651486083534905
  0
ARC
  5
260FD
  8
0
 10
4487.3492708311514434
 20
267.3611065775053817
 30
0.0
 40
14.7221419346184899
 50
175.2299116081464945
 51
181.7500838669666052
  0
ARC
  5
260FE
  8
0
 10
4483.7185946297067858
 20
267.6756526157573717
 30
0.0
 40
11.0778900273774195
 50
172.0488191077456861
 51
175.2895883414715001
  0
ARC
  5
260FF
  8
0
 10
4461.253792671109295
 20
267.6810432951867256
 30
0.0
 40
11.5944062277658997
 50
2.0517377706268372
 51
7.5679528614865967
  0
ARC
  5
26100
  8
0
 10
4436.7299939579488637
 20
268.4293981634552893
 30
0.0
 40
36.112309530925657
 50
356.2098784715939246
 51
359.4712537241294967
  0
ARC
  5
26101
  8
0
 10
4455.1852976989057424
 20
267.2179955840181265
 30
0.0
 40
17.6172973300896807
 50
354.8533785942076975
 51
356.1735283474358198
  0
ENDSEC
  0
EOF
