  0
SECTION
  2
HEADER
  9
$ACADVER
  1
AC1009
  9
$INSBASE
 10
4430.6580769173979206
 20
267.2403277127534125
 30
0.0
  9
$EXTMIN
 10
4426.2028643188987189
 20
250.7775118654190862
 30
0.0
  9
$EXTMAX
 10
4430.6689635346101568
 20
284.6422216753933867
 30
0.0
  9
$LIMMIN
 10
0.0
 20
0.0
  9
$LIMMAX
 10
11.6929133858000007
 20
8.2677165353999982
  9
$ORTHOMODE
 70
     0
  9
$REGENMODE
 70
     1
  9
$FILLMODE
 70
     1
  9
$QTEXTMODE
 70
     0
  9
$MIRRTEXT
 70
     0
  9
$DRAGMODE
 70
     2
  9
$LTSCALE
 40
0.6431102362
  9
$OSMODE
 70
   575
  9
$ATTMODE
 70
     1
  9
$TEXTSIZE
 40
0.2
  9
$TRACEWID
 40
0.05
  9
$TEXTSTYLE
  7
STANDARD
  9
$CLAYER
  8
0
  9
$CELTYPE
  6
BYLAYER
  9
$CECOLOR
 62
   256
  9
$DIMSCALE
 40
1.0
  9
$DIMASZ
 40
0.1875
  9
$DIMEXO
 40
0.0625
  9
$DIMDLI
 40
0.4443307087
  9
$DIMRND
 40
0.0
  9
$DIMDLE
 40
0.0
  9
$DIMEXE
 40
0.125
  9
$DIMTP
 40
0.01
  9
$DIMTM
 40
0.01
  9
$DIMTXT
 40
2.0
  9
$DIMCEN
 40
0.1052362205
  9
$DIMTSZ
 40
0.0
  9
$DIMTOL
 70
     1
  9
$DIMLIM
 70
     0
  9
$DIMTIH
 70
     1
  9
$DIMTOH
 70
     1
  9
$DIMSE1
 70
     0
  9
$DIMSE2
 70
     0
  9
$DIMTAD
 70
     0
  9
$DIMZIN
 70
     0
  9
$DIMBLK
  1

  9
$DIMASO
 70
     1
  9
$DIMSHO
 70
     1
  9
$DIMPOST
  1
\X
  9
$DIMAPOST
  1

  9
$DIMALT
 70
     1
  9
$DIMALTD
 70
     2
  9
$DIMALTF
 40
25.3999999999999986
  9
$DIMLFAC
 40
1.0
  9
$DIMTOFL
 70
     0
  9
$DIMTVP
 40
0.0
  9
$DIMTIX
 70
     0
  9
$DIMSOXD
 70
     0
  9
$DIMSAH
 70
     0
  9
$DIMBLK1
  1

  9
$DIMBLK2
  1

  9
$DIMSTYLE
  2
STANDARD
  9
$DIMCLRD
 70
     0
  9
$DIMCLRE
 70
     0
  9
$DIMCLRT
 70
     0
  9
$DIMTFAC
 40
1.0
  9
$DIMGAP
 40
0.09
  9
$LUNITS
 70
     2
  9
$LUPREC
 70
     4
  9
$SKETCHINC
 40
0.1
  9
$FILLETRAD
 40
0.0
  9
$AUNITS
 70
     0
  9
$AUPREC
 70
     0
  9
$MENU
  1
.
  9
$ELEVATION
 40
0.0
  9
$PELEVATION
 40
0.0
  9
$THICKNESS
 40
0.0
  9
$LIMCHECK
 70
     0
  9
$BLIPMODE
 70
     0
  9
$CHAMFERA
 40
0.0
  9
$CHAMFERB
 40
0.0
  9
$SKPOLY
 70
     0
  9
$TDCREATE
 40
2458060.468368056230247
  9
$TDUPDATE
 40
2459370.091145833954215
  9
$TDINDWG
 40
0.5421945602
  9
$TDUSRTIMER
 40
0.5421945602
  9
$USRTIMER
 70
     1
  9
$ANGBASE
 50
0.0
  9
$ANGDIR
 70
     0
  9
$PDMODE
 70
     0
  9
$PDSIZE
 40
0.3125
  9
$PLINEWID
 40
0.0
  9
$COORDS
 70
     2
  9
$SPLFRAME
 70
     0
  9
$SPLINETYPE
 70
     6
  9
$SPLINESEGS
 70
     8
  9
$ATTDIA
 70
     1
  9
$ATTREQ
 70
     1
  9
$HANDLING
 70
     1
  9
$HANDSEED
  5
28BAF
  9
$SURFTAB1
 70
     6
  9
$SURFTAB2
 70
     6
  9
$SURFTYPE
 70
     6
  9
$SURFU
 70
     6
  9
$SURFV
 70
     6
  9
$UCSNAME
  2

  9
$UCSORG
 10
0.0
 20
0.0
 30
0.0
  9
$UCSXDIR
 10
1.0
 20
0.0
 30
0.0
  9
$UCSYDIR
 10
0.0
 20
1.0
 30
0.0
  9
$PUCSNAME
  2

  9
$PUCSORG
 10
0.0
 20
0.0
 30
0.0
  9
$PUCSXDIR
 10
1.0
 20
0.0
 30
0.0
  9
$PUCSYDIR
 10
0.0
 20
1.0
 30
0.0
  9
$USERI1
 70
     0
  9
$USERI2
 70
     0
  9
$USERI3
 70
     0
  9
$USERI4
 70
     0
  9
$USERI5
 70
     0
  9
$USERR1
 40
0.0
  9
$USERR2
 40
0.0
  9
$USERR3
 40
0.0
  9
$USERR4
 40
0.0
  9
$USERR5
 40
0.0
  9
$WORLDVIEW
 70
     1
  9
$SHADEDGE
 70
     3
  9
$SHADEDIF
 70
    70
  9
$TILEMODE
 70
     1
  9
$MAXACTVP
 70
    64
  9
$PLIMCHECK
 70
     0
  9
$PEXTMIN
 10
1.0000000000000000E+20
 20
1.0000000000000000E+20
 30
1.0000000000000000E+20
  9
$PEXTMAX
 10
-1.0000000000000000E+20
 20
-1.0000000000000000E+20
 30
-1.0000000000000000E+20
  9
$PLIMMIN
 10
0.0
 20
0.0
  9
$PLIMMAX
 10
12.0
 20
9.0
  9
$UNITMODE
 70
     0
  9
$VISRETAIN
 70
     1
  9
$PLINEGEN
 70
     0
  9
$PSLTSCALE
 70
     1
  0
ENDSEC
  0
SECTION
  2
TABLES
  0
TABLE
  2
VPORT
 70
     1
  0
VPORT
  2
*ACTIVE
 70
     0
 10
0.0
 20
0.0
 11
1.0
 21
1.0
 12
517.0705573810209899
 22
135.1302616392241873
 13
0.0
 23
0.0
 14
1.0
 24
1.0
 15
0.0
 25
0.0
 16
0.0
 26
0.0
 36
60.4960186965801583
 17
3911.3653564453120453
 27
132.5796051025390057
 37
0.0
 40
50.9604914761285386
 41
2.521594684385382
 42
50.0
 43
0.0
 44
0.0
 50
0.0
 51
0.0
 71
     0
 72
   100
 73
     1
 74
     1
 75
     0
 76
     0
 77
     0
 78
     0
  0
ENDTAB
  0
TABLE
  2
LTYPE
 70
     2
  0
LTYPE
  2
CONTINUOUS
 70
     0
  3
Solid line
 72
    65
 73
     0
 40
0.0
  0
LTYPE
  2
PHANTOM2
 70
     0
  3
___ _ _ ___ _ _ ___ _ _ ___ _ _
 72
    65
 73
     6
 40
1.25
 49
0.625
 49
-0.125
 49
0.125
 49
-0.125
 49
0.125
 49
-0.125
  0
ENDTAB
  0
TABLE
  2
LAYER
 70
     2
  0
LAYER
  2
0
 70
     0
 62
   255
  6
CONTINUOUS
  0
LAYER
  2
DEFPOINTS
 70
     0
 62
     7
  6
CONTINUOUS
  0
ENDTAB
  0
TABLE
  2
STYLE
 70
     1
  0
STYLE
  2
STANDARD
 70
     0
 40
0.0
 41
0.8
 50
0.0
 71
     0
 42
0.2
  3
txt
  4

  0
ENDTAB
  0
TABLE
  2
VIEW
 70
     1
  0
ENDTAB
  0
TABLE
  2
UCS
 70
     0
  0
ENDTAB
  0
TABLE
  2
APPID
 70
    11
  0
APPID
  2
ACAD
 70
     0
  0
APPID
  2
ACAD_MLEADERVER
 70
     0
  0
APPID
  2
ACAD_EXEMPT_FROM_CAD_STANDARDS
 70
     0
  0
APPID
  2
ACAD_NAV_VCDISPLAY
 70
     0
  0
APPID
  2
ACAECLAYERSTANDARD
 70
     0
  0
APPID
  2
ACCMTRANSPARENCY
 70
     0
  0
APPID
  2
ACAD_DSTYLE_DIMJAG
 70
     0
  0
APPID
  2
ACAD_DSTYLE_DIMTALN
 70
     0
  0
APPID
  2
ACDBATTR
 70
     0
  0
APPID
  2
ACADANNOTATIVE
 70
     0
  0
APPID
  2
DCO15
 70
     0
  0
ENDTAB
  0
TABLE
  2
DIMSTYLE
 70
     1
  0
DIMSTYLE
  2
STANDARD
 70
     0
  3

  4

  5

  6

  7

 40
1.0
 41
0.1875
 42
0.0625
 43
0.38
 44
0.125
 45
0.0
 46
0.0
 47
0.01
 48
0.01
140
0.15625
141
0.09
142
0.0
143
25.3999999999999986
144
1.0
145
0.0
146
1.0
147
0.09
 71
     1
 72
     0
 73
     1
 74
     1
 75
     0
 76
     0
 77
     0
 78
     4
170
     0
171
     2
172
     0
173
     0
174
     0
175
     0
176
     0
177
     0
178
     0
  0
ENDTAB
  0
ENDSEC
  0
SECTION
  2
BLOCKS
  0
BLOCK
  8
0
  2
$MODEL_SPACE
 70
     0
 10
0.0
 20
0.0
 30
0.0
  3
$MODEL_SPACE
  1

  0
ENDBLK
  5
21
  8
0
  0
BLOCK
 67
     1
  8
0
  2
$PAPER_SPACE
 70
     0
 10
0.0
 20
0.0
 30
0.0
  3
$PAPER_SPACE
  1

  0
ENDBLK
  5
1D
 67
     1
  8
0
  0
BLOCK
  8
0
  2
_CLOSED
 70
     0
 10
0.0
 20
0.0
 30
0.0
  3
_CLOSED
  1

  0
LINE
  5
285D5
  8
0
  6
BYBLOCK
 62
     0
 10
0.0
 20
0.0
 30
0.0
 11
-1.0
 21
0.1666666667
 31
0.0
  0
LINE
  5
285D6
  8
0
  6
BYBLOCK
 62
     0
 10
-1.0
 20
0.1666666667
 30
0.0
 11
-1.0
 21
-0.1666666667
 31
0.0
  0
LINE
  5
285D7
  8
0
  6
BYBLOCK
 62
     0
 10
-1.0
 20
-0.1666666667
 30
0.0
 11
0.0
 21
0.0
 31
0.0
  0
LINE
  5
285D8
  8
0
  6
BYBLOCK
 62
     0
 10
-1.0
 20
0.0
 30
0.0
 11
0.0
 21
0.0
 31
0.0
  0
ENDBLK
  5
285D9
  8
0
  6
BYBLOCK
 62
     0
  0
ENDSEC
  0
SECTION
  2
ENTITIES
  0
ATTDEF
  5
20106
  8
DEFPOINTS
 10
4430.658296867941317
 20
267.2437245673305029
 30
0.0
 40
0.001
  1
K-72647T-9
  3

  2
MODELNUMBER
 70
     0
1001
ACDBATTR
1070
     0
1070
     1
  0
ATTDEF
  5
20107
  8
DEFPOINTS
 10
4430.6581710582840969
 20
267.2420577269513728
 30
0.0
 40
0.001
  1
OBLO
  3

  2
TRADENAME
 70
     0
1001
ACDBATTR
1070
     0
1070
     1
  0
ATTDEF
  5
20108
  8
DEFPOINTS
 10
4430.658296867941317
 20
267.2403912339971725
 30
0.0
 40
0.001
  1
 BATH AND SHOWER TRIM
  3

  2
PRODUCT
 70
     0
1001
ACDBATTR
1070
     0
1070
     1
  0
LINE
  5
28873
  8
0
 10
4426.3502347140993152
 20
283.4960735634933826
 30
0.0
 11
4426.3773459269341402
 21
283.5054702027837834
 31
0.0
  0
LINE
  5
28874
  8
0
 10
4426.3733676627971363
 20
283.616592897093426
 30
0.0
 11
4426.4075249823981721
 21
283.6273230526933844
 31
0.0
  0
LINE
  5
28875
  8
0
 10
4426.330355860898635
 20
283.7677838821933847
 30
0.0
 11
4426.376951009284312
 21
283.7821619806205717
 31
0.0
  0
LINE
  5
28876
  8
0
 10
4426.3616406665978502
 20
284.3178938874934261
 30
0.0
 11
4426.3672739346657181
 21
284.3195411703841842
 31
0.0
  0
LINE
  5
28877
  8
0
 10
4426.4094936639985463
 20
283.7295015702935075
 30
0.0
 11
4426.454464534897852
 21
283.7424452036934213
 31
0.0
  0
LINE
  5
28878
  8
0
 10
4426.4100729102983678
 20
282.5803587781933857
 30
0.0
 11
4426.4370077230978495
 21
282.5901622482933817
 31
0.0
  0
LINE
  5
28879
  8
0
 10
4426.4402687184983733
 20
282.4750534803935125
 30
0.0
 11
4426.4675205326993819
 21
282.4849723295934041
 31
0.0
  0
LINE
  5
2887A
  8
0
 10
4426.6045574355975987
 20
282.6063155648934071
 30
0.0
 11
4426.6439208904876068
 21
282.6204932078721868
 31
0.0
  0
LINE
  5
2887B
  8
0
 10
4426.7001809616976971
 20
282.4678177059934114
 30
0.0
 11
4426.737898649546878
 21
282.4812837660778087
 31
0.0
  0
LINE
  5
2887C
  8
0
 10
4426.5019537735970516
 20
282.9652781096933722
 30
0.0
 11
4426.5440892439983145
 21
282.9802228201933758
 31
0.0
  0
LINE
  5
2887D
  8
0
 10
4426.420527465397754
 20
283.2501513879934123
 30
0.0
 11
4426.4481299051467431
 21
283.2598215656174148
 31
0.0
  0
LINE
  5
2887E
  8
0
 10
4426.4040329597974051
 20
283.4454877701031137
 30
0.0
 11
4426.4140390524844406
 21
283.4489654293528815
 31
0.0
  0
LINE
  5
2887F
  8
0
 10
4426.455215674597639
 20
282.7302074341934031
 30
0.0
 11
4426.4812277956980324
 21
282.7391641257934225
 31
0.0
  0
LINE
  5
28880
  8
0
 10
4426.5677934848981749
 20
282.9331675631934218
 30
0.0
 11
4426.6086383837991889
 21
282.9470352706933909
 31
0.0
  0
LINE
  5
28881
  8
0
 10
4426.6703471178971085
 20
282.8095182867933772
 30
0.0
 11
4426.7096337951852547
 21
282.8227136047976273
 31
0.0
  0
LINE
  5
28882
  8
0
 10
4426.4171564759981266
 20
282.9927965171934261
 30
0.0
 11
4426.4569790566165466
 21
283.0061209663084014
 31
0.0
  0
LINE
  5
28883
  8
0
 10
4426.5173576545976175
 20
282.643353479393511
 30
0.0
 11
4426.548440486398249
 21
282.6537536493934226
 31
0.0
  0
LINE
  5
28884
  8
0
 10
4426.4281084222993741
 20
282.6752486480933726
 30
0.0
 11
4426.4345690028312674
 21
282.6773792939155214
 31
0.0
  0
LINE
  5
28885
  8
0
 10
4426.4551822748981067
 20
283.3290061434934159
 30
0.0
 11
4426.4987321192984382
 21
283.3431499974934127
 31
0.0
  0
LINE
  5
28886
  8
0
 10
4426.5249076556983709
 20
283.3224573040934047
 30
0.0
 11
4426.5673366764531238
 21
283.3355642457350996
 31
0.0
  0
LINE
  5
28887
  8
0
 10
4426.9928387922982438
 20
281.6721956067934229
 30
0.0
 11
4427.025421326598007
 21
281.6851374529933878
 31
0.0
  0
LINE
  5
28888
  8
0
 10
4426.9717887676979444
 20
281.5131248608934129
 30
0.0
 11
4427.0032758449979156
 21
281.5255148481933816
 31
0.0
  0
LINE
  5
28889
  8
0
 10
4426.9346393953983352
 20
281.4515174000935076
 30
0.0
 11
4426.9628577263893021
 21
281.4621826669854272
 31
0.0
  0
LINE
  5
2888A
  8
0
 10
4426.8393880070980231
 20
281.9785042291933905
 30
0.0
 11
4426.8738809590986421
 21
281.9914604479934042
 31
0.0
  0
LINE
  5
2888B
  8
0
 10
4426.8320337043978725
 20
281.8104844525934141
 30
0.0
 11
4426.865354228999422
 21
281.8228932788935026
 31
0.0
  0
LINE
  5
2888C
  8
0
 10
4426.7182951824979682
 20
282.2084008696933779
 30
0.0
 11
4426.7546196736539059
 21
282.2217057829471969
 31
0.0
  0
LINE
  5
2888D
  8
0
 10
4426.8315832266980578
 20
282.2408785627935117
 30
0.0
 11
4426.867471187537376
 21
282.2540230114942119
 31
0.0
  0
LINE
  5
2888E
  8
0
 10
4426.4820464224112584
 20
282.3293570833570811
 30
0.0
 11
4426.496394576775856
 21
282.3345793845887783
 31
0.0
  0
LINE
  5
2888F
  8
0
 10
4426.4929124560976561
 20
282.2914629493934058
 30
0.0
 11
4426.5154235903983135
 21
282.2996563322934094
 31
0.0
  0
LINE
  5
28890
  8
0
 10
4426.5388275018976856
 20
282.1313381554933812
 30
0.0
 11
4426.553508735781179
 21
282.1366816876875987
 31
0.0
  0
LINE
  5
28891
  8
0
 10
4426.639762792197871
 20
281.7793349665934102
 30
0.0
 11
4426.6545284729982086
 21
281.7847092348935121
 31
0.0
  0
LINE
  5
28892
  8
0
 10
4426.6708747587981634
 20
282.1079756819934232
 30
0.0
 11
4426.6887005730977762
 21
282.1139401159935005
 31
0.0
  0
LINE
  5
28893
  8
0
 10
4426.8058754416251759
 20
281.6371723506613876
 30
0.0
 11
4426.8121744816980936
 21
281.6392799799933755
 31
0.0
  0
LINE
  5
28894
  8
0
 10
4426.6601959517984142
 20
281.8144449039933761
 30
0.0
 11
4426.6546741424981519
 21
281.8126620472933723
 31
0.0
  0
LINE
  5
28895
  8
0
 10
4426.68674396789811
 20
281.7733733848933753
 30
0.0
 11
4426.6932158511181115
 21
281.7753705393303107
 31
0.0
  0
LINE
  5
28896
  8
0
 10
4427.253805676097727
 20
280.7519601663934168
 30
0.0
 11
4427.281249409398697
 21
280.7642675565933814
 31
0.0
  0
LINE
  5
28897
  8
0
 10
4427.2092825407980854
 20
280.6783837702934079
 30
0.0
 11
4427.2355312806403163
 21
280.6895663702513843
 31
0.0
  0
LINE
  5
28898
  8
0
 10
4427.1383290813982967
 20
281.1591436259934085
 30
0.0
 11
4427.1680136818631581
 21
281.1717772134778102
 31
0.0
  0
LINE
  5
28899
  8
0
 10
4427.1662575253976684
 20
280.8296041786935007
 30
0.0
 11
4427.1934404541980257
 21
280.8410233549934105
 31
0.0
  0
LINE
  5
2889A
  8
0
 10
4427.0844214479975562
 20
281.117238576393504
 30
0.0
 11
4427.1133994129977509
 21
281.129086114993413
 31
0.0
  0
LINE
  5
2889B
  8
0
 10
4427.0683489573975748
 20
280.9837346141933949
 30
0.0
 11
4427.095538574199054
 21
280.9942083571933722
 31
0.0
  0
LINE
  5
2889C
  8
0
 10
4427.0160682111982169
 20
281.1666385506935057
 30
0.0
 11
4427.0446012965094269
 21
281.1775487592408922
 31
0.0
  0
LINE
  5
2889D
  8
0
 10
4427.3737163744981444
 20
280.3697743891934238
 30
0.0
 11
4427.4200360215982073
 21
280.3836310371934246
 31
0.0
  0
LINE
  5
2889E
  8
0
 10
4427.2980730066983597
 20
280.6306571362933937
 30
0.0
 11
4427.3430695487986668
 21
280.6435112434933785
 31
0.0
  0
LINE
  5
2889F
  8
0
 10
4427.3279537208982219
 20
280.4905218024933902
 30
0.0
 11
4427.3539868466987173
 21
280.5025829949934177
 31
0.0
  0
LINE
  5
288A0
  8
0
 10
4426.4351757298982193
 20
282.6932103005934209
 30
0.0
 11
4426.4506541664977703
 21
282.7261141180935056
 31
0.0
  0
LINE
  5
288A1
  8
0
 10
4426.7729293952979788
 20
264.8543839016534207
 30
0.0
 11
4427.5225630221993924
 21
264.8543839016534207
 31
0.0
  0
LINE
  5
288A2
  8
0
 10
4426.753260064798269
 20
264.8735130852534212
 30
0.0
 11
4426.695332860097551
 21
266.2831924083533863
 31
0.0
  0
LINE
  5
288A3
  8
0
 10
4426.8820039866977822
 20
266.5611938544658983
 30
0.0
 11
4427.4134942401969965
 21
266.5611938544533928
 31
0.0
  0
LINE
  5
288A4
  8
0
 10
4428.6437876743766537
 20
266.6005639332033752
 30
0.0
 11
4429.4179194317975998
 21
266.6005639332033752
 31
0.0
  0
LINE
  5
288A5
  8
0
 10
4428.6442274891942361
 20
266.9942647205622279
 30
0.0
 11
4429.0079824292979538
 21
266.9942647207175241
 31
0.0
  0
LINE
  5
288A6
  8
0
 10
4429.4959724604977964
 20
266.0586650465033927
 30
0.0
 11
4430.6580769173979206
 21
266.0485235146034029
 31
0.0
  0
LINE
  5
288A7
  8
0
 10
4426.6808712395977636
 20
282.272744167593487
 30
0.0
 11
4426.6818635859981441
 21
282.260428904793514
 31
0.0
  0
LINE
  5
288A8
  8
0
 10
4426.3608944289208011
 20
283.9978247978831973
 30
0.0
 11
4426.3570618420981191
 21
284.0936071977934034
 31
0.0
  0
LINE
  5
288A9
  8
0
 10
4427.5422323525981483
 20
264.8735130852534212
 30
0.0
 11
4427.6001595572979568
 21
266.2831924084533739
 31
0.0
  0
LINE
  5
288AA
  8
0
 10
4429.0079824292979538
 20
267.4863907050175271
 30
0.0
 11
4428.6446545776088897
 21
267.4863907048624014
 31
0.0
  0
LINE
  5
288AB
  8
0
 10
4428.64489810431769
 20
267.8800914923033929
 30
0.0
 11
4429.4179194317975998
 21
267.8800914923033929
 31
0.0
  0
LINE
  5
288AC
  8
0
 10
4427.4134913353491356
 20
267.9194615710596281
 30
0.0
 11
4426.8820011954148868
 21
267.9194615710591165
 31
0.0
  0
LINE
  5
288AD
  8
0
 10
4426.8650825397980952
 20
281.6380470388934896
 30
0.0
 11
4426.8650827820983977
 21
281.6380446736935141
 31
0.0
  0
LINE
  5
288AE
  8
0
 10
4427.9576372239980628
 20
274.0512502804534165
 30
0.0
 11
4427.8997099123980661
 21
275.4415057593533902
 31
0.0
  0
LINE
  5
288AF
  8
0
 10
4428.2267908554977112
 20
274.7793000575065889
 30
0.0
 11
4428.2267908553976667
 21
274.7793038440066198
 31
0.0
  0
LINE
  5
288B0
  8
0
 10
4428.3628689803981615
 20
274.6565941834066962
 30
0.0
 11
4428.3628689803981615
 21
274.6572317294067034
 31
0.0
  0
LINE
  5
288B1
  8
0
 10
4428.8059815600818183
 20
275.4031132445700223
 30
0.0
 11
4428.807581248198403
 21
275.4415057593533902
 31
0.0
  0
LINE
  5
288B2
  8
0
 10
4429.4959724604977964
 20
268.4219903790033754
 30
0.0
 11
4430.6580769173979206
 21
268.4321319110034096
 31
0.0
  0
LINE
  5
288B3
  8
0
 10
4426.434305008917363
 20
282.6772922309143041
 30
0.0
 11
4426.4335711192970848
 21
282.6815947435933936
 31
0.0
  0
LINE
  5
288B4
  8
0
 10
4426.4864426729545812
 20
282.7478324912430026
 30
0.0
 11
4426.4856263137007772
 21
282.753049157573912
 31
0.0
  0
LINE
  5
288B5
  8
0
 10
4426.6768910488981419
 20
282.2965668080934165
 30
0.0
 11
4426.6808712395977636
 21
282.272744167593487
 31
0.0
  0
LINE
  5
288B6
  8
0
 10
4426.4040329597974051
 20
283.4454877701031137
 30
0.0
 11
4426.3989420399848314
 21
283.490631941171273
 31
0.0
  0
LINE
  5
288B7
  8
0
 10
4429.0079824292979538
 20
267.4863907050175271
 30
0.0
 11
4429.0079824292979538
 21
266.9942647207175241
 31
0.0
  0
LINE
  5
288B8
  8
0
 10
4429.4179194317975998
 20
268.3432508668033734
 30
0.0
 11
4429.4179194317975998
 21
266.1374022058034257
 31
0.0
  0
LINE
  5
288B9
  8
0
 10
4426.6578187216982769
 20
281.790837318293427
 30
0.0
 11
4426.6581438074281323
 21
281.789311293582216
 31
0.0
  0
LINE
  5
288BA
  8
0
 10
4426.2928299825980503
 20
284.0535580628933872
 30
0.0
 11
4426.3084772746969975
 21
283.9730597234934066
 31
0.0
  0
LINE
  5
288BB
  8
0
 10
4427.3114922606982873
 20
280.5358922797934156
 30
0.0
 11
4427.3115299224982664
 21
280.5356327372933833
 31
0.0
  0
LINE
  5
288BC
  8
0
 10
4430.6581445708970932
 20
273.3775141745065866
 30
0.0
 11
4430.6581445708970932
 21
275.3675831201534265
 31
0.0
  0
LINE
  5
288BD
  8
0
 10
4430.6580769173979206
 20
266.0485235146034029
 30
0.0
 11
4430.6580769173979206
 21
268.4321319110034096
 31
0.0
  0
LINE
  5
288BE
  8
0
 10
4426.566273857498345
 20
282.0953275481933815
 30
0.0
 11
4426.6001523484010249
 21
281.9942452031942253
 31
0.0
  0
LINE
  5
288BF
  8
0
 10
4426.5484297807888652
 20
282.1531355702206838
 30
0.0
 11
4426.566273857498345
 21
282.0953275481933815
 31
0.0
  0
LINE
  5
288C0
  8
0
 10
4427.0546529834982721
 20
280.953241093493375
 30
0.0
 11
4427.0962635034984487
 21
280.8133340838934942
 31
0.0
  0
LINE
  5
288C1
  8
0
 10
4426.402760163898165
 20
282.5660005453934218
 30
0.0
 11
4426.4329537420599081
 21
282.4607030248449178
 31
0.0
  0
LINE
  5
288C2
  8
0
 10
4426.4329559710977264
 20
282.4606952513934175
 30
0.0
 11
4426.4670338945979893
 21
282.3418514085934135
 31
0.0
  0
LINE
  5
288C3
  8
0
 10
4426.4747331410972038
 20
282.3150009454934093
 30
0.0
 11
4426.5196776311986468
 21
282.158260881393403
 31
0.0
  0
LINE
  5
288C4
  8
0
 10
4426.5315141636983753
 20
282.1169819869933804
 30
0.0
 11
4426.5655932694980947
 21
281.9981340212934242
 31
0.0
  0
LINE
  5
288C5
  8
0
 10
4426.6324489155222182
 20
281.764980675478796
 30
0.0
 11
4426.693112601197754
 21
281.5534212617935168
 31
0.0
  0
LINE
  5
288C6
  8
0
 10
4426.5634395923407283
 20
282.1315566851944823
 30
0.0
 11
4426.6493976635983927
 21
281.8318253395934221
 31
0.0
  0
LINE
  5
288C7
  8
0
 10
4426.7490418899978977
 20
281.5355735898933744
 30
0.0
 11
4426.6804657889970258
 21
281.7747268751933802
 31
0.0
  0
LINE
  5
288C8
  8
0
 10
4426.5993853324971496
 20
282.0574880300933955
 30
0.0
 11
4426.4241350198981308
 21
282.6686585016934146
 31
0.0
  0
LINE
  5
288C9
  8
0
 10
4426.7625026823980079
 20
281.5337386431933737
 30
0.0
 11
4426.6932158506979249
 21
281.7753705407934035
 31
0.0
  0
LINE
  5
288CA
  8
0
 10
4426.6115510159970654
 20
282.0601696647934205
 30
0.0
 11
4426.4345690028312674
 21
282.6773792939155214
 31
0.0
  0
LINE
  5
288CB
  8
0
 10
4426.4552156738836857
 20
282.7302074339426099
 30
0.0
 11
4426.8073022565868087
 21
281.5023356000336889
 31
0.0
  0
LINE
  5
288CC
  8
0
 10
4426.4070169443975828
 20
282.9735162249933751
 30
0.0
 11
4426.4670699212983891
 21
282.7640866059934979
 31
0.0
  0
LINE
  5
288CD
  8
0
 10
4426.5072165989313362
 20
282.6240785028314235
 30
0.0
 11
4426.5672716759981995
 21
282.4146415593933739
 31
0.0
  0
LINE
  5
288CE
  8
0
 10
4426.6607337508994533
 20
282.0887005693934952
 30
0.0
 11
4426.7207896966983753
 21
281.8792605966934275
 31
0.0
  0
LINE
  5
288CF
  8
0
 10
4426.7957358488984028
 20
281.6178923030934129
 30
0.0
 11
4426.9091050351980812
 21
281.2225269652934116
 31
0.0
  0
LINE
  5
288D0
  8
0
 10
4426.5164924633763803
 20
282.6430355444446718
 30
0.0
 11
4426.4864426729545812
 21
282.7478324912430026
 31
0.0
  0
LINE
  5
288D1
  8
0
 10
4426.8050102468523619
 20
281.6368544137172876
 30
0.0
 11
4426.7387018051440464
 21
281.8680994310674919
 31
0.0
  0
LINE
  5
288D2
  8
0
 10
4426.6700095639425854
 20
282.1076577450509717
 30
0.0
 11
4426.5851846928489977
 21
282.403477225750521
 31
0.0
  0
LINE
  5
288D3
  8
0
 10
4426.452014578937451
 20
283.1251861939372247
 30
0.0
 11
4426.4983376454538302
 21
282.9636384850948048
 31
0.0
  0
LINE
  5
288D4
  8
0
 10
4426.5336723327163782
 20
282.8404117127784048
 30
0.0
 11
4426.6012298088380703
 21
282.6048108031392871
 31
0.0
  0
LINE
  5
288D5
  8
0
 10
4426.6365634353005589
 20
282.4815878189464229
 30
0.0
 11
4426.7152853998923092
 21
282.2070517725654781
 31
0.0
  0
LINE
  5
288D6
  8
0
 10
4426.7506223631316971
 20
282.0838170680015082
 30
0.0
 11
4426.8293432470818516
 21
281.8092847638715739
 31
0.0
  0
LINE
  5
288D7
  8
0
 10
4426.8646807845107105
 20
281.6860480536117279
 30
0.0
 11
4426.9322366084415989
 21
281.4504529688277898
 31
0.0
  0
LINE
  5
288D8
  8
0
 10
4426.9675723060508972
 20
281.3272233696062017
 30
0.0
 11
4427.0138945776807304
 21
281.1656780565102736
 31
0.0
  0
LINE
  5
288D9
  8
0
 10
4426.3590628131978519
 20
284.348176753993414
 30
0.0
 11
4427.583153117798247
 21
280.0792665452934216
 31
0.0
  0
LINE
  5
288DA
  8
0
 10
4426.3719811297178239
 20
284.4637723222509749
 30
0.0
 11
4427.6512142076981036
 21
280.0025564092933905
 31
0.0
  0
LINE
  5
288DB
  8
0
 10
4426.3531446390379642
 20
284.3065288757790086
 30
0.0
 11
4427.5554471074983667
 21
280.1135697161934104
 31
0.0
  0
LINE
  5
288DC
  8
0
 10
4426.3351535327983584
 20
283.4676399892933887
 30
0.0
 11
4426.3740052300981915
 21
283.3269418997933826
 31
0.0
  0
LINE
  5
288DD
  8
0
 10
4430.2648815200982426
 20
273.3809461291065759
 30
0.0
 11
4430.6581445708970932
 21
273.3775141745065866
 31
0.0
  0
LINE
  5
288DE
  8
0
 10
4426.5538067795214374
 20
282.1541978818377174
 30
0.0
 11
4426.5768972527994265
 21
282.0999254739933804
 31
0.0
  0
LINE
  5
288DF
  8
0
 10
4426.6643457144982676
 20
282.3359063423934003
 30
0.0
 11
4426.6714094500975989
 21
282.3172911673934209
 31
0.0
  0
LINE
  5
288E0
  8
0
 10
4426.5993853334975938
 20
282.0574880294934133
 30
0.0
 11
4426.5999417377979626
 21
282.0561280253933774
 31
0.0
  0
LINE
  5
288E1
  8
0
 10
4426.8933305555983679
 20
284.6132057222719141
 30
0.0
 11
4428.1476432774970817
 21
280.2385530355933838
 31
0.0
  0
LINE
  5
288E2
  8
0
 10
4427.9773120296931666
 20
274.0323847399533861
 30
0.0
 11
4428.7236216131941546
 21
274.0323847399533861
 31
0.0
  0
LINE
  5
288E3
  8
0
 10
4428.8606405509981414
 20
275.4218335290066193
 30
0.0
 11
4428.9041628817976743
 21
275.3693813875066212
 31
0.0
  0
LINE
  5
288E4
  8
0
 10
4426.5768972527994265
 20
282.0999254739933804
 30
0.0
 11
4426.5999417377979626
 21
282.0561280253933774
 31
0.0
  0
LINE
  5
288E5
  8
0
 10
4427.162543133800682
 20
280.8276382919937078
 30
0.0
 11
4427.1429366683505577
 21
280.8686225814303157
 31
0.0
  0
LINE
  5
288E6
  8
0
 10
4426.9744281102975947
 20
281.2195835026934105
 30
0.0
 11
4426.8894961761816376
 21
281.4010600855486928
 31
0.0
  0
LINE
  5
288E7
  8
0
 10
4429.2847671223144062
 20
275.3555301737254126
 30
0.0
 11
4430.6581445708970932
 21
275.3675831201534265
 31
0.0
  0
LINE
  5
288E8
  8
0
 10
4427.8879116461976082
 20
275.4497075746534165
 30
0.0
 11
4428.8183301569961259
 21
275.4497075746534165
 31
0.0
  0
LINE
  5
288E9
  8
0
 10
4426.3773488672986787
 20
283.781405708393379
 30
0.0
 11
4426.376951009284312
 21
283.7821619806205717
 31
0.0
  0
LINE
  5
288EA
  8
0
 10
4426.8133530598970538
 20
281.7515299064933743
 30
0.0
 11
4426.8133303880986205
 21
281.7515557314933972
 31
0.0
  0
LINE
  5
288EB
  8
0
 10
4427.5013251153977762
 20
280.0872093568934247
 30
0.0
 11
4427.5749419963285618
 21
280.1079021289023103
 31
0.0
  0
LINE
  5
288EC
  8
0
 10
4426.7707018756509569
 20
281.5230914288619033
 30
0.0
 11
4426.8012647519981329
 21
281.5033896980934855
 31
0.0
  0
LINE
  5
288ED
  8
0
 10
4427.2512468778977563
 20
280.5562552481933949
 30
0.0
 11
4427.2983813261980686
 21
280.5687536728934219
 31
0.0
  0
LINE
  5
288EE
  8
0
 10
4427.1802490244972432
 20
281.0370103488934888
 30
0.0
 11
4427.2231765324986554
 21
281.0483789971934812
 31
0.0
  0
LINE
  5
288EF
  8
0
 10
4427.2076039390976803
 20
280.7072652576933933
 30
0.0
 11
4427.2422571051447449
 21
280.7162661913056922
 31
0.0
  0
LINE
  5
288F0
  8
0
 10
4427.1245889041983901
 20
280.9945077955933925
 30
0.0
 11
4427.1690163675975782
 21
281.0055910285935283
 31
0.0
  0
LINE
  5
288F1
  8
0
 10
4427.1241205693977463
 20
280.797212853893484
 30
0.0
 11
4427.1519941777751228
 21
280.803588512380486
 31
0.0
  0
LINE
  5
288F2
  8
0
 10
4427.0937571070062404
 20
280.85741571407641
 30
0.0
 11
4427.153294320922214
 21
280.8709828472659069
 31
0.0
  0
LINE
  5
288F3
  8
0
 10
4427.0534133049986849
 20
281.0430161697934182
 30
0.0
 11
4427.0819519681117526
 21
281.0494438219121207
 31
0.0
  0
LINE
  5
288F4
  8
0
 10
4426.7559281987978466
 20
281.5320994402933934
 30
0.0
 11
4426.7625026823980079
 21
281.5337386431933737
 31
0.0
  0
LINE
  5
288F5
  8
0
 10
4426.9279206375977083
 20
281.2115502025934006
 30
0.0
 11
4426.9699882714985506
 21
281.221649747893423
 31
0.0
  0
LINE
  5
288F6
  8
0
 10
4426.8746047039985569
 20
281.3974849593934096
 30
0.0
 11
4426.9118897405978714
 21
281.4064363046933863
 31
0.0
  0
LINE
  5
288F7
  8
0
 10
4426.7396040127987362
 20
281.8682882886934067
 30
0.0
 11
4426.7648691680979027
 21
281.8743539157935061
 31
0.0
  0
LINE
  5
288F8
  8
0
 10
4427.0317724168980931
 20
281.5490784787933762
 30
0.0
 11
4427.0720822086977932
 21
281.5587070642934009
 31
0.0
  0
LINE
  5
288F9
  8
0
 10
4427.0103261371987173
 20
281.3898727995933768
 30
0.0
 11
4427.0523133412980314
 21
281.3997568153934026
 31
0.0
  0
LINE
  5
288FA
  8
0
 10
4426.606344507884387
 20
282.0534040012653918
 30
0.0
 11
4426.6124453699985679
 21
282.0548179842933791
 31
0.0
  0
LINE
  5
288FB
  8
0
 10
4426.8073022572980335
 20
281.5023356000934882
 30
0.0
 11
4426.8275319844851765
 21
281.5070060005900814
 31
0.0
  0
LINE
  5
288FC
  8
0
 10
4426.9715068925979722
 20
281.3277517803934984
 30
0.0
 11
4427.0151592880993121
 21
281.3374063444935018
 31
0.0
  0
LINE
  5
288FD
  8
0
 10
4426.875999230997877
 20
281.8546665342934148
 30
0.0
 11
4426.9151217732978694
 21
281.8632340418934064
 31
0.0
  0
LINE
  5
288FE
  8
0
 10
4426.8682985651994386
 20
281.6865409401934244
 30
0.0
 11
4426.9091940207981679
 21
281.6953771448934276
 31
0.0
  0
LINE
  5
288FF
  8
0
 10
4426.706923443798587
 20
281.5451179398933732
 30
0.0
 11
4426.7379471382982956
 21
281.5517122297935089
 31
0.0
  0
LINE
  5
28900
  8
0
 10
4426.6803382319985758
 20
281.637831591693498
 30
0.0
 11
4426.7078578142991319
 21
281.6436810594934173
 31
0.0
  0
LINE
  5
28901
  8
0
 10
4426.5794028798345607
 20
281.9898347675293167
 30
0.0
 11
4426.6001523484010249
 21
281.9942452031942253
 31
0.0
  0
LINE
  5
28902
  8
0
 10
4426.7538909823979338
 20
282.0842635629933852
 30
0.0
 11
4426.7917456504774236
 21
282.0922292406926886
 31
0.0
  0
LINE
  5
28903
  8
0
 10
4426.8671752477994232
 20
282.1167544341934104
 30
0.0
 11
4426.9045747517066047
 21
282.1246248819527978
 31
0.0
  0
LINE
  5
28904
  8
0
 10
4426.5860869088983236
 20
282.4036660853934109
 30
0.0
 11
4426.5979164129976198
 21
282.4065073680935143
 31
0.0
  0
LINE
  5
28905
  8
0
 10
4426.4858857218869161
 20
282.7531091211516241
 30
0.0
 11
4426.4889035266978681
 21
282.753833631993416
 31
0.0
  0
LINE
  5
28906
  8
0
 10
4426.5334878959984053
 20
282.1499595745934243
 30
0.0
 11
4426.5528806636975787
 21
282.154082353493493
 31
0.0
  0
LINE
  5
28907
  8
0
 10
4426.4808441582981686
 20
282.3335501054933729
 30
0.0
 11
4426.4993470861982132
 21
282.3374830242934195
 31
0.0
  0
LINE
  5
28908
  8
0
 10
4426.6394831443976727
 20
282.4819880567935115
 30
0.0
 11
4426.674316227898089
 21
282.4891219630933961
 31
0.0
  0
LINE
  5
28909
  8
0
 10
4426.7347568631976173
 20
282.3433963917934193
 30
0.0
 11
4426.7708742953991532
 21
282.350687374793381
 31
0.0
  0
LINE
  5
2890A
  8
0
 10
4426.5362741488970642
 20
282.8407821144934928
 30
0.0
 11
4426.5659516114474172
 21
282.8467099137595255
 31
0.0
  0
LINE
  5
2890B
  8
0
 10
4426.4543669108979884
 20
283.1255237784934025
 30
0.0
 11
4426.484345921799104
 21
283.1313916387935024
 31
0.0
  0
LINE
  5
2890C
  8
0
 10
4426.60042558369787
 20
282.8082221926933926
 30
0.0
 11
4426.6336938325976007
 21
282.814400496393489
 31
0.0
  0
LINE
  5
2890D
  8
0
 10
4426.7025716695980009
 20
282.6844773629935048
 30
0.0
 11
4426.7370609860408877
 21
282.6907680994759744
 31
0.0
  0
LINE
  5
2890E
  8
0
 10
4426.3353960847971393
 20
283.9908275650934115
 30
0.0
 11
4426.3820202264723775
 21
284.0036221203533842
 31
0.0
  0
LINE
  5
2890F
  8
0
 10
4426.3098641685983239
 20
284.0808720694934095
 30
0.0
 11
4426.3570618420981191
 21
284.0936071977934034
 31
0.0
  0
LINE
  5
28910
  8
0
 10
4426.4017791786982343
 20
283.3083396881934277
 30
0.0
 11
4426.4303875289715506
 21
283.3138657538846132
 31
0.0
  0
LINE
  5
28911
  8
0
 10
4426.4861557451977205
 20
283.2036390296934201
 30
0.0
 11
4426.5170086920979884
 21
283.20894772889352
 31
0.0
  0
LINE
  5
28912
  8
0
 10
4426.403133631698438
 20
283.4909333366935016
 30
0.0
 11
4426.4322373388977212
 21
283.4956540937934051
 31
0.0
  0
LINE
  5
28913
  8
0
 10
4426.5540783040978567
 20
283.1966682255933847
 30
0.0
 11
4426.5859471056983239
 21
283.2016847854933985
 31
0.0
  0
LINE
  5
28914
  8
0
 10
4426.3594863411981351
 20
283.6419753107933843
 30
0.0
 11
4426.3876724571982777
 21
283.6464016484935087
 31
0.0
  0
LINE
  5
28915
  8
0
 10
4426.4362336510976093
 20
283.603172655293406
 30
0.0
 11
4426.4660291057889481
 21
283.6072783492538747
 31
0.0
  0
LINE
  5
28916
  8
0
 10
4426.3605735949977316
 20
283.864177346393376
 30
0.0
 11
4426.3890423347993419
 21
283.8677444229933826
 31
0.0
  0
ARC
  5
28917
  8
0
 10
4427.4134942319660695
 20
252.4527242703991021
 30
0.0
 40
15.4667373006607907
 50
87.5704024648504884
 51
90.0000107303776815
  0
ARC
  5
28918
  8
0
 10
4427.4134942401706212
 20
267.2403277127835963
 30
0.0
 40
0.6791338583302152
 50
270.0000000022407107
 51
344.7952408709998053
  0
ARC
  5
28919
  8
0
 10
4427.4134942401969965
 20
267.240327712765918
 30
0.0
 40
0.6791338582999999
 50
15.1668637157044
 51
90.0002450703994867
  0
ARC
  5
2891A
  8
0
 10
4426.8819981772103347
 20
267.2403277127534125
 30
0.0
 40
0.6791338583124259
 50
89.9997453663351337
 51
270.0004901229772827
  0
ARC
  5
2891B
  8
0
 10
4429.4966595891983161
 20
266.1374022058034257
 30
0.0
 40
0.0787401575
 50
180.0
 51
269.4999993854232798
  0
ARC
  5
2891C
  8
0
 10
4429.4966595891655743
 20
268.3432532197999194
 30
0.0
 40
0.0787401574032632
 50
90.500000592012114
 51
180.0017121729368057
  0
ARC
  5
2891D
  8
0
 10
4428.4394205630469514
 20
274.8398376776581813
 30
0.0
 40
0.1963118992441349
 50
129.5826711512407883
 51
164.1223042118602109
  0
ARC
  5
2891E
  8
0
 10
4428.2661573451514414
 20
274.7793032385961851
 30
0.0
 40
0.0393666006318896
 50
171.5285612545569052
 51
219.6858008182692004
  0
ARC
  5
2891F
  8
0
 10
4427.8879189851941192
 20
275.4694000943566152
 30
0.0
 40
0.019692521070764
 50
181.1142274851630987
 51
269.9786470461996259
  0
ARC
  5
28920
  8
0
 10
4427.9773051998727169
 20
274.0520697801750885
 30
0.0
 40
0.0196850414065074
 50
182.3859461807087996
 51
270.0198790489911858
  0
ARC
  5
28921
  8
0
 10
4427.9075811910051925
 20
275.4418335588491118
 30
0.0
 40
0.0078740157
 50
90.0
 51
182.3859439963989928
  0
ARC
  5
28922
  8
0
 10
4425.8266152836058609
 20
280.7718819965137982
 30
0.0
 40
1.241528679544182
 50
27.245481658593949
 51
28.1397263620160096
  0
ARC
  5
28923
  8
0
 10
4426.4703781110083582
 20
281.1184253407816982
 30
0.0
 40
0.5104244163837554
 50
27.9187775999166909
 51
29.7915147941313982
  0
ARC
  5
28924
  8
0
 10
4427.0222992277640515
 20
280.4870448632482862
 30
0.0
 40
0.2943938287320533
 50
358.4999502741202946
 51
8.2219679544401192
  0
ARC
  5
28925
  8
0
 10
4427.1188534711982356
 20
280.8202402026934124
 30
0.0
 40
0.0236220472
 50
196.999240626395391
 51
282.8837602199967023
  0
ARC
  5
28926
  8
0
 10
4427.2941854519976914
 20
280.5263233605933806
 30
0.0
 40
0.0196850402
 50
8.2430587836035087
 51
28.2227057808121806
  0
ARC
  5
28927
  8
0
 10
4426.7817791147381286
 20
281.5401023943459222
 30
0.0
 40
0.0202997086801493
 50
198.2696670781081139
 51
236.9285384997710082
  0
ARC
  5
28928
  8
0
 10
4426.9242443327548244
 20
281.2268631159626011
 30
0.0
 40
0.0157480326755353
 50
195.98260755239221
 51
283.4999985964566918
  0
ARC
  5
28929
  8
0
 10
4426.8709283990283438
 20
281.4127978714395226
 30
0.0
 40
0.0157480314185243
 50
195.9999998805652126
 51
283.5000001675807084
  0
ARC
  5
2892A
  8
0
 10
4426.8108723746136093
 20
281.6222381212813843
 30
0.0
 40
0.0157480330982336
 50
108.500033595503993
 51
196.0191978921411078
  0
ARC
  5
2892B
  8
0
 10
4426.7044677944550131
 20
281.5566708675702898
 30
0.0
 40
0.0118110266955651
 50
195.9699532113831992
 51
281.9999941114386957
  0
ARC
  5
2892C
  8
0
 10
4426.6778825821083956
 20
281.6493845161008949
 30
0.0
 40
0.0118110236113254
 50
196.0000000006689049
 51
282.0000000050774247
  0
ARC
  5
2892D
  8
0
 10
4426.8055309891888101
 20
281.5100078057373025
 30
0.0
 40
0.0078740160371359
 50
237.1929180269594042
 51
282.9999936792731887
  0
ARC
  5
2892E
  8
0
 10
4426.7544995258976996
 20
281.5378295330933724
 30
0.0
 40
0.0059055118
 50
202.4580177100964136
 51
283.99999999997749
  0
ARC
  5
2892F
  8
0
 10
4426.5824106040554398
 20
282.4189789983008723
 30
0.0
 40
0.0157480322264807
 50
195.9874835119206011
 51
283.4999989873488744
  0
ARC
  5
28930
  8
0
 10
4426.5223545784538146
 20
282.6284192485875906
 30
0.0
 40
0.0157480315529225
 50
108.5000004441643995
 51
195.9999999226909893
  0
ARC
  5
28931
  8
0
 10
4426.5310322463601551
 20
282.1615125005087066
 30
0.0
 40
0.0118110250337058
 50
195.9801146353611898
 51
281.9999972871780187
  0
ARC
  5
28932
  8
0
 10
4426.4969520640688643
 20
282.2803642176962171
 30
0.0
 40
0.0118110235734006
 50
109.9999999800834019
 51
195.9999999850566041
  0
ARC
  5
28933
  8
0
 10
4426.4141125195055793
 20
282.569260045192209
 30
0.0
 40
0.0118110252216758
 50
110.0000034525349975
 51
196.0198845299628942
  0
ARC
  5
28934
  8
0
 10
4426.4783885088118041
 20
282.3451030316053902
 30
0.0
 40
0.011811025194619
 50
195.9801340746597873
 51
281.9999963698991792
  0
ARC
  5
28935
  8
0
 10
4426.4443083274400124
 20
282.4639547475998143
 30
0.0
 40
0.0118110249353941
 50
110.0000025827307013
 51
196.0198667981543963
  0
ARC
  5
28936
  8
0
 10
4426.5428671100644351
 20
282.1202394235775728
 30
0.0
 40
0.0118110238448741
 50
110.0000004989122004
 51
196.009473594357388
  0
ARC
  5
28937
  8
0
 10
4426.5769472919600958
 20
282.0013877054649925
 30
0.0
 40
0.011811023950534
 50
195.9905367582234987
 51
281.9996920961671094
  0
ARC
  5
28938
  8
0
 10
4426.4860860901144406
 20
282.3182583730495026
 30
0.0
 40
0.0118110239030685
 50
110.0003077518900056
 51
196.0094279501323058
  0
ARC
  5
28939
  8
0
 10
4426.4529883127015637
 20
282.6848310011893091
 30
0.0
 40
0.019685039106181
 50
154.8070207351312035
 51
189.4624908342057097
  0
ARC
  5
2893A
  8
0
 10
4426.482209425588735
 20
282.7684220372706818
 30
0.0
 40
0.0157480333546796
 50
195.97988427198311
 51
283.4999660298936988
  0
ARC
  5
2893B
  8
0
 10
4426.4221534009939205
 20
282.9778622848638179
 30
0.0
 40
0.015748033359614
 50
108.5000026176525978
 51
196.0201124535562087
  0
ARC
  5
2893C
  8
0
 10
4426.4577792035879611
 20
282.7227624057699131
 30
0.0
 40
0.0078740160678188
 50
109.0000063660158958
 51
154.8070820046881977
  0
ARC
  5
2893D
  8
0
 10
4426.478664265043335
 20
282.746609156186878
 30
0.0
 40
0.007874018472733
 50
289.0000073357849146
 51
8.9378779470125931
  0
ARC
  5
2893E
  8
0
 10
4426.357970597297026
 20
283.4737541273934198
 30
0.0
 40
0.0236220472
 50
109.1162397799769934
 51
195.0007593736006015
  0
ARC
  5
2893F
  8
0
 10
4426.8204396267128686
 20
281.8399105256509074
 30
0.0
 40
0.1758691895814198
 50
196.5864898623001977
 51
198.412334150722387
  0
ARC
  5
28940
  8
0
 10
4426.6758716905978872
 20
282.0930414538934201
 30
0.0
 40
0.0157480315
 50
108.5000312609034978
 51
196.0005283302018881
  0
ARC
  5
28941
  8
0
 10
4426.7359277161976934
 20
281.8836012027933862
 30
0.0
 40
0.0157480315
 50
195.9994747671009065
 51
283.4999689172104809
  0
ARC
  5
28942
  8
0
 10
4426.6438024001890881
 20
281.7682362347846947
 30
0.0
 40
0.011811023684648
 50
109.9999998818182974
 51
195.999999838245401
  0
ARC
  5
28943
  8
0
 10
4426.6502726612980041
 20
281.8537441373933916
 30
0.0
 40
0.0078740157
 50
197.2141007247039113
 51
225.0513748563851948
  0
ARC
  5
28944
  8
0
 10
4426.6050113516475903
 20
282.0591572517915893
 30
0.0
 40
0.0059056919293716
 50
210.8594176004932876
 51
283.0464498005017049
  0
ARC
  5
28945
  8
0
 10
4427.0600806498632664
 20
283.380560976768777
 30
0.0
 40
0.5592711755445047
 50
191.8893928694309068
 51
195.683885961138202
  0
ARC
  5
28946
  8
0
 10
4427.1393316631256312
 20
282.8637954912466057
 30
0.0
 40
0.4929981569143413
 50
192.6173370660060016
 51
196.7744218351809877
  0
ARC
  5
28947
  8
0
 10
4427.0009287742977904
 20
283.3683697589934241
 30
0.0
 40
0.4988766712
 50
190.9845519036954897
 51
191.9189054616977899
  0
ARC
  5
28948
  8
0
 10
4428.4691115977129812
 20
281.2001298687396229
 30
0.0
 40
1.3758037125639391
 50
197.0407012022897106
 51
199.319166693717591
  0
ARC
  5
28949
  8
0
 10
4427.8401349796604336
 20
281.2996465227219005
 30
0.0
 40
0.7984001944457421
 50
196.1825082932925
 51
201.3726156854185945
  0
ARC
  5
2894A
  8
0
 10
4427.8759721577098389
 20
280.9098663375821729
 30
0.0
 40
0.6626279382014995
 50
196.9879283082867119
 51
200.8224178672284097
  0
ARC
  5
2894B
  8
0
 10
4427.6896179530976951
 20
281.2800361774934004
 30
0.0
 40
0.5854820071
 50
197.3034075838025103
 51
200.0845732561006116
  0
ARC
  5
2894C
  8
0
 10
4427.5306905893976364
 20
281.2301013678934964
 30
0.0
 40
0.4188952038
 50
196.0603182848979031
 51
197.2480278854011999
  0
ARC
  5
2894D
  8
0
 10
4427.7198190636081563
 20
280.0358160572191082
 30
0.0
 40
0.0800924136471162
 50
219.6033983239547922
 51
257.6318636200300034
  0
ARC
  5
2894E
  8
0
 10
4427.6940829882696562
 20
279.9185121340777869
 30
0.0
 40
0.0400015341903552
 50
4.3796912776358887
 51
77.6129534763901461
  0
ARC
  5
2894F
  8
0
 10
4427.5657237067980532
 20
280.1198623384934194
 30
0.0
 40
0.0315682681
 50
211.692779361389313
 51
219.2622440546950884
  0
ARC
  5
28950
  8
0
 10
4427.5982905787413983
 20
280.0836070856043989
 30
0.0
 40
0.0157474765137103
 50
195.9998016106308114
 51
218.4453700219829955
  0
ARC
  5
28951
  8
0
 10
4427.4218561283469171
 20
282.6012821244863744
 30
0.0
 40
0.755104283996309
 50
193.9281451658642936
 51
196.7060022194281999
  0
ARC
  5
28952
  8
0
 10
4427.482005953755106
 20
283.515955274390592
 30
0.0
 40
1.065131053277091
 50
192.6494528660296055
 51
194.5853337543717885
  0
ARC
  5
28953
  8
0
 10
4427.3892837839975982
 20
283.0810524407934281
 30
0.0
 40
0.8560328768999999
 50
194.0392609271945901
 51
195.9266738308996025
  0
ARC
  5
28954
  8
0
 10
4429.0776030717452159
 20
274.6585187471357017
 30
0.0
 40
0.8597525222229048
 50
164.1353534405984931
 51
171.5333984407143078
  0
ARC
  5
28955
  8
0
 10
4429.0912315599816793
 20
274.6502640159043835
 30
0.0
 40
0.7305760206210237
 50
116.874794142553398
 51
140.7313316935473892
  0
ARC
  5
28956
  8
0
 10
4429.083342257197728
 20
274.6637876429065841
 30
0.0
 40
0.7204718629000002
 50
73.7652464369207053
 51
103.7276288580131052
  0
ARC
  5
28957
  8
0
 10
4429.0832907271678778
 20
274.6565996329982795
 30
0.0
 40
0.7204207827693995
 50
156.2216541506749934
 51
273.5233448316415092
  0
ARC
  5
28958
  8
0
 10
4429.0833354021542618
 20
274.6560301704320182
 30
0.0
 40
0.6889713756632725
 50
91.5107393053010583
 51
179.9992058625246045
  0
ARC
  5
28959
  8
0
 10
4429.0830015479132271
 20
274.6554539668910024
 30
0.0
 40
0.6886377704753511
 50
179.9512644026918906
 51
258.4201645145723205
  0
ARC
  5
2895A
  8
0
 10
4428.8183218453286827
 20
275.4694006475223773
 30
0.0
 40
0.0196930746230618
 50
270.0241822880278164
 51
1.9258700948595211
  0
ARC
  5
2895B
  8
0
 10
4428.7997140587021931
 20
275.4418335588633227
 30
0.0
 40
0.0078740156901358
 50
357.6140563511177106
 51
90.0
  0
ARC
  5
2895C
  8
0
 10
4431.6745191156978763
 20
283.5624105486933786
 30
0.0
 40
5.251637270499999
 50
206.4946114976984006
 51
207.2421669715594987
  0
ARC
  5
2895D
  8
0
 10
4431.6137361168857751
 20
283.5449751764386974
 30
0.0
 40
5.2516224771273752
 50
199.0391071311140081
 51
199.2558069908363905
  0
ARC
  5
2895E
  8
0
 10
4431.6023839178469643
 20
283.5417215184635893
 30
0.0
 40
5.2516243535539751
 50
202.2825998510149077
 51
202.4579461701254957
  0
ARC
  5
2895F
  8
0
 10
4430.8487014767979417
 20
283.425708167393509
 30
0.0
 40
4.4888653939999994
 50
189.7093690742997865
 51
190.7191788910245123
  0
ARC
  5
28960
  8
0
 10
4429.1578240745811854
 20
283.6302825997776722
 30
0.0
 40
2.7595993520200861
 50
194.9606248027992024
 51
195.7444777562645015
  0
ARC
  5
28961
  8
0
 10
4428.1669786945521992
 20
283.6589565136334272
 30
0.0
 40
1.814934489664173
 50
194.6231638116643978
 51
196.6049365698451936
  0
ARC
  5
28962
  8
0
 10
4427.9949712093994094
 20
283.9343261789935013
 30
0.0
 40
1.6740755383000001
 50
192.7221257673998025
 51
193.8803591362018892
  0
ARC
  5
28963
  8
0
 10
4427.2431073678972098
 20
284.1062248762946751
 30
0.0
 40
0.9358281998161663
 50
188.7596247826051865
 51
193.896330808226196
  0
ARC
  5
28964
  8
0
 10
4426.8316472340029577
 20
284.5622618511017095
 30
0.0
 40
0.0800006885773002
 50
39.553088349372338
 51
91.8313915718682949
  0
ARC
  5
28965
  8
0
 10
4426.4512898961411338
 20
284.4532759908797743
 30
0.0
 40
0.0800003337731545
 50
120.1686491223985058
 51
172.4608510675990942
  0
ARC
  5
28966
  8
0
 10
4426.3316653781976129
 20
283.9775667151934044
 30
0.0
 40
0.0236220472
 50
190.999240466196909
 51
238.1158345817825079
  0
ARC
  5
28967
  8
0
 10
4426.3160179665974283
 20
284.0580656693933861
 30
0.0
 40
0.0236220472
 50
105.1003723222788011
 51
191.0007595307029078
  0
ARC
  5
28968
  8
0
 10
4426.3742002489598235
 20
284.3525174001085247
 30
0.0
 40
0.0157474813478094
 50
173.5546352476316088
 51
196.0001966612765898
  0
ARC
  5
28969
  8
0
 10
4426.3649556276986914
 20
284.3065576045934222
 30
0.0
 40
0.0118110236000144
 50
106.3000000000509004
 51
180.1393648419594911
  0
ARC
  5
2896A
  8
0
 10
4434.4147698034976202
 20
284.3481408383934195
 30
0.0
 40
8.0806534027999994
 50
209.4781644455086109
 51
211.6892421864110929
  0
ARC
  5
2896B
  8
0
 10
4434.4155705901803231
 20
284.3483595948300149
 30
0.0
 40
8.0625344666989331
 50
180.297268113179797
 51
181.8106796410581865
  0
ARC
  5
2896C
  8
0
 10
4434.4155292396981167
 20
284.348363077393401
 30
0.0
 40
8.0624932766999997
 50
183.4367076442912037
 51
184.0356257745328037
  0
ARC
  5
2896D
  8
0
 10
4434.4155004295980689
 20
284.3483710888933729
 30
0.0
 40
8.0624668496999998
 50
204.1895906797057876
 51
204.6135786511244135
  0
ARC
  5
2896E
  8
0
 10
4434.4155026812977667
 20
284.3483632338933944
 30
0.0
 40
8.0624668489999998
 50
187.3864213493621094
 51
187.8104093200163902
  0
ARC
  5
2896F
  8
0
 10
4434.4154840661985872
 20
284.3483603469933882
 30
0.0
 40
8.0624480247000001
 50
184.9992354969610062
 51
185.1792575623593962
  0
ARC
  5
28970
  8
0
 10
4434.4154831101986929
 20
284.3483636710934093
 30
0.0
 40
8.0624480217999999
 50
206.8207424380175041
 51
207.000764503721399
  0
ARC
  5
28971
  8
0
 10
4434.4154830186980689
 20
284.3483638363935029
 30
0.0
 40
8.0624480170000012
 50
207.9643723308886081
 51
208.5632943610835923
  0
ARC
  5
28972
  8
0
 10
4432.0984316273970762
 20
283.7058442482933742
 30
0.0
 40
5.7763907648000004
 50
172.4604023668979096
 51
173.5545558779012936
  0
ARC
  5
28973
  8
0
 10
4432.1062591902282293
 20
283.6623736724046125
 30
0.0
 40
5.7715576961924393
 50
218.4452061116072059
 51
219.583056664211
  0
ARC
  5
28974
  8
0
 10
4436.3919897615978698
 20
284.045883846493382
 30
0.0
 40
9.9934274936000005
 50
185.2767005618653968
 51
185.9799160739098056
  0
LINE
  5
28975
  8
0
 10
4426.4991003437980908
 20
282.8789261299934878
 30
0.0
 11
4426.4995418911121305
 21
282.8893882640452944
 31
0.0
  0
LINE
  5
28976
  8
0
 10
4426.6521917104728345
 20
281.7886990960158187
 30
0.0
 11
4426.6507947542986585
 21
281.7937554306934089
 31
0.0
  0
LINE
  5
28977
  8
0
 10
4426.6507947542986585
 20
281.7937554306934089
 30
0.0
 11
4426.6502476006980942
 21
281.7961308251934156
 31
0.0
  0
LINE
  5
28978
  8
0
 10
4426.7148673875972236
 20
281.6413650586933954
 30
0.0
 11
4426.7142507090993604
 21
281.645098680593378
 31
0.0
  0
LINE
  5
28979
  8
0
 10
4426.7444138904984356
 20
281.5493946435934163
 30
0.0
 11
4426.7432655016982608
 21
281.5529539873934937
 31
0.0
  0
LINE
  5
2897A
  8
0
 10
4426.9133443479977359
 20
281.3720273865935155
 30
0.0
 11
4426.9064226790869725
 21
281.3825049869969916
 31
0.0
  0
LINE
  5
2897B
  8
0
 10
4426.5568598589970861
 20
282.1528256766935101
 30
0.0
 11
4426.5580878842984021
 21
282.1509971539935009
 31
0.0
  0
LINE
  5
2897C
  8
0
 10
4426.5063159438113871
 20
282.3330610425550731
 30
0.0
 11
4426.5040645015978953
 21
282.3357078974934211
 31
0.0
  0
LINE
  5
2897D
  8
0
 10
4426.9515425937979671
 20
281.2804559186934057
 30
0.0
 11
4426.9516690972131983
 21
281.2811088251315255
 31
0.0
  0
LINE
  5
2897E
  8
0
 10
4428.4685860329982461
 20
275.1190095726066147
 30
0.0
 11
4428.3143324028969801
 21
274.9911364350066947
 31
0.0
  0
LINE
  5
2897F
  8
0
 10
4426.5081628364987409
 20
283.3252031825934978
 30
0.0
 11
4426.5052464242980932
 21
283.3341318722934261
 31
0.0
  0
LINE
  5
28980
  8
0
 10
4426.4075249823981721
 20
283.6273230526933844
 30
0.0
 11
4426.4035925599982875
 21
283.6425246521433792
 31
0.0
  0
LINE
  5
28981
  8
0
 10
4426.511598192011661
 20
283.3121247837220267
 30
0.0
 11
4426.5081628364987409
 21
283.3252031825934978
 31
0.0
  0
LINE
  5
28982
  8
0
 10
4426.3697807288981494
 20
283.5327233774934257
 30
0.0
 11
4426.3751883290979094
 21
283.5119771264933775
 31
0.0
  0
LINE
  5
28983
  8
0
 10
4428.2358624692978992
 20
274.7541646280066061
 30
0.0
 11
4428.3499496542981433
 21
274.6166621706066167
 31
0.0
  0
ARC
  5
28984
  8
0
 10
4428.2635906844898273
 20
274.555440546557918
 30
0.0
 40
0.1058582019383266
 50
11.4521571949240606
 51
35.3336005876220227
  0
ARC
  5
28985
  8
0
 10
4428.8453073956134176
 20
275.4072304808404965
 30
0.0
 40
0.0211743871173567
 50
43.6029033032005131
 51
125.7941052818346037
  0
LINE
  5
28986
  8
0
 10
4426.6001523483982965
 20
281.9942452031933726
 30
0.0
 11
4426.6427513577364152
 21
281.851413876470815
 31
0.0
  0
ARC
  5
28987
  8
0
 10
4427.4187354205187148
 20
267.6913320132434819
 30
0.0
 40
1.1301503120933549
 50
269.7342843820351845
 51
305.1117779329480868
  0
ARC
  5
28988
  8
0
 10
4428.295523739944656
 20
267.2403277127534125
 30
0.0
 40
0.7537535274118524
 50
340.9465417318987761
 51
19.0534582681012097
  0
ARC
  5
28989
  8
0
 10
4428.3014327389146274
 20
270.8568756648052727
 30
0.0
 40
3.1895124427536752
 50
52.6410089678091708
 51
78.3633971266433491
  0
ARC
  5
2898A
  8
0
 10
4430.2665848489386917
 20
273.4261554435752259
 30
0.0
 40
0.0452413908258453
 50
228.9121330056059094
 51
267.8423160026330265
  0
ARC
  5
2898B
  8
0
 10
4417.1675471092676162
 20
288.8790671286565725
 30
0.0
 40
17.8059727255060203
 50
309.3960221670780015
 51
310.8115670303106981
  0
ARC
  5
2898C
  8
0
 10
4429.0699791851920963
 20
274.6647548850867224
 30
0.0
 40
0.7049541513449561
 50
140.5498246188811038
 51
156.3919894406946867
  0
ARC
  5
2898D
  8
0
 10
4429.1258032556997932
 20
274.5739423887952171
 30
0.0
 40
0.8142907515240827
 50
104.3723409351956946
 51
116.6170700812901941
  0
ARC
  5
2898E
  8
0
 10
4428.917746531321427
 20
275.3801741294905128
 30
0.0
 40
0.0173493173895765
 50
218.4685183269847073
 51
251.9452027138345898
  0
ARC
  5
2898F
  8
0
 10
4428.9195452185649629
 20
275.3816992197382092
 30
0.0
 40
0.0193962879140329
 50
248.2873307112521104
 51
282.3028096904789095
  0
ARC
  5
28990
  8
0
 10
4314.946618491717345
 20
274.2922706571471849
 30
0.0
 40
112.9277429170889064
 50
0.5970528287479376
 51
2.8573017880912248
  0
ARC
  5
28991
  8
0
 10
4432.0450438751186084
 20
267.1739521589485094
 30
0.0
 40
13.5252353822690896
 50
106.7509707153802054
 51
108.2637028429820987
  0
ARC
  5
28992
  8
0
 10
4428.2249458634332768
 20
279.0360378728116189
 30
0.0
 40
1.067313128708673
 50
113.0907495025186051
 51
118.5177272747364015
  0
ARC
  5
28993
  8
0
 10
4428.5966873907909758
 20
279.2720984543767031
 30
0.0
 40
1.1265728267522239
 50
141.4709603051533975
 51
142.5211566106397925
  0
ARC
  5
28994
  8
0
 10
4428.0688852471239443
 20
280.2384101411901725
 30
0.0
 40
0.1374359441974656
 50
304.5871873495344175
 51
328.3244895936634862
  0
ARC
  5
28995
  8
0
 10
4428.4346727280690175
 20
275.4557370412638875
 30
0.0
 40
0.0062143276118848
 50
284.0102448313174932
 51
337.4057767511213228
  0
ARC
  5
28996
  8
0
 10
4428.4117185500263076
 20
275.466576397999404
 30
0.0
 40
0.0315936117572147
 50
335.2501155931317953
 51
355.7659038170826875
  0
ARC
  5
28997
  8
0
 10
4356.3080778875264514
 20
274.6251783679712162
 30
0.0
 40
72.140027824017551
 50
0.666426016182375
 51
4.288406439401121
  0
ARC
  5
28998
  8
0
 10
4428.0191327337997791
 20
280.0053292578597279
 30
0.0
 40
0.2274489180217031
 50
3.5946138376116918
 51
32.04959028295292
  0
ARC
  5
28999
  8
0
 10
4427.4554738583738072
 20
279.6642562724592835
 30
0.0
 40
0.8862480937638519
 50
31.4019433646746009
 51
34.5006836328627386
  0
ARC
  5
2899A
  8
0
 10
4428.4495405715560992
 20
280.3518080734222053
 30
0.0
 40
0.3224417462947298
 50
200.5632914740575927
 51
215.1349623772701136
  0
ARC
  5
2899B
  8
0
 10
4356.5635583223311187
 20
273.9755246087145792
 30
0.0
 40
72.2898963337829485
 50
1.1846304520840041
 51
4.1911005427594832
  0
ARC
  5
2899C
  8
0
 10
4415.6482276931928936
 20
278.2212518157472232
 30
0.0
 40
13.0532055991380798
 50
4.5586211158806611
 51
16.2579364575481691
  0
ARC
  5
2899D
  8
0
 10
4419.6759883522308883
 20
279.8150412380268222
 30
0.0
 40
8.7495701492199327
 50
13.6216927550793105
 51
25.0996288147333892
  0
ARC
  5
2899E
  8
0
 10
4422.5264806098521149
 20
281.0032951067097997
 30
0.0
 40
5.6657597108428952
 50
26.4458616914221203
 51
39.579259175026408
  0
ARC
  5
2899F
  8
0
 10
4426.8506567213526068
 20
283.7777096414919811
 30
0.0
 40
0.8647809877860142
 50
91.4290082324183544
 51
120.5508578087984972
  0
LINE
  5
289A0
  8
0
 10
4427.541281741052444
 20
280.0998837033715745
 30
0.0
 11
4427.5743252865768227
 21
280.1100528514036228
 31
0.0
  0
ARC
  5
289A1
  8
0
 10
4427.5656447325936824
 20
280.1199098475159985
 30
0.0
 40
0.0120078643822067
 50
211.8703004604122953
 51
282.8158235283523823
  0
ARC
  5
289A2
  8
0
 10
4427.7627838520620571
 20
280.0355512154596909
 30
0.0
 40
0.1163462194381122
 50
196.4746778878306941
 51
205.8843482209186107
  0
ARC
  5
289A3
  8
0
 10
4429.5584593668218076
 20
280.548706888430786
 30
0.0
 40
2.1082649976190782
 50
192.6443862330534955
 51
197.1699785975480097
  0
ARC
  5
289A4
  8
0
 10
4427.225499366438271
 20
279.8410514599491989
 30
0.0
 40
0.3298678865301562
 50
341.7957418891285215
 51
14.9826949569046608
  0
ARC
  5
289A5
  8
0
 10
4427.4008508363385772
 20
279.7852348990519999
 30
0.0
 40
0.1458661529562164
 50
312.1299318909901217
 51
341.1052314902386797
  0
ARC
  5
289A6
  8
0
 10
4427.4297678364082458
 20
279.7561301029393803
 30
0.0
 40
0.1049009643240988
 50
272.9038562280617839
 51
311.0802744847284202
  0
ARC
  5
289A7
  8
0
 10
4427.4267699998727039
 20
279.8702506547194844
 30
0.0
 40
0.2190445860977709
 50
244.3926852925935123
 51
272.1747384373691716
  0
ARC
  5
289A8
  8
0
 10
4427.4695941058707831
 20
279.9816787075076832
 30
0.0
 40
0.3381711305528473
 50
220.1418140715051095
 51
246.0094993891908075
  0
ARC
  5
289A9
  8
0
 10
4427.4258239524633609
 20
279.9383793421307018
 30
0.0
 40
0.2768397369786587
 50
185.989492426681295
 51
219.1312754774810116
  0
ARC
  5
289AA
  8
0
 10
4427.5461955958298859
 20
279.9493082990588277
 30
0.0
 40
0.3976982662191564
 50
160.7133365020065128
 51
185.74587015928401
  0
ARC
  5
289AB
  8
0
 10
4428.6054969851647911
 20
279.5516106701412014
 30
0.0
 40
1.5291193880887151
 50
152.254315516058
 51
159.7579492972114963
  0
ARC
  5
289AC
  8
0
 10
4426.7390925254112517
 20
280.5372071902290827
 30
0.0
 40
0.5815430797881259
 50
331.9218264045218802
 51
352.429805218422473
  0
ARC
  5
289AD
  8
0
 10
4426.9810188441224454
 20
280.2176758749607757
 30
0.0
 40
0.469336977012951
 50
20.707353702099411
 51
37.3759051820007286
  0
ARC
  5
289AE
  8
0
 10
4427.1012913501217554
 20
280.5959373038447779
 30
0.0
 40
0.2464142388115244
 50
11.1317023850872303
 51
43.0878575086761728
  0
ARC
  5
289AF
  8
0
 10
4426.8409995229567357
 20
280.5833018602037896
 30
0.0
 40
0.4366176575576188
 50
21.8930315633606085
 51
36.1760388903124479
  0
ARC
  5
289B0
  8
0
 10
4427.0437008169301407
 20
281.0421766210384931
 30
0.0
 40
0.1795828553852276
 50
1.9792572316330601
 51
46.1930076003609216
  0
ARC
  5
289B1
  8
0
 10
4427.0550914731384182
 20
281.0031058476591284
 30
0.0
 40
0.1139519973585042
 50
1.2496636494639159
 51
18.2608085214417599
  0
ARC
  5
289B2
  8
0
 10
4427.0930056520001017
 20
281.0941205459735102
 30
0.0
 40
0.0404783461184652
 50
29.7626955757272391
 51
59.7470118507802894
  0
ARC
  5
289B3
  8
0
 10
4426.8091142307857808
 20
281.0055827286950034
 30
0.0
 40
0.291592993374239
 50
21.9437041296831197
 51
36.1390413985307504
  0
ARC
  5
289B4
  8
0
 10
4426.8863320197588109
 20
281.337398580869376
 30
0.0
 40
0.1288272685724694
 50
0.0034528628591074
 51
23.7347652797509703
  0
ARC
  5
289B5
  8
0
 10
4426.8619099264024044
 20
281.3979515444307253
 30
0.0
 40
0.1904119728573872
 50
0.543221915701153
 51
42.0619099513297598
  0
ARC
  5
289B6
  8
0
 10
4426.9194785904010132
 20
281.5742122061453188
 30
0.0
 40
0.1533892882224059
 50
354.1984274631265066
 51
46.3161307375610534
  0
ARC
  5
289B7
  8
0
 10
4426.6948838501057253
 20
281.6929918202562249
 30
0.0
 40
0.2143234449042565
 50
0.6376897131425115
 51
37.3080449319476131
  0
ARC
  5
289B8
  8
0
 10
4426.7444192706216199
 20
281.8790770952400067
 30
0.0
 40
0.1714361302617256
 50
354.6975171287317039
 51
40.9606578387405804
  0
ARC
  5
289B9
  8
0
 10
4426.7613258804622092
 20
282.1535683568559989
 30
0.0
 40
0.1461436411641515
 50
348.5771578311100143
 51
43.422226484118859
  0
ARC
  5
289BA
  8
0
 10
4426.6013828059667503
 20
282.3773520778034936
 30
0.0
 40
0.1715761387149824
 50
351.059405633630206
 51
37.2825965509798181
  0
ARC
  5
289BB
  8
0
 10
4426.58865509437328
 20
282.7287426925420277
 30
0.0
 40
0.1531873963497555
 50
345.6469374349267127
 51
37.8384826951864213
  0
ARC
  5
289BC
  8
0
 10
4426.4465354376980031
 20
282.8477289519785245
 30
0.0
 40
0.1901027373104124
 50
349.9028284198283245
 51
31.49215241447342
  0
ARC
  5
289BD
  8
0
 10
4426.42560653982855
 20
282.9085792655234854
 30
0.0
 40
0.1384592001743123
 50
9.1016459373549914
 51
31.1603136603001083
  0
ARC
  5
289BE
  8
0
 10
4426.4115726845120662
 20
283.2456784357326001
 30
0.0
 40
0.1798384831602641
 50
345.8401092274336861
 51
29.9877018627913685
  0
ARC
  5
289BF
  8
0
 10
4426.2153801958511394
 20
283.1536419226976022
 30
0.0
 40
0.269884488009339
 50
355.270954665849672
 51
10.6120256662748602
  0
ARC
  5
289C0
  8
0
 10
4425.761825159574073
 20
283.3015017073158219
 30
0.0
 40
0.6686766867640952
 50
1.0594777308936629
 51
12.7402040758403494
  0
ARC
  5
289C1
  8
0
 10
4425.9969346237230639
 20
283.5274487033485116
 30
0.0
 40
0.436462313419738
 50
355.8225214384655146
 51
10.0760707942999606
  0
ARC
  5
289C2
  8
0
 10
4426.2238388372243207
 20
283.6546352431922742
 30
0.0
 40
0.246776825473992
 50
348.9362135383893815
 51
20.8441634027700999
  0
ARC
  5
289C3
  8
0
 10
4425.9217958612598522
 20
283.9117175995042999
 30
0.0
 40
0.4693110986188322
 50
354.6236546175308035
 51
11.2931303437425097
  0
ARC
  5
289C4
  8
0
 10
4427.3669367947613864
 20
280.3924409817008723
 30
0.0
 40
0.023658764069653
 50
241.8034372492915054
 51
286.6519285305852236
  0
ARC
  5
289C5
  8
0
 10
4427.3672657224806244
 20
280.3929852464364103
 30
0.0
 40
0.0242938815914644
 50
206.9934857559196928
 51
241.7262441047114976
  0
ARC
  5
289C6
  8
0
 10
4428.3055456925576436
 20
280.7938647347630194
 30
0.0
 40
1.044570256893063
 50
198.6055012471516932
 51
203.2242439262309119
  0
ARC
  5
289C7
  8
0
 10
4427.6584635074332255
 20
280.5467376304040954
 30
0.0
 40
0.3514557322424636
 50
197.5456431736402862
 51
203.967224665136996
  0
ARC
  5
289C8
  8
0
 10
4426.989925610496357
 20
280.2933654272208059
 30
0.0
 40
0.3645686331666478
 50
17.6612443215527115
 51
23.8516235172465016
  0
ARC
  5
289C9
  8
0
 10
4427.3397020237025572
 20
280.4686742830048729
 30
0.0
 40
0.025451643458769
 50
155.2291400443313876
 51
198.5096976896315937
  0
ARC
  5
289CA
  8
0
 10
4427.3378982732738223
 20
280.4690559775525003
 30
0.0
 40
0.0236574673696122
 50
114.8570493381859023
 51
154.2381043788248007
  0
ARC
  5
289CB
  8
0
 10
4427.2452109474261306
 20
280.5792080710644996
 30
0.0
 40
0.0237331947787953
 50
199.1042373206298919
 51
284.7335562497851811
  0
ARC
  5
289CC
  8
0
 10
4427.8422148501986157
 20
280.8277057858535954
 30
0.0
 40
0.6703472309100506
 50
195.4038620877514916
 51
202.4754415839489923
  0
ARC
  5
289CD
  8
0
 10
4427.2185842374219646
 20
280.6566056385016168
 30
0.0
 40
0.0236813974343426
 50
113.1278987981609987
 51
197.0871857681738106
  0
ARC
  5
289CE
  8
0
 10
4426.2993387860078656
 20
280.1257791155736072
 30
0.0
 40
1.0928460346924711
 50
23.9124548640259
 51
31.0568959226447383
  0
ARC
  5
289CF
  8
0
 10
4427.2915845004936273
 20
280.6539814550561118
 30
0.0
 40
0.0242100094692555
 50
209.2321058448864903
 51
285.5458392253420925
  0
ARC
  5
289D0
  8
0
 10
4427.4900201503442077
 20
280.7556644333837994
 30
0.0
 40
0.2471664888253977
 50
199.2145870913277008
 51
207.3373377505205895
  0
ARC
  5
289D1
  8
0
 10
4427.2657071838402771
 20
280.7283942822675158
 30
0.0
 40
0.0264006966039859
 50
116.7952019305583065
 51
207.3474467813105946
  0
ARC
  5
289D2
  8
0
 10
4427.0763628195309138
 20
280.6185042477230809
 30
0.0
 40
0.1915576411334983
 50
14.1428224052797908
 51
25.9391324635730989
  0
ARC
  5
289D3
  8
0
 10
4427.4355677046178243
 20
280.7495351425304762
 30
0.0
 40
0.1928213247835424
 50
194.1816126237658011
 51
205.9003422450718972
  0
ARC
  5
289D4
  8
0
 10
4427.2016589964187006
 20
280.730176410271099
 30
0.0
 40
0.0236698807748775
 50
227.5541356639253081
 51
284.5462041928115013
  0
ARC
  5
289D5
  8
0
 10
4427.2050664843209233
 20
280.7331380376729157
 30
0.0
 40
0.0281597234646382
 50
198.0169789630095067
 51
226.5048886020248062
  0
ARC
  5
289D6
  8
0
 10
4427.7669592761585591
 20
280.9512232822219744
 30
0.0
 40
0.6308489115140957
 50
199.0832416337314896
 51
201.0699625976961897
  0
ARC
  5
289D7
  8
0
 10
4427.1793759062848039
 20
280.8071237631369854
 30
0.0
 40
0.0276090031334398
 50
161.320948978428504
 51
201.6244261546287078
  0
ARC
  5
289D8
  8
0
 10
4427.1754243686591508
 20
280.8077921621018049
 30
0.0
 40
0.0236599890777452
 50
112.7953471180397997
 51
159.7894404674777888
  0
ARC
  5
289D9
  8
0
 10
4427.0913663081082632
 20
280.8696313397944095
 30
0.0
 40
0.0124473865149657
 50
220.7474922468182967
 51
281.073749498243501
  0
ARC
  5
289DA
  8
0
 10
4426.519158686083756
 20
280.6489115339308
 30
0.0
 40
0.6718955808584556
 50
19.3000138655884612
 51
30.9249204345729787
  0
ARC
  5
289DB
  8
0
 10
4427.0769941749267673
 20
280.9615291780560256
 30
0.0
 40
0.0238289987235861
 50
111.272400046335207
 51
200.353732375065789
  0
ARC
  5
289DC
  8
0
 10
4427.1189048976530103
 20
281.0179396421979163
 30
0.0
 40
0.0241113949345583
 50
202.5732374826991133
 51
283.6352137518475729
  0
ARC
  5
289DD
  8
0
 10
4426.8350280569129609
 20
280.9676784379179253
 30
0.0
 40
0.2623720290341476
 50
13.8197256135580009
 51
22.4248546717918593
  0
ARC
  5
289DE
  8
0
 10
4427.3343124503162471
 20
281.1310847504545904
 30
0.0
 40
0.264445203935128
 50
193.8535192904982978
 51
202.3910609948547972
  0
ARC
  5
289DF
  8
0
 10
4427.1662727437760623
 20
281.1070630901024856
 30
0.0
 40
0.0976062218436081
 50
188.9135926301997017
 51
197.8562867886550123
  0
ARC
  5
289E0
  8
0
 10
4427.0935317689518342
 20
281.0951410491009028
 30
0.0
 40
0.0239018547466557
 50
112.4052690316041065
 51
187.6976135897014046
  0
ARC
  5
289E1
  8
0
 10
4427.1741403056994386
 20
281.0601393240445987
 30
0.0
 40
0.0239220805305177
 50
243.0670295463370962
 51
284.7948592077552803
  0
ARC
  5
289E2
  8
0
 10
4427.1751651733256949
 20
281.0618020210147279
 30
0.0
 40
0.025869146476049
 50
212.4573367314565928
 51
242.7113420945889004
  0
ARC
  5
289E3
  8
0
 10
4427.3033448665637479
 20
281.1320898972538203
 30
0.0
 40
0.1720091036986271
 50
197.9854676248064038
 51
209.2972773738381136
  0
ARC
  5
289E4
  8
0
 10
4427.2481121229457131
 20
281.1514286505305904
 30
0.0
 40
0.1256071082544349
 50
188.615615687350811
 51
197.2340310118185016
  0
ARC
  5
289E5
  8
0
 10
4427.1497641159867271
 20
281.1363311992037097
 30
0.0
 40
0.0261079510323403
 50
151.5336712977183993
 51
188.1896889221590072
  0
ARC
  5
289E6
  8
0
 10
4427.1476941120617994
 20
281.1371616023960769
 30
0.0
 40
0.0238937891672975
 50
113.0755237200120007
 51
150.9182387346183134
  0
ARC
  5
289E7
  8
0
 10
4427.0080882140709946
 20
281.0461928972125065
 30
0.0
 40
0.1393880384043815
 50
10.8203930565572506
 51
27.06225425064207
  0
ARC
  5
289E8
  8
0
 10
4427.2705832313849896
 20
281.1362765942662918
 30
0.0
 40
0.1409146445760352
 50
190.9089557687576075
 51
206.9736915384447968
  0
ARC
  5
289E9
  8
0
 10
4427.0482317179557867
 20
281.066193599575513
 30
0.0
 40
0.0237495704292812
 50
196.5672632607287937
 51
282.6019251435185993
  0
ARC
  5
289EA
  8
0
 10
4427.5165774438892186
 20
281.2506251746253838
 30
0.0
 40
0.5270172558987097
 50
192.2391328241162967
 51
201.2724501386076099
  0
ARC
  5
289EB
  8
0
 10
4427.0245400944622816
 20
281.1445266153390889
 30
0.0
 40
0.0236793262395194
 50
110.9636458017482994
 51
193.7420514441091939
  0
ARC
  5
289EC
  8
0
 10
4426.9709077041716228
 20
281.2178222079476768
 30
0.0
 40
0.0039364220399692
 50
26.5792634091740503
 51
103.5073827394145951
  0
ARC
  5
289ED
  8
0
 10
4427.5781245473172021
 20
281.5877215072978856
 30
0.0
 40
0.6978660949033361
 50
206.1225801148763992
 51
212.2285769226812988
  0
ARC
  5
289EE
  8
0
 10
4426.0443319625310323
 20
280.8570086639888927
 30
0.0
 40
1.0092807865587159
 50
20.8084677362856993
 51
28.6074613328927114
  0
ARC
  5
289EF
  8
0
 10
4426.9577575607945619
 20
281.3190059611404763
 30
0.0
 40
0.0383830992298112
 50
260.8729886416015802
 51
273.8400750279300837
  0
ARC
  5
289F0
  8
0
 10
4426.9664041242649546
 20
281.3508307463146139
 30
0.0
 40
0.0236363472780214
 50
223.8380762638516899
 51
282.467541611746185
  0
ARC
  5
289F1
  8
0
 10
4426.967041336967668
 20
281.3513605907506872
 30
0.0
 40
0.0244630226949262
 50
200.4993210766066056
 51
223.6994891913161041
  0
ARC
  5
289F2
  8
0
 10
4428.9986911905871239
 20
282.0017089372485088
 30
0.0
 40
2.1576379697314501
 50
195.6017256609422077
 51
197.7814655358588141
  0
ARC
  5
289F3
  8
0
 10
4426.9455249470956915
 20
281.429197804954299
 30
0.0
 40
0.0261571645090347
 50
169.0857567331356961
 51
197.310532172608788
  0
ARC
  5
289F4
  8
0
 10
4426.9430049991160558
 20
281.4294026601410224
 30
0.0
 40
0.023645621539364
 50
133.5528354374390858
 51
168.4170229921926989
  0
ARC
  5
289F5
  8
0
 10
4426.9429953650378593
 20
281.4294109333379765
 30
0.0
 40
0.0236329875604824
 50
110.705968962879993
 51
133.5497279165851978
  0
ARC
  5
289F6
  8
0
 10
4427.6267403176552762
 20
281.6399866213860719
 30
0.0
 40
0.7649537845380517
 50
199.6697185920963875
 51
208.0345022265314867
  0
ARC
  5
289F7
  8
0
 10
4427.0048908552353168
 20
281.4130378185247991
 30
0.0
 40
0.0237941251592296
 50
227.2224441739240888
 51
283.2046320391003746
  0
ARC
  5
289F8
  8
0
 10
4427.0141963248197499
 20
281.4210981452638975
 30
0.0
 40
0.0360557243896481
 50
194.9815349799976048
 51
225.0671695546731996
  0
ARC
  5
289F9
  8
0
 10
4427.4540164204918256
 20
281.5951382989105127
 30
0.0
 40
0.5088359881667895
 50
192.4299308679264016
 51
201.121908231714599
  0
ARC
  5
289FA
  8
0
 10
4426.9808277404208638
 20
281.4906283850896784
 30
0.0
 40
0.0242444725964486
 50
111.8900175434583986
 51
191.937275869163102
  0
ARC
  5
289FB
  8
0
 10
4426.7717404936756793
 20
281.3829247333732724
 30
0.0
 40
0.2088186383549738
 50
11.9539757695947308
 51
22.7719452462124217
  0
ARC
  5
289FC
  8
0
 10
4427.1713146236870671
 20
281.507860055786125
 30
0.0
 40
0.211678993833858
 50
192.0272792649822122
 51
202.6986417508219063
  0
ARC
  5
289FD
  8
0
 10
4427.0263725863569562
 20
281.5738510553953233
 30
0.0
 40
0.0253542643624515
 50
202.5654892407274872
 51
282.2967661457499275
  0
ARC
  5
289FE
  8
0
 10
4427.1984411537559936
 20
281.6684137978770082
 30
0.0
 40
0.2215625641948439
 50
188.7495580587898871
 51
208.0805266673077938
  0
ARC
  5
289FF
  8
0
 10
4427.0233823364878845
 20
281.6476104563216154
 30
0.0
 40
0.0457803663022851
 50
171.1011910286584907
 51
196.3662414934420894
  0
ARC
  5
28A00
  8
0
 10
4427.0017998808716584
 20
281.6497644853313886
 30
0.0
 40
0.0241548404773001
 50
111.7763905870405949
 51
168.2286909025067985
  0
ARC
  5
28A01
  8
0
 10
4426.880620285308396
 20
281.5689483569365166
 30
0.0
 40
0.1179494486358894
 50
7.9628989681429569
 51
27.1768754141018292
  0
ARC
  5
28A02
  8
0
 10
4427.1039572314348334
 20
281.6396658407003883
 30
0.0
 40
0.1196012699483775
 50
188.0968129354988889
 51
207.0429614182623936
  0
ARC
  5
28A03
  8
0
 10
4426.8709189643259378
 20
281.8779047165871248
 30
0.0
 40
0.0237870180094119
 50
236.569487957245201
 51
282.3318264353611085
  0
ARC
  5
28A04
  8
0
 10
4426.873732786394612
 20
281.8809826036629147
 30
0.0
 40
0.0279135182141386
 50
200.9206342409175079
 51
235.2298226344273928
  0
ARC
  5
28A05
  8
0
 10
4426.8477700215689765
 20
281.9562287514622767
 30
0.0
 40
0.0238003166939508
 50
110.6207604640010942
 51
154.754472583030406
  0
ARC
  5
28A06
  8
0
 10
4426.8489466502942378
 20
281.9557922594781871
 30
0.0
 40
0.0250509554282286
 50
154.9992645060114
 51
182.4919845226725954
  0
ARC
  5
28A07
  8
0
 10
4426.9282509371123524
 20
281.9648086581468078
 30
0.0
 40
0.1048198262324729
 50
185.5324384081513074
 51
195.0398647018766951
  0
ARC
  5
28A08
  8
0
 10
4427.1207391066336641
 20
281.9969767469290218
 30
0.0
 40
0.2996572797748073
 50
191.4270031989024119
 51
200.7296877927064997
  0
ARC
  5
28A09
  8
0
 10
4427.0889754271784113
 20
281.9693242901752228
 30
0.0
 40
0.2605725295596732
 50
197.5134677345166097
 51
202.1653214038985027
  0
ARC
  5
28A0A
  8
0
 10
4426.6695964017180813
 20
281.8609765534910139
 30
0.0
 40
0.1753613276758583
 50
10.0247909531057893
 51
22.9146533164546113
  0
ARC
  5
28A0B
  8
0
 10
4427.0193992590193375
 20
281.9643918396442928
 30
0.0
 40
0.1915305504849743
 50
190.5708999577593943
 51
202.3685443118073977
  0
ARC
  5
28A0C
  8
0
 10
4426.8622588218831879
 20
282.1405189030992915
 30
0.0
 40
0.0242676992348699
 50
224.5401905075208049
 51
281.6885351000768765
  0
ARC
  5
28A0D
  8
0
 10
4426.8762939510061187
 20
282.1521226835653806
 30
0.0
 40
0.0424395455690777
 50
200.2271622548256005
 51
222.4151505589547071
  0
ARC
  5
28A0E
  8
0
 10
4427.0454654532668428
 20
282.2345377168509231
 30
0.0
 40
0.2304441711335313
 50
187.7050922909708106
 51
204.9172601757938992
  0
ARC
  5
28A0F
  8
0
 10
4426.8574655750753664
 20
282.2146070470903965
 30
0.0
 40
0.041826772395567
 50
161.5198479015759006
 51
195.1991980265379993
  0
ARC
  5
28A10
  8
0
 10
4426.8398888955798611
 20
282.218268219716208
 30
0.0
 40
0.0240875849689906
 50
110.170270644185905
 51
156.5207131827172873
  0
ARC
  5
28A11
  8
0
 10
4426.7210051855299753
 20
282.1419558067249795
 30
0.0
 40
0.1134626405921734
 50
6.0338512982996546
 51
26.0152342450194887
  0
ARC
  5
28A12
  8
0
 10
4426.9364288397337077
 20
282.203827422314987
 30
0.0
 40
0.114101343474771
 50
186.0903448787412913
 51
205.9587406645653971
  0
ARC
  5
28A13
  8
0
 10
4426.8975334108617972
 20
281.6748450413109026
 30
0.0
 40
0.0449153776474425
 50
203.6414928520032959
 51
215.0755752451281921
  0
ARC
  5
28A14
  8
0
 10
4426.8652004216683054
 20
281.6523889221733157
 30
0.0
 40
0.0055533646029349
 50
217.1641558311517031
 51
251.9114427932462092
  0
ARC
  5
28A15
  8
0
 10
4427.1018846252891308
 20
281.7482912568884217
 30
0.0
 40
0.2619795690930984
 50
191.9632243382509955
 51
200.4324585360737956
  0
ARC
  5
28A16
  8
0
 10
4426.6047243556922695
 20
281.5799601310832259
 30
0.0
 40
0.2673230479187357
 50
14.5133578648572694
 51
24.8307109073468197
  0
ARC
  5
28A17
  8
0
 10
4426.8633075408215518
 20
281.7096514237211977
 30
0.0
 40
0.0236432817775546
 50
255.5872182674027044
 51
282.1866433254180038
  0
ARC
  5
28A18
  8
0
 10
4426.8633187361801902
 20
281.7096737799711264
 30
0.0
 40
0.0236677216039476
 50
234.2004911210559897
 51
255.5744400770707045
  0
ARC
  5
28A19
  8
0
 10
4426.8633545474021957
 20
281.709719012744074
 30
0.0
 40
0.0237253564375664
 50
221.3256774999478864
 51
234.1942451138224044
  0
ARC
  5
28A1A
  8
0
 10
4426.8831651362306729
 20
281.7219448273831972
 30
0.0
 40
0.0468383440486819
 50
190.5242483796369015
 51
216.5488048791806079
  0
LINE
  5
28A1B
  8
0
 10
4426.8357854836031038
 20
281.7160279145861068
 30
0.0
 11
4426.816839091705333
 21
281.7851371603255188
 31
0.0
  0
ARC
  5
28A1C
  8
0
 10
4426.8403171995078083
 20
281.788290948288477
 30
0.0
 40
0.0236889831898986
 50
110.4675668144323026
 51
187.6506804109451139
  0
ARC
  5
28A1D
  8
0
 10
4426.6088202354885652
 20
281.6000186533617011
 30
0.0
 40
0.2548948264319412
 50
26.4090013037907916
 51
34.6372193898479708
  0
ARC
  5
28A1E
  8
0
 10
4426.7734630784352703
 20
281.7150030667012857
 30
0.0
 40
0.0540871578695111
 50
33.5502960819865876
 51
49.7646521507452988
  0
ARC
  5
28A1F
  8
0
 10
4426.8042030848719151
 20
281.7514203127292944
 30
0.0
 40
0.0064307067294051
 50
49.2648308589252792
 51
83.8056243590266661
  0
ARC
  5
28A20
  8
0
 10
4426.8048919517195827
 20
281.7555168836398138
 30
0.0
 40
0.0022965960101004
 50
89.8748180934458105
 51
158.9893252923129978
  0
ARC
  5
28A21
  8
0
 10
4426.8138032402393947
 20
281.752217910356876
 30
0.0
 40
0.0117987901830099
 50
159.5498879022937899
 51
184.0946289738213011
  0
ARC
  5
28A22
  8
0
 10
4426.9945247069208563
 20
281.7807187927477912
 30
0.0
 40
0.1947138593127396
 50
188.6674899644949903
 51
203.6796763804175043
  0
ARC
  5
28A23
  8
0
 10
4427.154302973150152
 20
281.8384024049032064
 30
0.0
 40
0.3643832886095061
 50
201.8957044219640977
 51
210.7494121105505087
  0
ARC
  5
28A24
  8
0
 10
4426.9510479574855708
 20
281.7166534545070249
 30
0.0
 40
0.1274572209002584
 50
210.4296262429764965
 51
219.6007631666601014
  0
ARC
  5
28A25
  8
0
 10
4426.8791046959777304
 20
281.6569215585254256
 30
0.0
 40
0.033949838598979
 50
219.3229554076372949
 51
232.8133718476773026
  0
ARC
  5
28A26
  8
0
 10
4426.8638390858768616
 20
281.6369961081359179
 30
0.0
 40
0.0088498667492698
 50
233.5803513140940026
 51
252.1748969013785882
  0
ARC
  5
28A27
  8
0
 10
4426.8621054378600093
 20
281.6310257990541004
 30
0.0
 40
0.0026414167810481
 50
248.3291571445008969
 51
309.6509883274687809
  0
ARC
  5
28A28
  8
0
 10
4426.8608691395938877
 20
281.6318935591331183
 30
0.0
 40
0.0041177332074554
 50
315.199768392890519
 51
349.2212214616820916
  0
ARC
  5
28A29
  8
0
 10
4426.8463610357939615
 20
281.6348663503885064
 30
0.0
 40
0.0189269612346599
 50
348.5943594247438
 51
5.5514972663304558
  0
ARC
  5
28A2A
  8
0
 10
4426.7538407602178268
 20
281.6236958781436783
 30
0.0
 40
0.1121148765296023
 50
6.6593248685267348
 51
11.9722804105025595
  0
ARC
  5
28A2B
  8
0
 10
4426.9114452508501927
 20
281.4080256466040737
 30
0.0
 40
0.0016503268906398
 50
285.6246616735202224
 51
335.2387303075574891
  0
ARC
  5
28A2C
  8
0
 10
4426.9063061314600418
 20
281.410253759158195
 30
0.0
 40
0.0072513298690382
 50
336.2596365019542759
 51
1.4757402192323199
  0
ARC
  5
28A2D
  8
0
 10
4426.8615614203417863
 20
281.4095647402489249
 30
0.0
 40
0.0520010109342701
 50
0.9649840049377338
 51
12.7379504875385905
  0
ARC
  5
28A2E
  8
0
 10
4426.6139591828587072
 20
281.3540762371367236
 30
0.0
 40
0.30574459049611
 50
12.6495868575757004
 51
19.3689522025139915
  0
ARC
  5
28A2F
  8
0
 10
4425.860833726720557
 20
281.0929720551437185
 30
0.0
 40
1.102845619969641
 50
19.1898352595287705
 51
26.3322027467849011
  0
ARC
  5
28A30
  8
0
 10
4426.5809758179366327
 20
281.4602272076188001
 30
0.0
 40
0.2946822875053639
 50
24.4437795025751505
 51
36.6063114959836611
  0
ARC
  5
28A31
  8
0
 10
4426.8054291856269629
 20
281.6254364306817024
 30
0.0
 40
0.0160321660351597
 50
40.9796363762570621
 51
56.1555440656856604
  0
ARC
  5
28A32
  8
0
 10
4426.8122713897801077
 20
281.6356206221823868
 30
0.0
 40
0.0037629763720178
 50
56.3203617619537198
 51
81.5944611952931069
  0
ARC
  5
28A33
  8
0
 10
4426.8126591689551788
 20
281.6376613185902897
 30
0.0
 40
0.001689670522863
 50
84.4884197493242652
 51
106.6696502456725995
  0
ARC
  5
28A34
  8
0
 10
4426.7390532112858637
 20
281.5456801900226083
 30
0.0
 40
0.0061326096607039
 50
24.1207103146857911
 51
100.3906868279020017
  0
ARC
  5
28A35
  8
0
 10
4426.7401801587011505
 20
281.5479387894068282
 30
0.0
 40
0.0044770521934903
 50
3.1697441168439462
 51
18.9765665828629295
  0
ARC
  5
28A36
  8
0
 10
4423.9411327536236058
 20
280.5328668722589214
 30
0.0
 40
2.9820338127356449
 50
20.0035063108556308
 51
21.8721840957603284
  0
ARC
  5
28A37
  8
0
 10
4426.7090314123943244
 20
281.6384426592699128
 30
0.0
 40
0.0053682557124055
 50
50.0342034225241719
 51
102.6278828616681977
  0
ARC
  5
28A38
  8
0
 10
4426.7211245854341541
 20
281.6469469097930869
 30
0.0
 40
0.0096957017926052
 50
206.9211856956854092
 51
223.3067374533740974
  0
ARC
  5
28A39
  8
0
 10
4426.7147972006760028
 20
281.6409998939952857
 30
0.0
 40
0.0010123080774288
 50
224.0075431371377874
 51
247.7454503337006884
  0
ARC
  5
28A3A
  8
0
 10
4426.7145160683339782
 20
281.6402868411823874
 30
0.0
 40
0.0002460967459222
 50
245.449726642957188
 51
316.9298904085896993
  0
ARC
  5
28A3B
  8
0
 10
4426.712487274783598
 20
281.6410577211584041
 30
0.0
 40
0.0023998736145851
 50
336.9680339231388189
 51
7.357735468850775
  0
ARC
  5
28A3C
  8
0
 10
4425.8508756391065617
 20
281.3993990397756875
 30
0.0
 40
0.8976551815587994
 50
15.8853153293578107
 51
25.9540744193807917
  0
ARC
  5
28A3D
  8
0
 10
4426.6651875945453867
 20
281.790629838538905
 30
0.0
 40
0.007371793191938
 50
167.2374722890290002
 51
178.3871923710208023
  0
ARC
  5
28A3E
  8
0
 10
4426.6520486152476224
 20
281.7903785039047193
 30
0.0
 40
0.0061879160938245
 50
293.6255820896623732
 51
350.0687226877396938
  0
ARC
  5
28A3F
  8
0
 10
4426.6846161541925539
 20
281.7787409431566061
 30
0.0
 40
0.0057739304524039
 50
224.0435917974396034
 51
291.6244225872413267
  0
ARC
  5
28A40
  8
0
 10
4426.478032139170864
 20
281.6272158506802157
 30
0.0
 40
0.250477314212826
 50
36.0803841935607466
 51
43.7046018998846577
  0
ARC
  5
28A41
  8
0
 10
4426.6443789710638157
 20
281.7868373740616903
 30
0.0
 40
0.019939505883915
 50
42.3927432817820815
 51
66.0912050033177536
  0
ARC
  5
28A42
  8
0
 10
4426.6516698201821782
 20
281.803043769888518
 30
0.0
 40
0.0021710744419999
 50
68.653916324672565
 51
117.4855462657324949
  0
ARC
  5
28A43
  8
0
 10
4426.6516655585310218
 20
281.8033969516358184
 30
0.0
 40
0.0018626082711264
 50
122.3893521035027021
 51
153.7006960988005062
  0
ARC
  5
28A44
  8
0
 10
4426.6554169353767065
 20
281.8019504755116031
 30
0.0
 40
0.0058779273174766
 50
157.2641103984495885
 51
181.8987503712104115
  0
ARC
  5
28A45
  8
0
 10
4426.6752920761637142
 20
281.8021280919832066
 30
0.0
 40
0.0257525330857801
 50
180.8285045833301012
 51
193.466727535984802
  0
ARC
  5
28A46
  8
0
 10
4426.6421991890865684
 20
281.7605792634665818
 30
0.0
 40
0.0531176208699065
 50
16.1684766002631513
 51
24.8388786129192916
  0
ARC
  5
28A47
  8
0
 10
4426.683967338552975
 20
281.7798717809786808
 30
0.0
 40
0.0071092634334531
 50
25.1422637451621398
 51
40.9890975819184789
  0
ARC
  5
28A48
  8
0
 10
4426.4840099737330092
 20
281.6342895413628185
 30
0.0
 40
0.2544237977372435
 50
36.1947475606892866
 51
43.2516528555037567
  0
ARC
  5
28A49
  8
0
 10
4426.6440368084658985
 20
281.7845772653665222
 30
0.0
 40
0.0348908208528286
 50
43.5616632442285479
 51
55.4993682763988332
  0
ARC
  5
28A4A
  8
0
 10
4426.6588246056962817
 20
281.8060032620913944
 30
0.0
 40
0.0088573409768353
 50
55.8286658513206007
 51
69.7080645590046402
  0
ARC
  5
28A4B
  8
0
 10
4426.6608430976148156
 20
281.8118012813085898
 30
0.0
 40
0.0027216793728658
 50
67.2325842645191898
 51
103.7552237689382935
  0
ARC
  5
28A4C
  8
0
 10
4426.6571196558797965
 20
281.8054114703948017
 30
0.0
 40
0.0076518887251418
 50
108.638497229136803
 51
153.1762295412414971
  0
ARC
  5
28A4D
  8
0
 10
4426.6603474230851134
 20
281.804059861215876
 30
0.0
 40
0.0111450667293925
 50
154.4633574680227071
 51
180.980507996487006
  0
ARC
  5
28A4E
  8
0
 10
4426.7016962907091511
 20
281.8064827754844828
 30
0.0
 40
0.0525573295020056
 50
182.8504463086823932
 51
198.6145391310452055
  0
ARC
  5
28A4F
  8
0
 10
4427.5560141885889607
 20
282.3608421308601919
 30
0.0
 40
1.0096963495075859
 50
195.8487777574916038
 51
201.3167108559159999
  0
ARC
  5
28A50
  8
0
 10
4428.0188804973977312
 20
282.5255280778400788
 30
0.0
 40
1.5008362978035841
 50
200.7500365105969991
 51
203.1820744525909106
  0
ARC
  5
28A51
  8
0
 10
4426.6273172090368462
 20
281.9295554039808849
 30
0.0
 40
0.0129774973720422
 50
8.5766659095756932
 51
23.4384019194581086
  0
ARC
  5
28A52
  8
0
 10
4426.6943837607377645
 20
281.9136080219302016
 30
0.0
 40
0.0571063827835826
 50
161.7509524402915986
 51
190.1628168746265999
  0
ARC
  5
28A53
  8
0
 10
4426.8556898651977463
 20
281.9269981639495199
 30
0.0
 40
0.2187786540500985
 50
186.1574263254196921
 51
189.8566904106953928
  0
ARC
  5
28A54
  8
0
 10
4426.8359332063246256
 20
281.9407557301490215
 30
0.0
 40
0.2023786351858217
 50
194.6572345179855859
 51
202.5841652744308021
  0
ARC
  5
28A55
  8
0
 10
4426.6619183367010919
 20
281.8686756357753893
 30
0.0
 40
0.0140289175963263
 50
203.7113174004784923
 51
209.9896777620074886
  0
ARC
  5
28A56
  8
0
 10
4426.6505437699079266
 20
281.8620524174817774
 30
0.0
 40
0.0008681507596937
 50
206.6243007331439117
 51
240.4478129987479065
  0
ARC
  5
28A57
  8
0
 10
4426.6489708174422049
 20
281.8617142782953806
 30
0.0
 40
0.0012183754318012
 50
339.9818759187505748
 51
13.9559404414847705
  0
ARC
  5
28A58
  8
0
 10
4426.8489914501469684
 20
281.8952925789757842
 30
0.0
 40
0.20160479570528
 50
182.7831290022207043
 51
189.5029014823884097
  0
ARC
  5
28A59
  8
0
 10
4426.6847001584756072
 20
281.888237493297197
 30
0.0
 40
0.0371763717850833
 50
160.5237113397718929
 51
184.217367862586002
  0
ARC
  5
28A5A
  8
0
 10
4426.6564469718659893
 20
281.8985080312010041
 30
0.0
 40
0.0071203262424781
 50
92.7818367885557791
 51
162.6386318917637936
  0
ARC
  5
28A5B
  8
0
 10
4380.1007860161071221
 20
268.5693143396375149
 30
0.0
 40
48.4278271067300707
 50
15.8247349458115902
 51
16.1752650634216693
  0
ARC
  5
28A5C
  8
0
 10
4426.6099776621913406
 20
282.0561259057499797
 30
0.0
 40
0.0027928910392651
 50
332.0757519558582089
 51
356.9646896927778812
  0
ARC
  5
28A5D
  8
0
 10
4426.7108717784240071
 20
281.9118900018337968
 30
0.0
 40
0.0615649996223635
 50
168.0339330672615006
 51
189.4247733449956002
  0
ARC
  5
28A5E
  8
0
 10
4426.5211224013100946
 20
281.865978088497684
 30
0.0
 40
0.1405050249983825
 50
23.3740702102841311
 51
26.8213334452169896
  0
LINE
  5
28A5F
  8
0
 10
4426.6449590226975488
 20
281.9289301466935171
 30
0.0
 11
4426.6465115974770015
 21
281.9293753402872085
 31
0.0
  0
ARC
  5
28A60
  8
0
 10
4426.643903944766862
 20
281.9327453971235968
 30
0.0
 40
0.0039584498586098
 50
198.4784798653454914
 51
285.4583704003292155
  0
ARC
  5
28A61
  8
0
 10
4426.3698179449966119
 20
281.880661059014983
 30
0.0
 40
0.3951015678656363
 50
359.0853287697672727
 51
36.1873913781968994
  0
ARC
  5
28A62
  8
0
 10
4426.5897078757579948
 20
282.1043581314236235
 30
0.0
 40
0.202401512848927
 50
356.5644978130690106
 51
35.4348281312053004
  0
ARC
  5
28A63
  8
0
 10
4426.7490454578846766
 20
282.1075442766543802
 30
0.0
 40
0.0237796286003554
 50
199.2416369465117896
 51
281.7573814370305172
  0
ARC
  5
28A64
  8
0
 10
4427.3273398536293826
 20
282.3138803132246153
 30
0.0
 40
0.6377815021261981
 50
191.7129254246254959
 51
199.6217319500107124
  0
ARC
  5
28A65
  8
0
 10
4426.726452233816417
 20
282.1861709073352813
 30
0.0
 40
0.0236792886854684
 50
110.1500819228332944
 51
184.2757895447707881
  0
ARC
  5
28A66
  8
0
 10
4426.7300593275676874
 20
282.3667256346338945
 30
0.0
 40
0.0237974875249726
 50
233.8523316559231944
 51
281.3847420075031209
  0
ARC
  5
28A67
  8
0
 10
4426.7317877051882533
 20
282.3687074956225729
 30
0.0
 40
0.026418326470513
 50
202.0144304910523942
 51
233.3608199184969862
  0
ARC
  5
28A68
  8
0
 10
4426.9530411619080041
 20
282.456851590696715
 30
0.0
 40
0.2645828193562647
 50
195.9332123200831006
 51
201.7508420692205107
  0
ARC
  5
28A69
  8
0
 10
4426.8086654909830031
 20
282.454742359777299
 30
0.0
 40
0.1247850833943372
 50
184.8424145070748068
 51
196.3930599236099965
  0
ARC
  5
28A6A
  8
0
 10
4426.7083607763961481
 20
282.4451959221706261
 30
0.0
 40
0.0240552379288766
 50
109.8794924311759047
 51
182.3523898604967997
  0
ARC
  5
28A6B
  8
0
 10
4426.8859368999737853
 20
282.7867401856988749
 30
0.0
 40
0.2281481515366965
 50
196.6122798248846948
 51
201.0166496424049001
  0
ARC
  5
28A6C
  8
0
 10
4426.7101462005493886
 20
282.7177302485694099
 30
0.0
 40
0.039326038185623
 50
199.0148446154161093
 51
220.8955912609727079
  0
ARC
  5
28A6D
  8
0
 10
4426.6983020593661422
 20
282.7083162933298013
 30
0.0
 40
0.0242182611082152
 50
222.4054094341734924
 51
280.154152625651875
  0
ARC
  5
28A6E
  8
0
 10
4426.7879085590548129
 20
282.7907395665599211
 30
0.0
 40
0.1342150640104557
 50
181.9326043083580942
 51
194.9542426032633102
  0
ARC
  5
28A6F
  8
0
 10
4426.6783164737353218
 20
282.786301172454273
 30
0.0
 40
0.0245467926759133
 50
108.9449629733182974
 51
180.2050854219592964
  0
ARC
  5
28A70
  8
0
 10
4426.5512676712987741
 20
282.7120706273261135
 30
0.0
 40
0.1194379359490006
 50
5.0063320602215313
 51
23.9781311594626096
  0
ARC
  5
28A71
  8
0
 10
4426.7793668705980963
 20
282.7710280973352042
 30
0.0
 40
0.1194240748955582
 50
185.0052208987304994
 51
203.9792423209595995
  0
ARC
  5
28A72
  8
0
 10
4426.4612668793206467
 20
282.5090306837183789
 30
0.0
 40
0.2139775270589979
 50
354.6614119622685166
 51
31.3931525009057317
  0
ARC
  5
28A73
  8
0
 10
4426.6347854118721443
 20
282.5053906033882072
 30
0.0
 40
0.0238693920744958
 50
196.1966222622781117
 51
281.3504719996503241
  0
ARC
  5
28A74
  8
0
 10
4428.1921013957889954
 20
282.9844798351122108
 30
0.0
 40
1.653209761645452
 50
194.216889679742394
 51
197.0868340943908947
  0
ARC
  5
28A75
  8
0
 10
4426.6126640017027967
 20
282.58395698878752
 30
0.0
 40
0.0237828160551044
 50
109.9291643436877024
 51
193.3567310380711888
  0
ARC
  5
28A76
  8
0
 10
4426.5538373194740416
 20
282.1501832636548102
 30
0.0
 40
0.004014734342747
 50
41.1611253174542426
 51
103.7854123312169037
  0
ARC
  5
28A77
  8
0
 10
4426.5607875023515589
 20
282.1529168714286016
 30
0.0
 40
0.0033125900244474
 50
215.4169007992869069
 51
246.6603950953262085
  0
ARC
  5
28A78
  8
0
 10
4426.1138168874458643
 20
282.1186789754008259
 30
0.0
 40
0.4467487807400664
 50
4.0042100297723824
 51
24.8741978219912916
  0
ARC
  5
28A79
  8
0
 10
4426.5124563242316071
 20
282.3056930926509835
 30
0.0
 40
0.0067265997439263
 50
296.175633769823321
 51
7.6943634707935598
  0
ARC
  5
28A7A
  8
0
 10
4429.9409443667127562
 20
283.2366752404515751
 30
0.0
 40
3.5607162465604301
 50
194.6397812509200094
 51
195.3108564774965998
  0
ARC
  5
28A7B
  8
0
 10
4426.5002736233409451
 20
282.3327894547857113
 30
0.0
 40
0.0047841473430985
 50
37.5912082474323768
 51
101.1669332850069054
  0
ARC
  5
28A7C
  8
0
 10
4426.4300378680081849
 20
282.6695924092101109
 30
0.0
 40
0.0059762696601395
 50
108.8354400704899945
 51
188.9904192968859888
  0
ARC
  5
28A7D
  8
0
 10
4425.5450331052570618
 20
282.3357165815631902
 30
0.0
 40
0.9330391245315411
 50
9.1737013231864246
 51
16.2479494687450803
  0
ARC
  5
28A7E
  8
0
 10
4426.4345659713417263
 20
282.5959625845384835
 30
0.0
 40
0.0062933339492364
 50
292.829500055656581
 51
7.4257374164163581
  0
ARC
  5
28A7F
  8
0
 10
4426.4635159337613004
 20
282.4916622573990139
 30
0.0
 40
0.0077969190513327
 50
300.9047905580545716
 51
0.3782765559908744
  0
ARC
  5
28A80
  8
0
 10
4425.9596189172953018
 20
282.2956319494941795
 30
0.0
 40
0.5479768022539327
 50
3.9165893523074509
 51
20.9669040200354893
  0
ARC
  5
28A81
  8
0
 10
4426.1520113567612498
 20
282.445851659059997
 30
0.0
 40
0.4476374564409277
 50
354.9575837154068267
 51
27.6741665029160515
  0
ARC
  5
28A82
  8
0
 10
4426.5983680294184524
 20
282.2545014321058829
 30
0.0
 40
0.0837056921666923
 50
348.8982314954504886
 51
4.0606993321739573
  0
ARC
  5
28A83
  8
0
 10
4426.6670902551213658
 20
282.2405612470827236
 30
0.0
 40
0.0135926125716185
 50
313.7412459291804225
 51
350.7815023688385168
  0
ARC
  5
28A84
  8
0
 10
4426.6734853109392134
 20
282.2341795644322247
 30
0.0
 40
0.0045652193737932
 50
227.0172309757197127
 51
311.1308308860213856
  0
ARC
  5
28A85
  8
0
 10
4426.7080248182101059
 20
282.2676920167336903
 30
0.0
 40
0.0526854277670164
 50
199.5101366965463114
 51
224.3849576676998936
  0
ARC
  5
28A86
  8
0
 10
4426.8809428484237287
 20
282.340203087854718
 30
0.0
 40
0.240125677205614
 50
189.2410843327191969
 51
202.0396247015549136
  0
ARC
  5
28A87
  8
0
 10
4426.7871439082409779
 20
282.3300150338159824
 30
0.0
 40
0.1459939235193724
 50
175.7707095632175935
 51
191.2065806148409024
  0
ARC
  5
28A88
  8
0
 10
4426.6686391930397804
 20
282.3378833567236939
 30
0.0
 40
0.0272462591051899
 50
150.8614263200865082
 51
173.8933533572065073
  0
ARC
  5
28A89
  8
0
 10
4426.6505797213558253
 20
282.3480662813980757
 30
0.0
 40
0.0065147827587975
 50
120.9164781633433989
 51
151.7465546157687015
  0
ARC
  5
28A8A
  8
0
 10
4426.6492333489586599
 20
282.349978337687503
 30
0.0
 40
0.0041862100322837
 50
66.5210118812943421
 51
118.5523119967606931
  0
ARC
  5
28A8B
  8
0
 10
4426.6438827716328888
 20
282.3391288615908934
 30
0.0
 40
0.0162796700786471
 50
30.5815411908570596
 51
64.4616320532921634
  0
ARC
  5
28A8C
  8
0
 10
4426.5773413689103108
 20
282.294706380227808
 30
0.0
 40
0.0962662611394144
 50
25.3393864174338503
 51
33.195112578207052
  0
ARC
  5
28A8D
  8
0
 10
4426.4466690507497333
 20
282.2467601473935019
 30
0.0
 40
0.2355480245747016
 50
12.2073471809093803
 51
17.423593903051831
  0
ARC
  5
28A8E
  8
0
 10
4425.4920730623152849
 20
281.9544211339203912
 30
0.0
 40
1.2293812198959611
 50
14.6549248207284695
 51
17.8181720758755517
  0
ARC
  5
28A8F
  8
0
 10
4426.6771002183577366
 20
282.3358861715017269
 30
0.0
 40
0.0155400820655413
 50
163.8428914580943001
 51
199.8537970324310038
  0
ARC
  5
28A90
  8
0
 10
4426.5960954452311853
 20
282.8315928347277008
 30
0.0
 40
0.023768403569366
 50
230.3617594083945903
 51
280.4967907044625122
  0
ARC
  5
28A91
  8
0
 10
4426.5983825027096827
 20
282.8337808904317967
 30
0.0
 40
0.026914879685457
 50
201.874265707439406
 51
229.5839004126042937
  0
ARC
  5
28A92
  8
0
 10
4426.8193793559566984
 20
282.91624847859498
 30
0.0
 40
0.2627899702379117
 50
195.4705482072380107
 51
200.6081142221138123
  0
ARC
  5
28A93
  8
0
 10
4426.9454792237138463
 20
282.9744793155959997
 30
0.0
 40
0.3996544817345114
 50
190.3919760637512866
 51
194.6516251305355922
  0
ARC
  5
28A94
  8
0
 10
4426.5803952269598085
 20
282.9093284612022217
 30
0.0
 40
0.0288615104545563
 50
158.9035499429703009
 51
193.9123453064715079
  0
ARC
  5
28A95
  8
0
 10
4426.5754472848157093
 20
282.9106622897584202
 30
0.0
 40
0.0237711586920192
 50
108.7826131065771023
 51
157.6102440906088873
  0
ARC
  5
28A96
  8
0
 10
4426.5316465919777329
 20
282.8639643236726897
 30
0.0
 40
0.0236395665247084
 50
225.9688891091819869
 51
281.2888160773447908
  0
ARC
  5
28A97
  8
0
 10
4426.5348083059816418
 20
282.8664078009310856
 30
0.0
 40
0.0275998672312646
 50
192.1719076452694992
 51
224.7755133917785031
  0
ARC
  5
28A98
  8
0
 10
4425.5075208549505987
 20
282.5812606382280023
 30
0.0
 40
1.0385760617716651
 50
15.6019569304602399
 51
16.8017033529466886
  0
ARC
  5
28A99
  8
0
 10
4426.9718900940733874
 20
282.8779708640635135
 30
0.0
 40
0.472790715325365
 50
179.8842347331265898
 51
185.7390684402269869
  0
ARC
  5
28A9A
  8
0
 10
4427.2220839056280965
 20
282.8953109340184255
 30
0.0
 40
0.723506113868038
 50
185.124069998012601
 51
189.582751351205502
  0
ARC
  5
28A9B
  8
0
 10
4426.7540192028936872
 20
282.8142026146774128
 30
0.0
 40
0.2484789506443191
 50
189.1084476946219866
 51
195.6709599418630887
  0
ARC
  5
28A9C
  8
0
 10
4426.5598321642200972
 20
282.7599584625290277
 30
0.0
 40
0.0468585976448204
 50
195.945479418247686
 51
203.3213580099686055
  0
ARC
  5
28A9D
  8
0
 10
4426.5253271114306699
 20
282.7449288999587793
 30
0.0
 40
0.0092237109550745
 50
202.4423583013069958
 51
219.1359067570421928
  0
ARC
  5
28A9E
  8
0
 10
4426.5196747379759472
 20
282.740371279025112
 30
0.0
 40
0.0019631125388836
 50
220.0827548765751942
 51
245.6382483538424992
  0
ARC
  5
28A9F
  8
0
 10
4426.5191703597029118
 20
282.7393227634931918
 30
0.0
 40
0.0008003575871415
 50
247.5685618561761885
 51
310.9475810935655886
  0
ARC
  5
28AA0
  8
0
 10
4426.5177724651011886
 20
282.740796718509273
 30
0.0
 40
0.0028312119566853
 50
312.7663940638682902
 51
342.4619643829780102
  0
ARC
  5
28AA1
  8
0
 10
4426.4966000185650046
 20
282.7475670869919213
 30
0.0
 40
0.0250597912259229
 50
342.2891575018870185
 51
354.9179527483340166
  0
ARC
  5
28AA2
  8
0
 10
4426.3204891525274434
 20
282.7603985979956747
 30
0.0
 40
0.2016346959013546
 50
355.7190778396097812
 51
2.4540422138556641
  0
ARC
  5
28AA3
  8
0
 10
4425.7025308947786471
 20
282.7375339187556165
 30
0.0
 40
0.8200132099515194
 50
2.2013822144307671
 51
7.6698273383881483
  0
LINE
  5
28AA4
  8
0
 10
4426.49176557699775
 20
282.9178777491932237
 30
0.0
 11
4426.4865477166067649
 21
282.9389114243093104
 31
0.0
  0
ARC
  5
28AA5
  8
0
 10
4426.5098967209933107
 20
282.9429528216738277
 30
0.0
 40
0.0236961789849553
 50
109.5846700117701999
 51
189.8198331978717874
  0
ARC
  5
28AA6
  8
0
 10
4425.3525617652339861
 20
282.7382043371123927
 30
0.0
 40
1.136449239388708
 50
0.7879990002358473
 51
13.6357704674231606
  0
ARC
  5
28AA7
  8
0
 10
4426.4498336938186185
 20
283.1487473436167761
 30
0.0
 40
0.0236618687791318
 50
200.913655275335401
 51
281.045193705950112
  0
ARC
  5
28AA8
  8
0
 10
4426.9864294648659779
 20
283.3585841986027845
 30
0.0
 40
0.5968402824492385
 50
193.1182256185371955
 51
195.3335440286352878
  0
ARC
  5
28AA9
  8
0
 10
4426.4283690807060339
 20
283.2278140793440002
 30
0.0
 40
0.0236737468163642
 50
109.343859275949896
 51
191.4250034965627947
  0
ARC
  5
28AAA
  8
0
 10
4426.5503789430749748
 20
283.2203870600425262
 30
0.0
 40
0.024005590590544
 50
222.1009420042481963
 51
278.8648433310963242
  0
ARC
  5
28AAB
  8
0
 10
4426.5833642177603906
 20
283.2413645821326895
 30
0.0
 40
0.0628856968261853
 50
190.9926206448971016
 51
216.1223057528191021
  0
ARC
  5
28AAC
  8
0
 10
4426.6605875939212638
 20
283.3064836731721812
 30
0.0
 40
0.1530338519066319
 50
183.7316553337383027
 51
192.5189617338332084
  0
ARC
  5
28AAD
  8
0
 10
4426.536503766324131
 20
283.2981252862037991
 30
0.0
 40
0.0286703343017791
 50
157.7322001279113977
 51
183.2023847024838119
  0
ARC
  5
28AAE
  8
0
 10
4426.5320967336720059
 20
283.2995003691964939
 30
0.0
 40
0.0240741781232327
 50
126.3244480993080998
 51
156.786237049536112
  0
ARC
  5
28AAF
  8
0
 10
4426.5319403329658599
 20
283.2996898692443892
 30
0.0
 40
0.0238288614743333
 50
107.1654974385816956
 51
126.2913708877287036
  0
ARC
  5
28AB0
  8
0
 10
4426.3839793588977045
 20
283.2234989659796724
 30
0.0
 40
0.1391738783614088
 50
4.925178982992894
 51
21.1871886139026699
  0
ARC
  5
28AB1
  8
0
 10
4426.6545090265926774
 20
283.2862351430866283
 30
0.0
 40
0.1413116151196336
 50
185.0489967917307865
 51
201.0633708051670965
  0
ARC
  5
28AB2
  8
0
 10
4426.5161414791919015
 20
283.2115476146723267
 30
0.0
 40
0.0027407050712763
 50
288.4465373238135157
 51
339.9397947604763885
  0
ARC
  5
28AB3
  8
0
 10
4426.4905090536167336
 20
283.221313744950578
 30
0.0
 40
0.0301703481115521
 50
339.2152116802070054
 51
356.4375861742726102
  0
ARC
  5
28AB4
  8
0
 10
4426.4821399195943741
 20
283.2269913169930078
 30
0.0
 40
0.0236950665204421
 50
245.501153091094011
 51
279.7575515329211271
  0
ARC
  5
28AB5
  8
0
 10
4426.482367496140796
 20
283.2273487562197261
 30
0.0
 40
0.0241147674950821
 50
209.6441104180655088
 51
245.3612879906538069
  0
ARC
  5
28AB6
  8
0
 10
4426.596776109379789
 20
283.275959628181397
 30
0.0
 40
0.1482873540114671
 50
190.9735670914149068
 51
204.0949463983984913
  0
ARC
  5
28AB7
  8
0
 10
4426.5972285737780112
 20
283.3217144719037037
 30
0.0
 40
0.1593490496096449
 50
186.0842633931096088
 51
194.1695675966687986
  0
ARC
  5
28AB8
  8
0
 10
4426.4631318293404547
 20
283.3061624106330214
 30
0.0
 40
0.0243914051008509
 50
148.6259587853193977
 51
183.1433809828278072
  0
ARC
  5
28AB9
  8
0
 10
4426.462501105433148
 20
283.3064745188038955
 30
0.0
 40
0.0236904915851385
 50
107.9950820289195974
 51
148.476263588699112
  0
ARC
  5
28ABA
  8
0
 10
4426.4812734609622566
 20
283.3264161514583748
 30
0.0
 40
0.0251840290488218
 50
17.840820139750889
 51
39.9364490602892133
  0
ARC
  5
28ABB
  8
0
 10
4426.4991699701031393
 20
283.341274247195372
 30
0.0
 40
0.0019261756170465
 50
42.7900524529184381
 51
103.1391129619246954
  0
ARC
  5
28ABC
  8
0
 10
4426.3973432339362262
 20
283.3317516112570047
 30
0.0
 40
0.0238284650675416
 50
191.6450052452165949
 51
280.7288627126438882
  0
ARC
  5
28ABD
  8
0
 10
4426.3993479894988923
 20
283.5142838040425772
 30
0.0
 40
0.0236553463785702
 50
238.1084981417656934
 51
279.2088267609232162
  0
ARC
  5
28ABE
  8
0
 10
4426.3996345055857091
 20
283.5146227890916748
 30
0.0
 40
0.0240946171263287
 50
202.3250239792162972
 51
237.9558895103367888
  0
ARC
  5
28ABF
  8
0
 10
4426.4331907126106671
 20
283.527598667395182
 30
0.0
 40
0.0600692020372883
 50
195.0735672607158051
 51
201.6159187641117967
  0
ARC
  5
28AC0
  8
0
 10
4426.9654149387743018
 20
283.7038628529763855
 30
0.0
 40
0.6190450069578214
 50
190.9624412895965122
 51
192.9004355509320021
  0
ARC
  5
28AC1
  8
0
 10
4426.3882857186154069
 20
283.5933814905720851
 30
0.0
 40
0.0314637106906656
 50
169.6428513421680861
 51
193.302632905111011
  0
ARC
  5
28AC2
  8
0
 10
4426.3805116659041232
 20
283.593984262783124
 30
0.0
 40
0.0237216108660753
 50
134.4168509006298962
 51
167.6988642920655082
  0
ARC
  5
28AC3
  8
0
 10
4426.3804582209422733
 20
283.5940269172734247
 30
0.0
 40
0.0236537409311725
 50
107.443475051449596
 51
134.3966946452181901
  0
ARC
  5
28AC4
  8
0
 10
4426.4329987861137852
 20
283.6267456722044926
 30
0.0
 40
0.023793937836287
 50
233.1116957874164939
 51
277.8137497068485118
  0
ARC
  5
28AC5
  8
0
 10
4426.4396356441748139
 20
283.6326526419899778
 30
0.0
 40
0.032549948108227
 50
189.423797941593989
 51
230.0077390574234073
  0
ARC
  5
28AC6
  8
0
 10
4426.4160732313930566
 20
283.7066630774285727
 30
0.0
 40
0.0237673613054281
 50
106.0712222810919059
 51
140.6232618519943003
  0
ARC
  5
28AC7
  8
0
 10
4426.4166631535790657
 20
283.7062849095120782
 30
0.0
 40
0.0244634192400442
 50
140.8151646117657094
 51
175.9939319673108002
  0
ARC
  5
28AC8
  8
0
 10
4426.4497101842398479
 20
283.7053853514227058
 30
0.0
 40
0.0575098709144927
 50
177.4001945841089025
 51
190.2770578471408101
  0
ARC
  5
28AC9
  8
0
 10
4427.0876264273892957
 20
283.806016836647018
 30
0.0
 40
0.7033008077146055
 50
189.0718687042754027
 51
193.4421867468954019
  0
ARC
  5
28ACA
  8
0
 10
4426.214761069776614
 20
283.6223020462908835
 30
0.0
 40
0.1918271023583334
 50
6.0574045355806208
 51
17.8372100922039287
  0
ARC
  5
28ACB
  8
0
 10
4426.5879211264318656
 20
283.7012610491826763
 30
0.0
 40
0.1916216070828038
 50
186.0510658158436001
 51
197.8435488119320098
  0
LINE
  5
28ACC
  8
0
 10
4426.314582190298097
 20
283.7382458210934146
 30
0.0
 11
4426.3329502022979796
 21
283.6592789799934167
 31
0.0
  0
ARC
  5
28ACD
  8
0
 10
4426.3377546547380916
 20
283.7448521466454281
 30
0.0
 40
0.0240957806584359
 50
107.8820001147853986
 51
195.9125215206790926
  0
ARC
  5
28ACE
  8
0
 10
4426.3558310807929956
 20
283.6653689225906874
 30
0.0
 40
0.0236774576664921
 50
194.9042363094069117
 51
278.8806796196354867
  0
ARC
  5
28ACF
  8
0
 10
4425.2211598252079057
 20
283.6250966471548054
 30
0.0
 40
1.1667071713485611
 50
1.046324682319528
 51
7.6993269262250914
  0
ARC
  5
28AD0
  8
0
 10
4426.357634856803088
 20
283.8876668255446134
 30
0.0
 40
0.023672596244803
 50
228.2590597576256073
 51
277.1311484888390169
  0
ARC
  5
28AD1
  8
0
 10
4426.3586425205594423
 20
283.8885364224648242
 30
0.0
 40
0.0249929212394183
 50
196.4215311780814091
 51
227.8626064879119042
  0
ARC
  5
28AD2
  8
0
 10
4426.3433798810638109
 20
283.967443090308393
 30
0.0
 40
0.0254605971901982
 50
154.8285486247835081
 51
188.4354430179363078
  0
ARC
  5
28AD3
  8
0
 10
4426.3416627567321484
 20
283.968002578086498
 30
0.0
 40
0.02366962629574
 50
105.3524456323222012
 51
154.2863560210930984
  0
ARC
  5
28AD4
  8
0
 10
4426.773058658127411
 20
264.8741937709601189
 30
0.0
 40
0.0198102910333787
 50
181.9690824491138983
 51
269.6261404198356786
  0
ARC
  5
28AD5
  8
0
 10
4427.5224337594436292
 20
264.8741937707808916
 30
0.0
 40
0.0198102908536708
 50
270.3738593705203925
 51
358.030918051695096
  0
ARC
  5
28AD6
  8
0
 10
4429.3605471066512109
 20
271.565622684563607
 30
0.0
 40
3.7906650316838189
 50
91.1454883229542361
 51
94.469128623804437
  0
LINE
  5
28AD7
  8
0
 10
4428.8050575095767272
 20
275.4023829524883809
 30
0.0
 11
4428.8329230422987166
 21
275.4244055343414743
 31
0.0
  0
ARC
  5
28AD8
  8
0
 10
4426.3073492216135492
 20
283.2338020022822889
 30
0.0
 40
0.2137549743664605
 50
356.1472008715645075
 51
359.3345031061354007
  0
ARC
  5
28AD9
  8
0
 10
2651.9144448878510048
 20
268.782251572797918
 30
0.0
 40
1776.7306822587370334
 50
359.521900395844682
 51
0.1693058566090348
  0
ARC
  5
28ADA
  8
0
 10
4414.378438153161369
 20
254.0812652372761136
 30
0.0
 40
14.2053797649051692
 50
349.6801247605687877
 51
359.497373664103975
  0
ARC
  5
28ADB
  8
0
 10
4426.1420719969919446
 20
251.9922813000002861
 30
0.0
 40
2.2584219338093221
 50
335.1078738536676269
 51
348.3560006088301861
  0
ARC
  5
28ADC
  8
0
 10
4427.8063508818613627
 20
251.1332907556316911
 30
0.0
 40
0.3627096344670577
 50
222.2875144110498127
 51
295.2751128464768158
  0
ARC
  5
28ADD
  8
0
 10
4428.235625738428098
 20
251.5030488528869057
 30
0.0
 40
0.9291958020328343
 50
191.9163982187590136
 51
221.3440883132417127
  0
ARC
  5
28ADE
  8
0
 10
4434.6634469699047258
 20
253.3044755988480006
 30
0.0
 40
7.6029384072599102
 50
186.3481638437000072
 51
195.1990851430425948
  0
ARC
  5
28ADF
  8
0
 10
4462.418595417013421
 20
256.4979576023516756
 30
0.0
 40
35.5411601349045227
 50
181.2368497115566015
 51
186.5174650726858943
  0
ARC
  5
28AE0
  8
0
 10
4599.6615380720832036
 20
259.4471499472157916
 30
0.0
 40
172.8157863559762859
 50
179.3136055735396042
 51
181.2322274122745114
  0
ARC
  5
28AE1
  8
0
 10
4094.2280113487049675
 20
263.6006266451963143
 30
0.0
 40
332.6366645967369777
 50
359.6411685096306883
 51
0.2159568594288174
  0
ARC
  5
28AE2
  8
0
 10
5096.7534245029737576
 20
259.6787160000981203
 30
0.0
 40
669.3329505109611546
 50
179.5569516158305987
 51
180.2046241454465871
  0
ARC
  5
28AE3
  8
0
 10
13414.9986803957708617
 20
264.2681344483721091
 30
0.0
 40
8986.9302599184902647
 50
179.937748438487688
 51
180.0273597335090869
  0
ARC
  5
28AE4
  8
0
 10
4041.9001007202850815
 20
260.8277672744258098
 30
0.0
 40
386.1702821485362165
 50
358.9423599500855744
 51
359.8737305009776151
  0
ARC
  5
28AE5
  8
0
 10
4427.9721877963165753
 20
252.2030749705596975
 30
0.0
 40
0.5025586921698157
 50
201.4176664161383883
 51
251.3068524012178955
  0
ARC
  5
28AE6
  8
0
 10
4432.6513954376523543
 20
253.7892481197168877
 30
0.0
 40
5.4427971079647914
 50
183.3827877342195052
 51
198.9742614648370989
  0
ARC
  5
28AE7
  8
0
 10
4440.7065512915896761
 20
254.7102473436322896
 30
0.0
 40
13.5455442083362101
 50
170.2527592094234876
 51
185.2615552893390998
  0
ARC
  5
28AE8
  8
0
 10
4429.3078341953250856
 20
256.6867689978279827
 30
0.0
 40
1.976830849774486
 50
152.6742665945724013
 51
170.779194657706995
  0
ARC
  5
28AE9
  8
0
 10
4427.884473447498749
 20
257.4165587457504216
 30
0.0
 40
0.3773259603964909
 50
86.1233284256796452
 51
151.9091735319474878
  0
ARC
  5
28AEA
  8
0
 10
4427.8448088709374133
 20
257.3107762539507917
 30
0.0
 40
0.4866293625960651
 50
64.0039191784948258
 51
82.3031340128498385
  0
ARC
  5
28AEB
  8
0
 10
4440.3300539715673949
 20
254.6657750390230888
 30
0.0
 40
12.5955707601406903
 50
181.0205742794902903
 51
188.2684709544465136
  0
ARC
  5
28AEC
  8
0
 10
4438.0872728166514207
 20
254.7828754139210901
 30
0.0
 40
10.3564216599882108
 50
172.8375074682163017
 51
181.8893532563243127
  0
ARC
  5
28AED
  8
0
 10
4438.8521413655198558
 20
255.1644407458655053
 30
0.0
 40
11.0778900273774195
 50
172.0488191077440945
 51
175.2895883414715001
  0
ARC
  5
28AEE
  8
0
 10
4417.6728293280502839
 20
255.1144204206528059
 30
0.0
 40
10.32984544914307
 50
3.0722922118377838
 51
8.8117695952506132
  0
ARC
  5
28AEF
  8
0
 10
4401.5138798666193907
 20
255.3896541508129019
 30
0.0
 40
26.4754117092791716
 50
355.9595809495918957
 51
0.6025084901424913
  0
ARC
  5
28AF0
  8
0
 10
4412.8598848123274365
 20
254.4928740136207068
 30
0.0
 40
15.0947185539847304
 50
353.7684273233455201
 51
356.3205959305764168
  0
ARC
  5
28AF2
  8
0
 10
4426.7032588405172646
 20
266.283573883502072
 30
0.0
 40
0.0079351552534272
 50
90.4302253322317853
 51
182.7555029554727071
  0
ARC
  5
28AF3
  8
0
 10
4427.5922335771183498
 20
266.28357388371262
 30
0.0
 40
0.0079351550192957
 50
357.2444961640612746
 51
89.5697973260295868
  0
LINE
  5
28AF4
  8
0
 10
4426.7031992601978345
 20
266.2915088150534189
 30
0.0
 11
4427.5922931572949892
 21
266.2915088150534189
 31
0.0
  0
LINE
  5
28AF5
  8
0
 10
4429.4179194317975998
 20
266.1576505473533985
 30
0.0
 11
4429.229439122097574
 21
266.1576505473533985
 31
0.0
  0
ARC
  5
28AF6
  8
0
 10
4429.229439122097574
 20
266.2167056654535031
 30
0.0
 40
0.0590551181000025
 50
180.0000000000015916
 51
270.0
  0
LINE
  5
28AF7
  8
0
 10
4429.1703840039981515
 20
266.2167056654533894
 30
0.0
 11
4429.1703840039981515
 21
266.6005639332033752
 31
0.0
  0
LINE
  5
28AF8
  8
0
 10
4429.1703840039981515
 20
267.8800914923033929
 30
0.0
 11
4429.1703840039981515
 21
268.2639497599533911
 31
0.0
  0
LINE
  5
28AF9
  8
0
 10
4429.4179194317975998
 20
268.3230048780533821
 30
0.0
 11
4429.229439122097574
 21
268.3230048780533821
 31
0.0
  0
ARC
  5
28AFA
  8
0
 10
4429.229439122097574
 20
268.2639497599533911
 30
0.0
 40
0.0590551181000052
 50
90.0
 51
180.0000000000015916
  0
ARC
  5
28AFB
  8
0
 10
4427.4026164594897637
 20
283.0344222883169891
 30
0.0
 40
16.4732320253302618
 50
270.03783416448249
 51
272.3174035743547847
  0
LINE
  5
28AFC
  8
0
 10
4426.7352265236986568
 20
266.2915088150534189
 30
0.0
 11
4426.7352265236986568
 21
266.3033198386534082
 31
0.0
  0
LINE
  5
28AFD
  8
0
 10
4427.5602658937987144
 20
266.2915088150534189
 30
0.0
 11
4427.5602658937987144
 21
266.3033198386534082
 31
0.0
  0
LINE
  5
28AFE
  8
0
 10
4427.6054233740978816
 20
266.3033198386534082
 30
0.0
 11
4426.6802265236983658
 21
266.3033198386534082
 31
0.0
  0
LINE
  5
28AFF
  8
0
 10
4426.6802265236983658
 20
266.3033198386534082
 30
0.0
 11
4426.6802265236983658
 21
266.5918595197438208
 31
0.0
  0
LINE
  5
28B00
  8
0
 10
4427.6054233740978816
 20
266.3033198386534082
 30
0.0
 11
4427.6103446338984213
 21
266.5625000457272904
 31
0.0
  0
LINE
  5
28B01
  8
0
 10
4430.6580769173979206
 20
266.1576510254192272
 30
0.0
 11
4429.4769745551993765
 21
266.1576505473533985
 31
0.0
  0
ARC
  5
28B02
  8
0
 10
4429.4774582283425843
 20
266.2181292512635764
 30
0.0
 40
0.0604806379461377
 50
190.1247322105446926
 51
269.5417917830731085
  0
LINE
  5
28B03
  8
0
 10
4430.6580769173979206
 20
268.3230048780533821
 30
0.0
 11
4429.4769745551993765
 21
268.3230048780533821
 31
0.0
  0
ARC
  5
28B04
  8
0
 10
4429.4780826514952423
 20
268.2603336752936798
 30
0.0
 40
0.0626809981792169
 50
91.0129473100334678
 51
163.7054265554349968
  0
ARC
  5
28B05
  8
0
 10
4427.7591574465677695
 20
251.2310343343023931
 30
0.0
 40
0.4712469271889518
 50
295.3896953326794232
 51
336.3091120059614241
  0
ARC
  5
28B06
  8
0
 10
4410.0338428160730473
 20
254.2912388574445117
 30
0.0
 40
17.9804808376692513
 50
353.9899559316640989
 51
358.1148120103866859
  0
ARC
  5
28B07
  8
0
 10
4420.4701651834830045
 20
253.199972330012514
 30
0.0
 40
7.4872661669651599
 50
348.6543880020182087
 51
353.9329930174852734
  0
ENDSEC
  0
EOF
