  0
SECTION
  2
HEADER
  9
$ACADVER
  1
AC1009
  9
$INSBASE
 10
4179.2655722004310519
 20
215.1328262942678862
 30
0.0
  9
$EXTMIN
 10
4172.5243531331307167
 20
203.1793130505587044
 30
0.0
  9
$EXTMAX
 10
4190.8789366953678837
 20
243.1458137871867109
 30
0.0
  9
$LIMMIN
 10
0.0
 20
0.0
  9
$LIMMAX
 10
11.6929133858000007
 20
8.2677165353999982
  9
$ORTHOMODE
 70
     0
  9
$REGENMODE
 70
     1
  9
$FILLMODE
 70
     1
  9
$QTEXTMODE
 70
     0
  9
$MIRRTEXT
 70
     0
  9
$DRAGMODE
 70
     2
  9
$LTSCALE
 40
0.6431102362
  9
$OSMODE
 70
  3839
  9
$ATTMODE
 70
     1
  9
$TEXTSIZE
 40
0.2
  9
$TRACEWID
 40
0.05
  9
$TEXTSTYLE
  7
STANDARD
  9
$CLAYER
  8
0
  9
$CELTYPE
  6
BYLAYER
  9
$CECOLOR
 62
   256
  9
$DIMSCALE
 40
1.0
  9
$DIMASZ
 40
0.1875
  9
$DIMEXO
 40
0.0625
  9
$DIMDLI
 40
0.4443307087
  9
$DIMRND
 40
0.0
  9
$DIMDLE
 40
0.0
  9
$DIMEXE
 40
0.125
  9
$DIMTP
 40
0.01
  9
$DIMTM
 40
0.01
  9
$DIMTXT
 40
2.0
  9
$DIMCEN
 40
0.1052362205
  9
$DIMTSZ
 40
0.0
  9
$DIMTOL
 70
     1
  9
$DIMLIM
 70
     0
  9
$DIMTIH
 70
     1
  9
$DIMTOH
 70
     1
  9
$DIMSE1
 70
     0
  9
$DIMSE2
 70
     0
  9
$DIMTAD
 70
     0
  9
$DIMZIN
 70
     0
  9
$DIMBLK
  1

  9
$DIMASO
 70
     1
  9
$DIMSHO
 70
     1
  9
$DIMPOST
  1
\X
  9
$DIMAPOST
  1

  9
$DIMALT
 70
     1
  9
$DIMALTD
 70
     2
  9
$DIMALTF
 40
25.3999999999999986
  9
$DIMLFAC
 40
1.0
  9
$DIMTOFL
 70
     0
  9
$DIMTVP
 40
0.0
  9
$DIMTIX
 70
     0
  9
$DIMSOXD
 70
     0
  9
$DIMSAH
 70
     0
  9
$DIMBLK1
  1

  9
$DIMBLK2
  1

  9
$DIMSTYLE
  2
STANDARD
  9
$DIMCLRD
 70
     0
  9
$DIMCLRE
 70
     0
  9
$DIMCLRT
 70
     0
  9
$DIMTFAC
 40
1.0
  9
$DIMGAP
 40
0.09
  9
$LUNITS
 70
     2
  9
$LUPREC
 70
     4
  9
$SKETCHINC
 40
0.1
  9
$FILLETRAD
 40
0.0
  9
$AUNITS
 70
     0
  9
$AUPREC
 70
     0
  9
$MENU
  1
.
  9
$ELEVATION
 40
0.0
  9
$PELEVATION
 40
0.0
  9
$THICKNESS
 40
0.0
  9
$LIMCHECK
 70
     0
  9
$BLIPMODE
 70
     0
  9
$CHAMFERA
 40
0.0
  9
$CHAMFERB
 40
0.0
  9
$SKPOLY
 70
     0
  9
$TDCREATE
 40
2458060.468368056230247
  9
$TDUPDATE
 40
2459118.7561111110262573
  9
$TDINDWG
 40
0.6044399306
  9
$TDUSRTIMER
 40
0.6044399306
  9
$USRTIMER
 70
     1
  9
$ANGBASE
 50
0.0
  9
$ANGDIR
 70
     0
  9
$PDMODE
 70
     0
  9
$PDSIZE
 40
0.3125
  9
$PLINEWID
 40
0.0
  9
$COORDS
 70
     1
  9
$SPLFRAME
 70
     0
  9
$SPLINETYPE
 70
     6
  9
$SPLINESEGS
 70
     8
  9
$ATTDIA
 70
     1
  9
$ATTREQ
 70
     1
  9
$HANDLING
 70
     1
  9
$HANDSEED
  5
E25D
  9
$SURFTAB1
 70
     6
  9
$SURFTAB2
 70
     6
  9
$SURFTYPE
 70
     6
  9
$SURFU
 70
     6
  9
$SURFV
 70
     6
  9
$UCSNAME
  2

  9
$UCSORG
 10
0.0
 20
0.0
 30
0.0
  9
$UCSXDIR
 10
1.0
 20
0.0
 30
0.0
  9
$UCSYDIR
 10
0.0
 20
1.0
 30
0.0
  9
$PUCSNAME
  2

  9
$PUCSORG
 10
0.0
 20
0.0
 30
0.0
  9
$PUCSXDIR
 10
1.0
 20
0.0
 30
0.0
  9
$PUCSYDIR
 10
0.0
 20
1.0
 30
0.0
  9
$USERI1
 70
     0
  9
$USERI2
 70
     0
  9
$USERI3
 70
     0
  9
$USERI4
 70
     0
  9
$USERI5
 70
     0
  9
$USERR1
 40
0.0
  9
$USERR2
 40
0.0
  9
$USERR3
 40
0.0
  9
$USERR4
 40
0.0
  9
$USERR5
 40
0.0
  9
$WORLDVIEW
 70
     1
  9
$SHADEDGE
 70
     3
  9
$SHADEDIF
 70
    70
  9
$TILEMODE
 70
     1
  9
$MAXACTVP
 70
    64
  9
$PLIMCHECK
 70
     0
  9
$PEXTMIN
 10
1.0000000000000000E+20
 20
1.0000000000000000E+20
 30
1.0000000000000000E+20
  9
$PEXTMAX
 10
-1.0000000000000000E+20
 20
-1.0000000000000000E+20
 30
-1.0000000000000000E+20
  9
$PLIMMIN
 10
0.0
 20
0.0
  9
$PLIMMAX
 10
12.0
 20
9.0
  9
$UNITMODE
 70
     0
  9
$VISRETAIN
 70
     1
  9
$PLINEGEN
 70
     0
  9
$PSLTSCALE
 70
     1
  0
ENDSEC
  0
SECTION
  2
TABLES
  0
TABLE
  2
VPORT
 70
     1
  0
VPORT
  2
*ACTIVE
 70
     0
 10
0.0
 20
0.0
 11
1.0
 21
1.0
 12
0.0
 22
0.0
 13
0.0
 23
0.0
 14
1.0
 24
1.0
 15
0.0
 25
0.0
 16
0.0
 26
0.0
 36
182.5565508256966041
 17
4181.701904296875
 27
223.1590881347655966
 37
0.0
 40
43.9731307864539573
 41
3.3143418467583499
 42
50.0
 43
0.0
 44
0.0
 50
0.0
 51
0.0
 71
     0
 72
   100
 73
     1
 74
     1
 75
     0
 76
     0
 77
     0
 78
     0
  0
ENDTAB
  0
TABLE
  2
LTYPE
 70
     2
  0
LTYPE
  2
CONTINUOUS
 70
     0
  3
Solid line
 72
    65
 73
     0
 40
0.0
  0
LTYPE
  2
PHANTOM2
 70
     0
  3
___ _ _ ___ _ _ ___ _ _ ___ _ _
 72
    65
 73
     6
 40
1.25
 49
0.625
 49
-0.125
 49
0.125
 49
-0.125
 49
0.125
 49
-0.125
  0
ENDTAB
  0
TABLE
  2
LAYER
 70
     2
  0
LAYER
  2
0
 70
     0
 62
   255
  6
CONTINUOUS
  0
LAYER
  2
DEFPOINTS
 70
     0
 62
     7
  6
CONTINUOUS
  0
ENDTAB
  0
TABLE
  2
STYLE
 70
     1
  0
STYLE
  2
STANDARD
 70
     0
 40
0.0
 41
0.8
 50
0.0
 71
     0
 42
0.2
  3
txt
  4

  0
ENDTAB
  0
TABLE
  2
VIEW
 70
     0
  0
ENDTAB
  0
TABLE
  2
UCS
 70
     0
  0
ENDTAB
  0
TABLE
  2
APPID
 70
     9
  0
APPID
  2
ACAD
 70
     0
  0
APPID
  2
ACAD_MLEADERVER
 70
     0
  0
APPID
  2
ACAD_EXEMPT_FROM_CAD_STANDARDS
 70
     0
  0
APPID
  2
ACAD_NAV_VCDISPLAY
 70
     0
  0
APPID
  2
ACAECLAYERSTANDARD
 70
     0
  0
APPID
  2
ACCMTRANSPARENCY
 70
     0
  0
APPID
  2
ACAD_DSTYLE_DIMJAG
 70
     0
  0
APPID
  2
ACAD_DSTYLE_DIMTALN
 70
     0
  0
APPID
  2
ACDBATTR
 70
     0
  0
ENDTAB
  0
TABLE
  2
DIMSTYLE
 70
     1
  0
DIMSTYLE
  2
STANDARD
 70
     0
  3

  4

  5

  6

  7

 40
1.0
 41
0.1875
 42
0.0625
 43
0.38
 44
0.125
 45
0.0
 46
0.0
 47
0.01
 48
0.01
140
0.15625
141
0.09
142
0.0
143
25.3999999999999986
144
1.0
145
0.0
146
1.0
147
0.09
 71
     1
 72
     0
 73
     1
 74
     1
 75
     0
 76
     0
 77
     0
 78
     4
170
     0
171
     2
172
     0
173
     0
174
     0
175
     0
176
     0
177
     0
178
     0
  0
ENDTAB
  0
ENDSEC
  0
SECTION
  2
BLOCKS
  0
BLOCK
  8
0
  2
$MODEL_SPACE
 70
     0
 10
0.0
 20
0.0
 30
0.0
  3
$MODEL_SPACE
  1

  0
ENDBLK
  5
21
  8
0
  0
BLOCK
 67
     1
  8
0
  2
$PAPER_SPACE
 70
     0
 10
0.0
 20
0.0
 30
0.0
  3
$PAPER_SPACE
  1

  0
ENDBLK
  5
1D
 67
     1
  8
0
  0
BLOCK
  8
0
  2
_FILLED
 70
     0
 10
0.0
 20
0.0
 30
0.0
  3
_FILLED
  1

  0
SOLID
  5
6F59
  8
0
  6
BYBLOCK
 62
     0
 10
0.0
 20
0.0
 30
0.0
 11
-1.0
 21
0.1666666667
 31
0.0
 12
-1.0
 22
-0.1666666667
 32
0.0
 13
-1.0
 23
-0.1666666667
 33
0.0
  0
ENDBLK
  5
6F5A
  8
0
  6
BYBLOCK
 62
     0
  0
ENDSEC
  0
SECTION
  2
ENTITIES
  0
ATTDEF
  5
3930
  8
DEFPOINTS
 10
4179.2657507012327187
 20
215.1313866029983046
 30
0.0
 40
0.001
  1
K-72654T-4M
  3

  2
MODELNUMBER
 70
     0
1001
ACDBATTR
1070
     0
1070
     1
  0
ATTDEF
  5
3931
  8
DEFPOINTS
 10
4179.2657507012327187
 20
215.1297199363316111
 30
0.0
 40
0.001
  1
FINIAL
  3

  2
TRADENAME
 70
     0
1001
ACDBATTR
1070
     0
1070
     1
  0
ATTDEF
  5
3932
  8
DEFPOINTS
 10
4179.2657507012327187
 20
215.1280532696650027
 30
0.0
 40
0.001
  1
BATH AND SHOWER FAUCET
  3

  2
PRODUCT
 70
     0
1001
ACDBATTR
1070
     0
1070
     1
  0
ARC
  5
D888
  8
0
 10
4189.2285172741230781
 20
240.8750671037959989
 30
0.0
 40
1.6504609106862129
 50
0.4062606031087292
 51
20.522851082860349
  0
ARC
  5
D889
  8
0
 10
4189.1047068052266695
 20
240.898001625090302
 30
0.0
 40
1.774265441902416
 50
312.9209016605286138
 51
359.637289927430686
  0
ARC
  5
D88A
  8
0
 10
4188.5421055324923145
 20
240.1334362112322083
 30
0.0
 40
2.4148958986006068
 50
56.874667445936872
 51
77.9211978232608118
  0
ARC
  5
D88B
  8
0
 10
4188.8529366948932875
 20
240.590269299159587
 30
0.0
 40
1.8624785417684779
 50
28.0144810021389787
 51
57.2028318974541179
  0
ARC
  5
D88C
  8
0
 10
4189.1933017234905492
 20
240.7811678836264093
 30
0.0
 40
1.4723558868678699
 50
352.7363131247589081
 51
27.677358648865571
  0
ARC
  5
D88D
  8
0
 10
4188.9687470315857354
 20
240.8615877318414107
 30
0.0
 40
1.7060503807259111
 50
302.9481880641760085
 51
351.010422796392902
  0
ARC
  5
D88E
  8
0
 10
4188.5490399815562341
 20
240.1406574547852983
 30
0.0
 40
2.4218215753272472
 50
56.4926441133786525
 51
76.7684699477432133
  0
ARC
  5
D88F
  8
0
 10
4188.9616672764586838
 20
240.6980522952542003
 30
0.0
 40
1.729650951946285
 50
17.0353286671630109
 51
57.6967934810530281
  0
ARC
  5
D890
  8
0
 10
4189.254812928694264
 20
240.7656474722473945
 30
0.0
 40
1.4297224420857939
 50
331.2935362727058077
 51
17.8869863918215906
  0
ARC
  5
D891
  8
0
 10
4188.7659073722215908
 20
241.0517252982972138
 30
0.0
 40
1.996011993726291
 50
292.7088597832993173
 51
330.8318307138118826
  0
ARC
  5
D892
  8
0
 10
4188.3253414413384235
 20
241.2235701125684102
 30
0.0
 40
0.1307033241075983
 50
103.7123835193726933
 51
134.565771758940798
  0
ARC
  5
D893
  8
0
 10
4188.3223016300662493
 20
241.2324135528172917
 30
0.0
 40
0.1223364621502301
 50
136.4582268263262108
 51
195.9317628418166066
  0
ARC
  5
D894
  8
0
 10
4188.3250592153153775
 20
241.2408157133646966
 30
0.0
 40
0.1275048909555202
 50
199.2240194827720927
 51
273.8259164365512106
  0
ARC
  5
D895
  8
0
 10
4188.3325941957527903
 20
241.1970087388303057
 30
0.0
 40
0.0848405799117859
 50
54.4928582906560806
 51
143.0944207783448121
  0
ARC
  5
D896
  8
0
 10
4188.3117767014491619
 20
241.2205453605851062
 30
0.0
 40
0.0544287955943765
 50
149.7619735020882956
 51
242.3282828798355126
  0
ARC
  5
D897
  8
0
 10
4188.3255128003820573
 20
241.1925473951116885
 30
0.0
 40
0.133416026159747
 50
92.6353507398124236
 51
145.4080866904085099
  0
ARC
  5
D898
  8
0
 10
4188.2901909362672086
 20
241.2208688577115083
 30
0.0
 40
0.0883198510123077
 50
147.5244021224301889
 51
194.4478751759417889
  0
LINE
  5
D899
  8
0
 10
4188.3278282757210036
 20
241.280204677417089
 30
0.0
 11
4188.3396392993208792
 21
241.280204677417089
 31
0.0
  0
LINE
  5
D89A
  8
0
 10
4188.3396392993208792
 20
241.280204677417089
 30
0.0
 11
4188.3396392993208792
 21
241.2612822031171049
 31
0.0
  0
LINE
  5
D89B
  8
0
 10
4188.3396392993208792
 20
241.2612822031171049
 30
0.0
 11
4188.3278282757210036
 21
241.2612822031171049
 31
0.0
  0
LINE
  5
D89C
  8
0
 10
4188.3278282757210036
 20
241.2612822031171049
 30
0.0
 11
4188.3278282757210036
 21
241.280204677417089
 31
0.0
  0
LINE
  5
D89D
  8
0
 10
4188.3278282757210036
 20
241.2645377624170919
 30
0.0
 11
4188.3396392993208792
 21
241.2645377624170919
 31
0.0
  0
LINE
  5
D89E
  8
0
 10
4188.3040687596867429
 20
241.2769100748454036
 30
0.0
 11
4188.3047703243692013
 21
241.2608196825242999
 31
0.0
  0
LINE
  5
D89F
  8
0
 10
4188.3047703243692013
 20
241.2608196825242999
 30
0.0
 11
4188.3007856146941776
 21
241.2606459433438033
 31
0.0
  0
LINE
  5
D8A0
  8
0
 10
4188.2928412844494233
 20
241.2632885668739107
 30
0.0
 11
4188.2924718104759449
 21
241.2717624557905083
 31
0.0
  0
LINE
  5
D8A1
  8
0
 10
4188.3046286261269415
 20
241.2640695329729112
 30
0.0
 11
4188.2928278767849406
 21
241.2635960717531987
 31
0.0
  0
ARC
  5
D8A2
  8
0
 10
4188.3542483538158194
 20
241.2218315174723955
 30
0.0
 40
0.0521558269405727
 50
320.8322349223108745
 51
58.0216964982262482
  0
ARC
  5
D8A3
  8
0
 10
4188.3305321351172097
 20
241.2463843987092105
 30
0.0
 40
0.0861460200966316
 50
239.2603927327944007
 51
318.1330262593144766
  0
LINE
  5
D8A4
  8
0
 10
4188.3633577646305639
 20
241.2760753362630908
 30
0.0
 11
4188.362692595776025
 21
241.2608196825242999
 31
0.0
  0
LINE
  5
D8A5
  8
0
 10
4188.362692595776025
 20
241.2608196825242999
 30
0.0
 11
4188.3632754276140986
 21
241.2607942702020978
 31
0.0
  0
LINE
  5
D8A6
  8
0
 10
4188.3746905097677882
 20
241.2648681943159943
 30
0.0
 11
4188.3749372581023636
 21
241.2705273696032009
 31
0.0
  0
LINE
  5
D8A7
  8
0
 10
4188.3628342940173752
 20
241.2640695329729112
 30
0.0
 11
4188.3718179248126035
 21
241.2637090981675101
 31
0.0
  0
ARC
  5
D8A8
  8
0
 10
4188.3302347362996443
 20
241.2124922836468102
 30
0.0
 40
0.1426412300706971
 50
49.9045139838655487
 51
104.5671236886623063
  0
ARC
  5
D8A9
  8
0
 10
4188.3409521261392001
 20
241.2299290849952911
 30
0.0
 40
0.1224374295904077
 50
348.3456831360927026
 51
1.2021168861737761
  0
ARC
  5
D8AA
  8
0
 10
4188.3309193612112722
 20
241.2210053820782889
 30
0.0
 40
0.1357786026604995
 50
27.9521368331633511
 51
47.8113443842272403
  0
ARC
  5
D8AB
  8
0
 10
4188.339381342656452
 20
241.2397689226193904
 30
0.0
 40
0.1263078381141446
 50
267.3615683089226991
 51
344.1142463136745278
  0
ARC
  5
D8AC
  8
0
 10
4188.3346722318019602
 20
241.1871806834199106
 30
0.0
 40
0.1394826292475497
 50
34.7690717381237704
 51
96.2949502175381156
  0
ARC
  5
D8AD
  8
0
 10
4188.3737999779723395
 20
241.2218065099040984
 30
0.0
 40
0.0878090318866278
 50
341.3475131349434832
 51
30.7658038954048294
  0
ARC
  5
D8AE
  8
0
 10
4188.1638681881431694
 20
242.3946121047395081
 30
0.0
 40
1.1577454335051161
 50
284.3524978711660083
 51
290.0886769590258041
  0
ARC
  5
D8AF
  8
0
 10
4188.1659997588612896
 20
242.3942141101886989
 30
0.0
 40
1.199170371715728
 50
284.242467782603228
 51
290.218550071962909
  0
ARC
  5
D8B0
  8
0
 10
4188.6351967522823543
 20
241.3283472594316095
 30
0.0
 40
0.0807996941948062
 50
227.332616154357197
 51
296.4108812803202113
  0
LINE
  5
D8B1
  8
0
 10
4188.6711368828428022
 20
241.2559808473525038
 30
0.0
 11
4188.7688007060323798
 21
241.1881694295913974
 31
0.0
  0
ARC
  5
D8B2
  8
0
 10
4188.6287796746910317
 20
241.3114914505972024
 30
0.0
 40
0.0673863087144047
 50
107.6969858066232035
 51
183.5649128373825931
  0
LINE
  5
D8B3
  8
0
 10
4188.6082953862332943
 20
241.3756888689914035
 30
0.0
 11
4188.6107905429316816
 21
241.3883521846913993
 31
0.0
  0
LINE
  5
D8B4
  8
0
 10
4188.6883343203307959
 20
241.3772761308914028
 30
0.0
 11
4188.685839303731882
 21
241.3646135269914055
 31
0.0
  0
ARC
  5
D8B5
  8
0
 10
4188.6498874633507512
 20
241.3154592169699981
 30
0.0
 40
0.0608989410448171
 50
332.1306286648759283
 51
53.8179753361236806
  0
LINE
  5
D8B6
  8
0
 10
4188.7037230800324323
 20
241.286991561691309
 30
0.0
 11
4188.7946345557329551
 21
241.2239070999515889
 31
0.0
  0
LINE
  5
D8B7
  8
0
 10
4189.0162007969283877
 20
241.120657061879399
 30
0.0
 11
4189.1226971901851357
 21
241.0910480761704093
 31
0.0
  0
ARC
  5
D8B8
  8
0
 10
4189.1890563307260891
 20
241.0371919447939035
 30
0.0
 40
0.0854635502422296
 50
77.525866983244029
 51
140.9377088522774102
  0
LINE
  5
D8B9
  8
0
 10
4189.2075163575318584
 20
241.1206380101914135
 30
0.0
 11
4189.2185236767345486
 21
241.1293205053941904
 31
0.0
  0
LINE
  5
D8BA
  8
0
 10
4188.9969829599031073
 20
241.0821141106459038
 30
0.0
 11
4189.1093417764323021
 21
241.0510420247913999
 31
0.0
  0
ARC
  5
D8BB
  8
0
 10
4189.1719583253716337
 20
241.0566687294135022
 30
0.0
 40
0.0628688476602085
 50
185.1347907394072934
 51
266.8860491865586937
  0
LINE
  5
D8BC
  8
0
 10
4189.1685431674322899
 20
240.9938927092914014
 30
0.0
 11
4189.192487466253624
 21
240.8902287360008074
 31
0.0
  0
LINE
  5
D8BD
  8
0
 10
4189.2377535420218919
 20
240.9050044219600863
 30
0.0
 11
4189.215510960231768
 21
241.0014495843913949
 31
0.0
  0
ARC
  5
D8BE
  8
0
 10
4189.1906096287411856
 20
241.0646172755483008
 30
0.0
 40
0.06789870040112
 50
291.5148516102814256
 51
6.0547902585198843
  0
LINE
  5
D8BF
  8
0
 10
4189.2694841265320065
 20
241.0800812658914083
 30
0.0
 11
4189.2581295551608491
 21
241.0717791929853036
 31
0.0
  0
ARC
  5
D8C0
  8
0
 10
4189.1865337524368442
 20
241.0478401393289118
 30
0.0
 40
0.0477087899449882
 50
62.1310083882595592
 51
153.3222261351095028
  0
ARC
  5
D8C1
  8
0
 10
4189.1937972701407489
 20
241.0598869060754907
 30
0.0
 40
0.0336731442154511
 50
310.6401784278851892
 51
63.4750102329543324
  0
ARC
  5
D8C2
  8
0
 10
4189.18157693160083
 20
241.1087772499892026
 30
0.0
 40
0.048731874135576
 50
224.7300262637396031
 51
323.7062079459756205
  0
ARC
  5
D8C3
  8
0
 10
4188.5183253146824427
 20
240.9627873829149109
 30
0.0
 40
0.0817117776088358
 50
138.7274676033979972
 51
189.8543637202054981
  0
ARC
  5
D8C4
  8
0
 10
4188.511943031345254
 20
240.9330681749684118
 30
0.0
 40
0.0757755593896574
 50
84.6584174491642187
 51
168.0154058846675866
  0
ARC
  5
D8C5
  8
0
 10
4188.5138224640268163
 20
240.3133127657754073
 30
0.0
 40
1.0781801474241539
 50
49.1862330485042776
 51
80.6852545060509954
  0
ARC
  5
D8C6
  8
0
 10
4188.7534717859425655
 20
240.5686900216659012
 30
0.0
 40
0.7264913903894124
 50
3.612390475303437
 51
44.7422945210706118
  0
ARC
  5
D8C7
  8
0
 10
4189.9924183098582944
 20
241.1302151919437051
 30
0.0
 40
0.7879662102405904
 50
212.7429791416574858
 51
219.1059349543000963
  0
ARC
  5
D8C8
  8
0
 10
4189.4065148150712048
 20
240.5562884395889967
 30
0.0
 40
0.0810428801064289
 50
44.6691919698409876
 51
108.3718868355060039
  0
LINE
  5
D8C9
  8
0
 10
4189.4641506950320036
 20
240.6132625894913986
 30
0.0
 11
4189.4785197297323975
 21
240.6144635895913098
 31
0.0
  0
ARC
  5
D8CA
  8
0
 10
4189.9744656015327564
 20
241.1254839238922898
 30
0.0
 40
0.8170337521016428
 50
212.5658544113387052
 51
219.2319681086644039
  0
ARC
  5
D8CB
  8
0
 10
4189.3775481805523668
 20
240.5714408210174895
 30
0.0
 40
0.0518049444705608
 50
133.9437948784224943
 51
226.0604652550011906
  0
ARC
  5
D8CC
  8
0
 10
4188.4747469152962367
 20
240.1870966340987081
 30
0.0
 40
1.2089345583820521
 50
83.5387143933179459
 51
112.7172094425853999
  0
ARC
  5
D8CD
  8
0
 10
4188.7233878486513277
 20
240.6410610735566138
 30
0.0
 40
0.853551065253095
 50
301.577987967932188
 51
354.1195406503197773
  0
ARC
  5
D8CE
  8
0
 10
4188.7309360422614191
 20
240.5740011462654024
 30
0.0
 40
0.8417583004174909
 50
358.6120379275644723
 51
60.4174333243554287
  0
ARC
  5
D8CF
  8
0
 10
4188.8799432321611675
 20
241.094610543100913
 30
0.0
 40
1.9280168049944419
 50
10.7335210023203604
 51
37.3006191964563527
  0
ARC
  5
D8D0
  8
0
 10
4188.7078911442440585
 20
240.9203378177091963
 30
0.0
 40
2.1707593328682488
 50
38.2077026295658513
 51
64.5911542040119997
  0
ARC
  5
D8D1
  8
0
 10
4188.5120194274268215
 20
240.5473160761625877
 30
0.0
 40
2.591796816250008
 50
64.2181977749060451
 51
78.1132190014918706
  0
ARC
  5
D8D2
  8
0
 10
4189.9402239634346188
 20
239.7205521025497035
 30
0.0
 40
0.0163075007463187
 50
312.4321467855859282
 51
37.5996950543634014
  0
ARC
  5
D8D3
  8
0
 10
4189.9330937168233504
 20
239.7281755810805066
 30
0.0
 40
0.0267453745575686
 50
217.5923314898466003
 51
312.6870406153090016
  0
ARC
  5
D8D4
  8
0
 10
4189.9251849080383181
 20
239.7206089580701018
 30
0.0
 40
0.0159058808929741
 50
153.7770878470522007
 51
213.370753392602694
  0
ARC
  5
D8D5
  8
0
 10
4189.9330894366676148
 20
239.713455244950211
 30
0.0
 40
0.0263208626621462
 50
40.3647263624424113
 51
147.3972936572021979
  0
ARC
  5
D8D6
  8
0
 10
4189.9391865460493136
 20
239.740307631448502
 30
0.0
 40
0.0638081396161144
 50
297.0523826459893826
 51
345.8703988503760911
  0
ARC
  5
D8D7
  8
0
 10
4189.9325104053759787
 20
239.7710757293588983
 30
0.0
 40
0.0945892540384408
 50
239.1918360515415998
 51
292.1716863631227739
  0
ARC
  5
D8D8
  8
0
 10
4189.9077205376897837
 20
239.7274750325638024
 30
0.0
 40
0.044456821179572
 50
189.4396215744087897
 51
237.8525666187902914
  0
LINE
  5
D8D9
  8
0
 10
4189.8638657071533089
 20
239.7201837509292091
 30
0.0
 11
4189.8594865918794312
 21
239.7403472640332041
 31
0.0
  0
ARC
  5
D8DA
  8
0
 10
4189.9095677728801093
 20
239.7428630706945967
 30
0.0
 40
0.0501443314197459
 50
121.4836442636170943
 51
182.8758115025869984
  0
ARC
  5
D8DB
  8
0
 10
4189.9472295663535988
 20
239.6952309007047006
 30
0.0
 40
0.1106707662852213
 50
86.165994162197336
 51
125.2353114832365009
  0
ARC
  5
D8DC
  8
0
 10
4189.9543065570260296
 20
239.7444766340389037
 30
0.0
 40
0.0611782005019706
 50
37.9295526475360916
 51
89.6973732047843555
  0
ARC
  5
D8DD
  8
0
 10
4189.9715594974832129
 20
239.7639504153202097
 30
0.0
 40
0.0359154315365556
 50
351.3163852515032772
 51
30.3215266097318512
  0
LINE
  5
D8DE
  8
0
 10
4190.007063234143061
 20
239.7585279707020049
 30
0.0
 11
4190.0010642358183759
 21
239.7247310403500933
 31
0.0
  0
ARC
  5
D8DF
  8
0
 10
4189.9501684662682237
 20
239.7307402727346073
 30
0.0
 40
0.0512492949402101
 50
353.2662970031125269
 51
44.9297726543164728
  0
ARC
  5
D8E0
  8
0
 10
4189.9328720849071033
 20
239.7092786732204956
 30
0.0
 40
0.0787080853961828
 50
47.0987483063922525
 51
139.9811637228908978
  0
ARC
  5
D8E1
  8
0
 10
4189.9158459960572145
 20
239.7295697339988862
 30
0.0
 40
0.0528208965833013
 50
144.9675257771328063
 51
190.23549990160069
  0
ARC
  5
D8E2
  8
0
 10
4189.181033102141555
 20
241.0695195222868108
 30
0.0
 40
0.0494138302056576
 50
248.9587788813747125
 51
314.5994035460573173
  0
ARC
  5
D8E3
  8
0
 10
4189.1753415104049054
 20
241.0555228047205958
 30
0.0
 40
0.0343080724756365
 50
156.3962432477123059
 51
249.4376095737083858
  0
ARC
  5
D8E4
  8
0
 10
4188.6393030816661849
 20
241.3028387889509077
 30
0.0
 40
0.0477087899449882
 50
62.1310083882595592
 51
153.3222261351095028
  0
ARC
  5
D8E5
  8
0
 10
4188.6465665993719085
 20
241.3148855556974866
 30
0.0
 40
0.0336731442154511
 50
310.6401784278851892
 51
63.4750102329543324
  0
ARC
  5
D8E6
  8
0
 10
4188.6343462608310801
 20
241.3637758996111131
 30
0.0
 40
0.048731874135576
 50
224.7300262637396031
 51
323.7062079459756205
  0
ARC
  5
D8E7
  8
0
 10
4188.6338024313708956
 20
241.3245181719088066
 30
0.0
 40
0.0494138302056576
 50
248.9587788813747125
 51
314.5994035460573173
  0
ARC
  5
D8E8
  8
0
 10
4188.6281108396342461
 20
241.3105214543425063
 30
0.0
 40
0.0343080724756365
 50
156.3962432477123059
 51
249.4376095737083858
  0
ARC
  5
D8E9
  8
0
 10
4189.4044999556326729
 20
240.5601962530894014
 30
0.0
 40
0.0512395966330001
 50
69.9691063176029786
 51
147.509852542102692
  0
ARC
  5
D8EA
  8
0
 10
4189.4130442679706903
 20
240.5787739204884019
 30
0.0
 40
0.0309039089840935
 50
304.9724894392144279
 51
73.055840562124061
  0
ARC
  5
D8EB
  8
0
 10
4189.3975326513827895
 20
240.6305399974474142
 30
0.0
 40
0.050063340273229
 50
229.2193219000521083
 51
320.9483999121204079
  0
ARC
  5
D8EC
  8
0
 10
4189.396862253333893
 20
240.592576056345905
 30
0.0
 40
0.0517660942811221
 50
248.1701818141416993
 51
310.9032756355784954
  0
ARC
  5
D8ED
  8
0
 10
4189.3871502140300436
 20
240.5728145245178951
 30
0.0
 40
0.0298567706596224
 50
150.0511146084884047
 51
251.3713686197837092
  0
ARC
  5
D8EE
  8
0
 10
4188.521106237031745
 20
240.9321238490385042
 30
0.0
 40
0.0764199297535124
 50
14.3512765872104495
 51
91.5814333675908756
  0
ARC
  5
D8EF
  8
0
 10
4188.5317438699648847
 20
240.948026412879301
 30
0.0
 40
0.063470371897021
 50
288.5520322189469198
 51
2.744720911916378
  0
ARC
  5
D8F0
  8
0
 10
4188.516687985077624
 20
240.9741156948022081
 30
0.0
 40
0.0931858053248283
 50
233.97546826298111
 51
292.2269538054368923
  0
ARC
  5
D8F1
  8
0
 10
4188.4957954658375456
 20
240.9458649751146879
 30
0.0
 40
0.0580507393103484
 50
177.0990741660990011
 51
234.253804899315611
  0
ARC
  5
D8F2
  8
0
 10
4188.5163495711758515
 20
240.9369567997954107
 30
0.0
 40
0.0466452535851338
 50
56.3791779487459479
 51
120.2326748442215063
  0
ARC
  5
D8F3
  8
0
 10
4188.5256393241706974
 20
240.9509279840987972
 30
0.0
 40
0.0298674855104996
 50
349.1638023361156797
 51
56.3791779487459479
  0
ARC
  5
D8F4
  8
0
 10
4188.5217618197839329
 20
240.9555948448874858
 30
0.0
 40
0.034767570704721
 50
285.3646608111246223
 51
342.7983560653294717
  0
ARC
  5
D8F5
  8
0
 10
4188.516494652097208
 20
240.9656193804401028
 30
0.0
 40
0.0458934123654104
 50
230.6851145499431937
 51
288.3908184101596817
  0
ARC
  5
D8F6
  8
0
 10
4188.5059325524925953
 20
240.9523124298725065
 30
0.0
 40
0.0289073578222649
 50
181.2234412901360088
 51
230.1709566326746028
  0
ARC
  5
D8F7
  8
0
 10
4188.5074779418528124
 20
240.9505229422167929
 30
0.0
 40
0.0304687169845479
 50
118.663681998798296
 51
177.7950202283383021
  0
ARC
  5
D8F8
  8
0
 10
4188.5164354375738185
 20
240.9776668914007018
 30
0.0
 40
0.0385404512653389
 50
200.3199793758001022
 51
339.2725705177300028
  0
LINE
  5
D8F9
  8
0
 10
4188.5951414288319938
 20
240.9510657612617877
 30
0.0
 11
4188.5951414288319938
 21
240.9710726698914129
 31
0.0
  0
ARC
  5
D8FA
  8
0
 10
4188.5215755740191526
 20
240.9657406765444989
 30
0.0
 40
0.0737588309793444
 50
4.145502561752985
 51
98.4981478646891588
  0
LINE
  5
D8FB
  8
0
 10
4188.5106735915323952
 20
241.0252609804913959
 30
0.0
 11
4188.5106757643079618
 21
241.0392132113063042
 31
0.0
  0
ARC
  5
D8FC
  8
0
 10
4189.0169310185319773
 20
241.5482334499914998
 30
0.0
 40
0.7179108481001976
 50
214.1675752677398066
 51
225.1560379911975076
  0
ARC
  5
D8FD
  8
0
 10
4189.0158839500309114
 20
241.5333783949915016
 30
0.0
 40
0.716534107400189
 50
213.291185185578712
 51
225.1643555266049077
  0
ARC
  5
D8FE
  8
0
 10
4188.5159274491434189
 20
240.9400115336179056
 30
0.0
 40
0.0854111870831717
 50
93.5268296628658078
 51
126.7911895897108963
  0
ARC
  5
D8FF
  8
0
 10
4189.0126418938307324
 20
241.5366992628910054
 30
0.0
 40
0.7610829120994361
 50
213.2851541498577888
 51
223.9577170080881103
  0
ARC
  5
D900
  8
0
 10
4188.7066005748056341
 20
240.8707712122692044
 30
0.0
 40
0.0779969061452228
 50
173.889233827069404
 51
186.8397192269341929
  0
ARC
  5
D901
  8
0
 10
4188.7032826730528541
 20
240.8457476871948018
 30
0.0
 40
0.0757755593896574
 50
84.6584174491642187
 51
168.0154058846675866
  0
ARC
  5
D902
  8
0
 10
4188.7125417306406234
 20
240.8451105727488937
 30
0.0
 40
0.0761155520284217
 50
15.7071881075711097
 51
91.6599402181670655
  0
ARC
  5
D903
  8
0
 10
4188.723887762400409
 20
240.8596583542623932
 30
0.0
 40
0.0622228329240283
 50
288.156854658105317
 51
5.5874438906078581
  0
ARC
  5
D904
  8
0
 10
4188.7080276267870431
 20
240.886795207028598
 30
0.0
 40
0.0931858053248283
 50
233.97546826298111
 51
292.2269538054368923
  0
ARC
  5
D905
  8
0
 10
4188.6871351075469647
 20
240.8585444873411916
 30
0.0
 40
0.0580507393103484
 50
177.0990741660990011
 51
234.253804899315611
  0
ARC
  5
D906
  8
0
 10
4188.707689212884361
 20
240.8496363120218859
 30
0.0
 40
0.0466452535851338
 50
56.3791779487459479
 51
120.2326748442215063
  0
ARC
  5
D907
  8
0
 10
4188.7169789658801164
 20
240.8636074963253009
 30
0.0
 40
0.0298674855104996
 50
349.1638023361156797
 51
56.3791779487459479
  0
ARC
  5
D908
  8
0
 10
4188.7131014614942615
 20
240.8682743571139042
 30
0.0
 40
0.034767570704721
 50
285.3646608111246223
 51
342.7983560653294717
  0
ARC
  5
D909
  8
0
 10
4188.7078342938066271
 20
240.8782988926666064
 30
0.0
 40
0.0458934123654104
 50
230.6851145499431937
 51
288.3908184101596817
  0
ARC
  5
D90A
  8
0
 10
4188.6972721942001954
 20
240.8649919420988965
 30
0.0
 40
0.0289073578222649
 50
181.2234412901360088
 51
230.1709566326746028
  0
ARC
  5
D90B
  8
0
 10
4188.6988175835631409
 20
240.8632024544432966
 30
0.0
 40
0.0304687169845479
 50
118.663681998798296
 51
177.7950202283383021
  0
ARC
  5
D90C
  8
0
 10
4188.7077750792832376
 20
240.8903464036272055
 30
0.0
 40
0.0385404512653389
 50
200.3199793758001022
 51
339.2725705177300028
  0
LINE
  5
D90D
  8
0
 10
4188.7859783835374401
 20
240.8637124514305015
 30
0.0
 11
4188.7864810705414129
 21
240.8837521821178882
 31
0.0
  0
ARC
  5
D90E
  8
0
 10
4188.716280361736608
 20
240.8771700038415986
 30
0.0
 40
0.0705086135676627
 50
5.3565223110726823
 51
84.739769479619909
  0
ARC
  5
D90F
  8
0
 10
4188.3317780661946017
 20
241.3670788830735887
 30
0.0
 40
0.110853519157603
 50
244.7116774918436022
 51
295.8382182055610201
  0
ARC
  5
D910
  8
0
 10
4188.3565198321120988
 20
241.2264366971454024
 30
0.0
 40
0.1052040742668714
 50
3.0535033458112801
 51
26.2703579541798184
  0
ARC
  5
D911
  8
0
 10
4188.3552570824685972
 20
241.2788250979413931
 30
0.0
 40
0.0957781304593816
 50
356.513670012220075
 51
3.486329987799361
  0
ARC
  5
D912
  8
0
 10
4188.1639786821569942
 20
242.4057757402902951
 30
0.0
 40
1.1572484529452911
 50
284.3531461425998259
 51
290.0758437085333981
  0
ARC
  5
D913
  8
0
 10
4188.6291651546962385
 20
241.3225798646276132
 30
0.0
 40
0.0680477400831191
 50
105.7118036025975982
 51
183.1481747278513126
  0
ARC
  5
D914
  8
0
 10
4188.9003563262331227
 20
241.1109968209476904
 30
0.0
 40
0.1645887929157054
 50
107.0550817960403975
 51
129.9665950141908866
  0
ARC
  5
D915
  8
0
 10
4188.8692513643100028
 20
241.1526796878416121
 30
0.0
 40
0.1127004884514441
 50
131.4589758278067961
 51
132.1739489515223056
  0
ARC
  5
D916
  8
0
 10
4188.8692513643100028
 20
241.1526796878416121
 30
0.0
 40
0.1127004884514441
 50
159.6848615030739893
 51
197.2364027871795997
  0
ARC
  5
D917
  8
0
 10
4188.8820072387143227
 20
241.1612674325646992
 30
0.0
 40
0.1275048909555202
 50
199.2240194827720927
 51
273.8259164365512106
  0
ARC
  5
D918
  8
0
 10
4188.889542219152645
 20
241.1174604580303082
 30
0.0
 40
0.0848405799117859
 50
54.4928582906560806
 51
143.0944207783448121
  0
ARC
  5
D919
  8
0
 10
4188.8687247248499261
 20
241.1409970797851088
 30
0.0
 40
0.0544287955943765
 50
149.7619735020882956
 51
242.3282828798355126
  0
ARC
  5
D91A
  8
0
 10
4188.882460823781912
 20
241.1129991143116911
 30
0.0
 40
0.133416026159747
 50
92.6353507398124236
 51
145.4080866904085099
  0
ARC
  5
D91B
  8
0
 10
4188.8471389596679728
 20
241.1413205769115109
 30
0.0
 40
0.0883198510123077
 50
147.5244021224301889
 51
194.4478751759417889
  0
LINE
  5
D91C
  8
0
 10
4188.8847762991208583
 20
241.2006563966170916
 30
0.0
 11
4188.8965873227198244
 21
241.2006563966170916
 31
0.0
  0
LINE
  5
D91D
  8
0
 10
4188.8965873227198244
 20
241.2006563966170916
 30
0.0
 11
4188.8965873227198244
 21
241.1817339223171075
 31
0.0
  0
LINE
  5
D91E
  8
0
 10
4188.8965873227198244
 20
241.1817339223171075
 30
0.0
 11
4188.8847762991208583
 21
241.1817339223171075
 31
0.0
  0
LINE
  5
D91F
  8
0
 10
4188.8847762991208583
 20
241.1817339223171075
 30
0.0
 11
4188.8847762991208583
 21
241.2006563966170916
 31
0.0
  0
LINE
  5
D920
  8
0
 10
4188.8847762991208583
 20
241.1849894816170945
 30
0.0
 11
4188.8965873227198244
 21
241.1849894816170945
 31
0.0
  0
LINE
  5
D921
  8
0
 10
4188.8610167830865976
 20
241.1973617940454062
 30
0.0
 11
4188.861718347769056
 21
241.1812714017243025
 31
0.0
  0
LINE
  5
D922
  8
0
 10
4188.861718347769056
 20
241.1812714017243025
 30
0.0
 11
4188.8577336380931229
 21
241.1810976625438059
 31
0.0
  0
LINE
  5
D923
  8
0
 10
4188.849789307849278
 20
241.1837402860739132
 30
0.0
 11
4188.8494198338757997
 21
241.1922141749905109
 31
0.0
  0
LINE
  5
D924
  8
0
 10
4188.8615766495277057
 20
241.1845212521729991
 30
0.0
 11
4188.8497759001857048
 21
241.1840477909532865
 31
0.0
  0
ARC
  5
D925
  8
0
 10
4188.9111963772156741
 20
241.1422832366723981
 30
0.0
 40
0.0521558269405727
 50
320.8322349223108745
 51
58.0216964982262482
  0
ARC
  5
D926
  8
0
 10
4188.8874801585170644
 20
241.166836117909213
 30
0.0
 40
0.0861460200966316
 50
239.2603927327944007
 51
318.1330262593144766
  0
LINE
  5
D927
  8
0
 10
4188.9203057880322376
 20
241.1965270554630933
 30
0.0
 11
4188.9196406191749702
 21
241.1812714017243025
 31
0.0
  0
LINE
  5
D928
  8
0
 10
4188.9196406191749702
 20
241.1812714017243025
 30
0.0
 11
4188.9202234510148628
 21
241.1812459894021003
 31
0.0
  0
LINE
  5
D929
  8
0
 10
4188.9316385331667334
 20
241.1853199135159969
 30
0.0
 11
4188.9318852815022183
 21
241.1909790888032035
 31
0.0
  0
LINE
  5
D92A
  8
0
 10
4188.9197823174172299
 20
241.1845212521729991
 30
0.0
 11
4188.9287659482133677
 21
241.1841608173675127
 31
0.0
  0
ARC
  5
D92B
  8
0
 10
4188.8930940109839867
 20
241.1317059593907004
 30
0.0
 40
0.1426630516888868
 50
52.0422525388845685
 51
106.7060190694250963
  0
ARC
  5
D92C
  8
0
 10
4188.9132561308078948
 20
241.16250326273979
 30
0.0
 40
0.1060229045155659
 50
352.5257561341438759
 51
50.3961040341742788
  0
ARC
  5
D92D
  8
0
 10
4188.8963293660553973
 20
241.160220641819393
 30
0.0
 40
0.1263078381141446
 50
267.3615683089226991
 51
344.1142463136745278
  0
ARC
  5
D92E
  8
0
 10
4188.8916202552009054
 20
241.1076324026199131
 30
0.0
 40
0.1394826292475497
 50
34.7690717381237704
 51
96.2949502175381156
  0
ARC
  5
D92F
  8
0
 10
4188.9225220434736912
 20
241.1395200261050888
 30
0.0
 40
0.0962958540261953
 50
351.7171534279000866
 51
29.6620260721498816
  0
ARC
  5
D930
  8
0
 10
4188.8887260895953659
 20
241.287530602273705
 30
0.0
 40
0.110853519157603
 50
244.7116774918436022
 51
295.8382182055610201
  0
ARC
  5
D931
  8
0
 10
4189.2442044620893284
 20
240.790438132616714
 30
0.0
 40
0.122603371991153
 50
116.1750501723698932
 51
135.7842017283610971
  0
ARC
  5
D932
  8
0
 10
4189.2328045867589026
 20
240.7954505535707881
 30
0.0
 40
0.1110229367140122
 50
133.5349173942456105
 51
194.1234307382738109
  0
ARC
  5
D933
  8
0
 10
4189.2455326338140367
 20
240.8103422490646892
 30
0.0
 40
0.1275048909555202
 50
199.2240194827720927
 51
273.8259164365512106
  0
ARC
  5
D934
  8
0
 10
4189.2530676142541779
 20
240.7665352745302982
 30
0.0
 40
0.0848405799117859
 50
54.4928582906560806
 51
143.0944207783448121
  0
ARC
  5
D935
  8
0
 10
4189.2322501199487306
 20
240.7900718962850988
 30
0.0
 40
0.0544287955943765
 50
149.7619735020882956
 51
242.3282828798355126
  0
ARC
  5
D936
  8
0
 10
4189.2459862188807165
 20
240.7620739308117095
 30
0.0
 40
0.133416026159747
 50
92.6353507398124236
 51
145.4080866904085099
  0
ARC
  5
D937
  8
0
 10
4189.2106643547667773
 20
240.7903953934115862
 30
0.0
 40
0.0883198510123077
 50
147.5244021224301889
 51
194.4478751759417889
  0
LINE
  5
D938
  8
0
 10
4189.2483016942196627
 20
240.84973121311711
 30
0.0
 11
4189.2601127178213574
 21
240.84973121311711
 31
0.0
  0
LINE
  5
D939
  8
0
 10
4189.2601127178213574
 20
240.84973121311711
 30
0.0
 11
4189.2601127178213574
 21
240.8308087388170975
 31
0.0
  0
LINE
  5
D93A
  8
0
 10
4189.2601127178213574
 20
240.8308087388170975
 30
0.0
 11
4189.2483016942196627
 21
240.8308087388170975
 31
0.0
  0
LINE
  5
D93B
  8
0
 10
4189.2483016942196627
 20
240.8308087388170975
 30
0.0
 11
4189.2483016942196627
 21
240.84973121311711
 31
0.0
  0
LINE
  5
D93C
  8
0
 10
4189.2483016942196627
 20
240.8340642981171129
 30
0.0
 11
4189.2601127178213574
 21
240.8340642981171129
 31
0.0
  0
LINE
  5
D93D
  8
0
 10
4189.224542178187221
 20
240.8464366105453962
 30
0.0
 11
4189.2252437428687699
 21
240.8303462182242924
 31
0.0
  0
LINE
  5
D93E
  8
0
 10
4189.2252437428687699
 20
240.8303462182242924
 30
0.0
 11
4189.2212590331928368
 21
240.8301724790437959
 31
0.0
  0
LINE
  5
D93F
  8
0
 10
4189.2133147029489919
 20
240.8328151025739032
 30
0.0
 11
4189.2129452289764231
 21
240.8412889914905008
 31
0.0
  0
LINE
  5
D940
  8
0
 10
4189.2251020446283292
 20
240.8335960686729038
 30
0.0
 11
4189.2133012952863282
 21
240.8331226074533049
 31
0.0
  0
ARC
  5
D941
  8
0
 10
4189.2747217723162976
 20
240.7913580531723881
 30
0.0
 40
0.0521558269405727
 50
320.8322349223108745
 51
58.0216964982262482
  0
ARC
  5
D942
  8
0
 10
4189.2510055536167783
 20
240.815910934409203
 30
0.0
 40
0.0861460200966316
 50
239.2603927327944007
 51
318.1330262593144766
  0
LINE
  5
D943
  8
0
 10
4189.2838311831319515
 20
240.8456018719631118
 30
0.0
 11
4189.2831660142755936
 21
240.8303462182242924
 31
0.0
  0
LINE
  5
D944
  8
0
 10
4189.2831660142755936
 20
240.8303462182242924
 30
0.0
 11
4189.2837488461136672
 21
240.8303208059020903
 31
0.0
  0
LINE
  5
D945
  8
0
 10
4189.2951639282664473
 20
240.8343947300159869
 30
0.0
 11
4189.2954106766019322
 21
240.8400539053033071
 31
0.0
  0
LINE
  5
D946
  8
0
 10
4189.2833077125178534
 20
240.8335960686729038
 30
0.0
 11
4189.2922913433130816
 21
240.8332356338675027
 31
0.0
  0
ARC
  5
D947
  8
0
 10
4189.2635183713628066
 20
240.7792126580970944
 30
0.0
 40
0.139380873421642
 50
54.7267268482838602
 51
99.7994166548918571
  0
ARC
  5
D948
  8
0
 10
4189.2866079596324198
 20
240.8158680381592092
 30
0.0
 40
0.0961493843147614
 50
16.5332326706505697
 51
53.3458061537933403
  0
ARC
  5
D949
  8
0
 10
4189.2598547611551112
 20
240.8092954583194114
 30
0.0
 40
0.1263078381141481
 50
267.3615683089226991
 51
338.6198042803317207
  0
ARC
  5
D94A
  8
0
 10
4189.2551456503024383
 20
240.7567072191199031
 30
0.0
 40
0.1394826292475497
 50
34.7690717381237704
 51
96.2949502175381156
  0
ARC
  5
D94B
  8
0
 10
4189.2942733964719082
 20
240.7913330456040057
 30
0.0
 40
0.0878090318866278
 50
341.3475131349434832
 51
30.7658038954048294
  0
ARC
  5
D94C
  8
0
 10
4189.2522514846950799
 20
240.936605418773695
 30
0.0
 40
0.110853519157603
 50
244.7116774918436022
 51
295.8382182055610201
  0
ARC
  5
D94D
  8
0
 10
4188.6494958176308501
 20
241.326637595746007
 30
0.0
 40
0.0613311288118148
 50
354.5549003098873868
 51
51.356733775138558
  0
ARC
  5
D94E
  8
0
 10
4189.3363192483320745
 20
242.113195694292699
 30
0.0
 40
1.031346313201591
 50
232.4316474628955973
 51
238.3168590423393027
  0
LINE
  5
D94F
  8
0
 10
4188.7946342168315823
 20
241.2355553668222967
 30
0.0
 11
4188.7946345557329551
 21
241.2239070999515889
 31
0.0
  0
ARC
  5
D950
  8
0
 10
4188.8769122296453133
 20
241.1372251203700046
 30
0.0
 40
0.1195131005724205
 50
133.5067974045489052
 51
154.769049057577206
  0
LINE
  5
D951
  8
0
 10
4189.018495056690881
 20
241.1316414325191886
 30
0.0
 11
4189.1226781132991164
 21
241.102675619313402
 31
0.0
  0
ARC
  5
D952
  8
0
 10
4189.1890372538382508
 20
241.0488194879368962
 30
0.0
 40
0.0854635502422296
 50
77.525866983244029
 51
140.9377088522774102
  0
LINE
  5
D953
  8
0
 10
4189.2074972806431106
 20
241.1322655533342925
 30
0.0
 11
4189.2114455700220788
 21
241.135379935951903
 31
0.0
  0
LINE
  5
D954
  8
0
 10
4189.1226781132991164
 20
241.102675619313402
 30
0.0
 11
4189.1226971901851357
 21
241.0910480761704093
 31
0.0
  0
LINE
  5
D955
  8
0
 10
4189.2074972806431106
 20
241.1322655533342925
 30
0.0
 11
4189.2075163575318584
 21
241.1206380101914135
 31
0.0
  0
ARC
  5
D956
  8
0
 10
4189.2419708784764225
 20
240.8153590727997937
 30
0.0
 40
0.0897444959472709
 50
92.693475516265778
 51
123.4618087762890042
  0
LINE
  5
D957
  8
0
 10
4189.2377535420218919
 20
240.9050044219600863
 30
0.0
 11
4189.2397958210758588
 21
240.9165599131976876
 31
0.0
  0
LINE
  5
D958
  8
0
 10
4189.2397958210758588
 20
240.9165599131976876
 30
0.0
 11
4189.2171162448739778
 21
241.0021062139888102
 31
0.0
  0
ARC
  5
D959
  8
0
 10
4189.2783382375682777
 20
240.8156531431374958
 30
0.0
 40
0.1041604826861868
 50
352.1011715471248067
 51
15.3519700137486304
  0
ARC
  5
D95A
  8
0
 10
4188.7101673344650408
 20
240.8591068069088124
 30
0.0
 40
0.0891663546883711
 50
81.8911941831922547
 51
128.8653971306158041
  0
ARC
  5
D95B
  8
0
 10
4188.9057391449769057
 20
240.7806177330330115
 30
0.0
 40
0.088099560470378
 50
168.5014775504340889
 51
186.2639975213789967
  0
ARC
  5
D95C
  8
0
 10
4188.8922894793386149
 20
240.7552705198947933
 30
0.0
 40
0.0757755593896574
 50
84.6584174491642187
 51
168.0154058846675866
  0
ARC
  5
D95D
  8
0
 10
4188.9015485369263843
 20
240.7546334054489137
 30
0.0
 40
0.0761155520284217
 50
15.7071881075711097
 51
91.6599402181670655
  0
ARC
  5
D95E
  8
0
 10
4188.9128945686852603
 20
240.7691811869624985
 30
0.0
 40
0.0622228329240283
 50
288.156854658105317
 51
5.5874438906078581
  0
ARC
  5
D95F
  8
0
 10
4188.8970344330718945
 20
240.7963180397285896
 30
0.0
 40
0.0931858053248283
 50
233.97546826298111
 51
292.2269538054368923
  0
ARC
  5
D960
  8
0
 10
4188.8761419138318161
 20
240.7680673200412116
 30
0.0
 40
0.0580507393103484
 50
177.0990741660990011
 51
234.253804899315611
  0
ARC
  5
D961
  8
0
 10
4188.8966960191701219
 20
240.7591591447219059
 30
0.0
 40
0.0466452535851338
 50
56.3791779487459479
 51
120.2326748442215063
  0
ARC
  5
D962
  8
0
 10
4188.9059857721649678
 20
240.7731303290252924
 30
0.0
 40
0.0298674855104996
 50
349.1638023361156797
 51
56.3791779487459479
  0
ARC
  5
D963
  8
0
 10
4188.9021082677782033
 20
240.7777971898140095
 30
0.0
 40
0.034767570704721
 50
285.3646608111246223
 51
342.7983560653294717
  0
ARC
  5
D964
  8
0
 10
4188.8968411000923879
 20
240.787821725366598
 30
0.0
 40
0.0458934123654104
 50
230.6851145499431937
 51
288.3908184101596817
  0
ARC
  5
D965
  8
0
 10
4188.8862790004850467
 20
240.7745147747990018
 30
0.0
 40
0.0289073578222649
 50
181.2234412901360088
 51
230.1709566326746028
  0
ARC
  5
D966
  8
0
 10
4188.8878243898470828
 20
240.7727252871432881
 30
0.0
 40
0.0304687169845479
 50
118.663681998798296
 51
177.7950202283383021
  0
ARC
  5
D967
  8
0
 10
4188.8967818855680889
 20
240.7998692363271971
 30
0.0
 40
0.0385404512653389
 50
200.3199793758001022
 51
339.2725705177300028
  0
ARC
  5
D968
  8
0
 10
4188.9052871680232784
 20
240.7866928365415902
 30
0.0
 40
0.0705086135676627
 50
33.0503666370435312
 51
84.739769479619909
  0
ARC
  5
D969
  8
0
 10
4188.8991741407498921
 20
240.7686296396088039
 30
0.0
 40
0.0891663546883711
 50
81.8911941831922547
 51
120.0820796103869981
  0
ARC
  5
D96A
  8
0
 10
4189.056437195473336
 20
241.6182695169360102
 30
0.0
 40
0.7984468076897115
 50
234.7081598230763007
 51
239.751296310888705
  0
ARC
  5
D96B
  8
0
 10
4189.056437195473336
 20
241.6182695169360102
 30
0.0
 40
0.7984468076897115
 50
250.2066910384388052
 51
255.3486178665671105
  0
ARC
  5
D96C
  8
0
 10
4189.056437195473336
 20
241.6182695169360102
 30
0.0
 40
0.7984468076897115
 50
263.37983744743741
 51
274.9404917367249936
  0
ARC
  5
D96D
  8
0
 10
4189.0564852175675696
 20
241.6027169323857038
 30
0.0
 40
0.7970094832906751
 50
234.630755727575206
 51
239.6666203606525016
  0
ARC
  5
D96E
  8
0
 10
4189.0564852175675696
 20
241.6027169323857038
 30
0.0
 40
0.7970094832906751
 50
250.1431084566793004
 51
255.2135182551201069
  0
ARC
  5
D96F
  8
0
 10
4189.0564852175675696
 20
241.6027169323857038
 30
0.0
 40
0.7970094832906751
 50
263.6321580570149763
 51
274.7544114960799106
  0
ARC
  5
D970
  8
0
 10
4189.0546014537103474
 20
241.6139506820146039
 30
0.0
 40
0.8491998463041358
 50
236.1487376789062012
 51
240.0525576955892006
  0
ARC
  5
D971
  8
0
 10
4189.0515064267792695
 20
241.6087839453315098
 30
0.0
 40
0.8431779053656843
 50
250.2945183834586089
 51
254.244794079965601
  0
ARC
  5
D972
  8
0
 10
4189.0515064267792695
 20
241.6087839453294066
 30
0.0
 40
0.8431779053633945
 50
264.8020654588822822
 51
275.0019996323683813
  0
ARC
  5
D973
  8
0
 10
4188.7009481342893196
 20
240.8592476815061048
 30
0.0
 40
0.07276522395013
 50
130.2104878196155084
 51
164.9574784080452901
  0
LINE
  5
D974
  8
0
 10
4188.6539710885308523
 20
240.9148168725064068
 30
0.0
 11
4188.6542160768003669
 21
240.9285337150502073
 31
0.0
  0
ARC
  5
D975
  8
0
 10
4188.8917297833522753
 20
240.7674437316792933
 30
0.0
 40
0.0753317440202529
 50
120.8729577224597023
 51
156.6644776898222915
  0
LINE
  5
D976
  8
0
 10
4188.8530743378723855
 20
240.8321015091837012
 30
0.0
 11
4188.8544803864797359
 21
240.8457860206648036
 31
0.0
  0
LINE
  5
D977
  8
0
 10
4188.9643868865878176
 20
240.8251465470605126
 30
0.0
 11
4188.9680879803745484
 21
240.810624737681195
 31
0.0
  0
ARC
  5
D978
  8
0
 10
4188.8644143471983625
 20
240.771722280239004
 30
0.0
 40
0.1107322148739188
 50
358.685055636724428
 51
20.5680821633078104
  0
ARC
  5
D979
  8
0
 10
4189.4061392046796755
 20
240.5648507091596002
 30
0.0
 40
0.0838189349424475
 50
45.8146975461124697
 51
107.4501293166290026
  0
ARC
  5
D97A
  8
0
 10
4189.3854736484408932
 20
240.577382196119089
 30
0.0
 40
0.0597404898921677
 50
142.9134842307385043
 51
183.0425690954994877
  0
ARC
  5
D97B
  8
0
 10
4189.9959960255682745
 20
241.144562097683405
 30
0.0
 40
0.7924425855893713
 50
213.4575557104072061
 51
219.0977242914235887
  0
LINE
  5
D97C
  8
0
 10
4189.4645594246630935
 20
240.6249563807074026
 30
0.0
 11
4189.4776581050318782
 21
240.6260524609913887
 31
0.0
  0
ARC
  5
D97D
  8
0
 10
4188.7786296175781899
 20
240.5851361765816989
 30
0.0
 40
0.7007368063079472
 50
314.4245169284807844
 51
357.181785338708778
  0
LINE
  5
D97E
  8
0
 10
4189.4785189228323361
 20
240.5506828442914014
 30
0.0
 11
4189.4641506950320036
 21
240.5494819123913999
 31
0.0
  0
ARC
  5
D97F
  8
0
 10
4189.3936264822059456
 20
240.6052628234625956
 30
0.0
 40
0.0899175991373239
 50
261.9093076745897974
 51
321.6578728425523082
  0
LINE
  5
D980
  8
0
 10
4189.4641506950320036
 20
240.6132625894913986
 30
0.0
 11
4189.4645594246630935
 21
240.6249563807074026
 31
0.0
  0
LINE
  5
D981
  8
0
 10
4189.3809714432318287
 20
240.6332006269913961
 30
0.0
 11
4189.3810039543577659
 21
240.644812156408392
 31
0.0
  0
ARC
  5
D982
  8
0
 10
4188.8961511290699491
 20
240.3095018397239926
 30
0.0
 40
0.0779969061452228
 50
173.889233827069404
 51
186.8397192269341929
  0
ARC
  5
D983
  8
0
 10
4188.8928332273171691
 20
240.2844783146495899
 30
0.0
 40
0.0757755593896574
 50
84.6584174491642187
 51
168.0154058846675866
  0
ARC
  5
D984
  8
0
 10
4188.9020922849049384
 20
240.2838412002035966
 30
0.0
 40
0.0761155520284217
 50
15.7071881075711097
 51
91.6599402181670655
  0
ARC
  5
D985
  8
0
 10
4188.913438316664724
 20
240.2983889817172098
 30
0.0
 40
0.0622228329240283
 50
288.156854658105317
 51
5.5874438906078581
  0
ARC
  5
D986
  8
0
 10
4188.8975781810513581
 20
240.3255258344833862
 30
0.0
 40
0.0931858053248283
 50
233.97546826298111
 51
292.2269538054368923
  0
ARC
  5
D987
  8
0
 10
4188.8766856618112797
 20
240.2972751147960082
 30
0.0
 40
0.0580507393103484
 50
177.0990741660990011
 51
234.253804899315611
  0
ARC
  5
D988
  8
0
 10
4188.8972397671477665
 20
240.2883669394765889
 30
0.0
 40
0.0466452535851338
 50
56.3791779487459479
 51
120.2326748442215063
  0
ARC
  5
D989
  8
0
 10
4188.9065295201453409
 20
240.3023381237800891
 30
0.0
 40
0.0298674855104996
 50
349.1638023361156797
 51
56.3791779487459479
  0
ARC
  5
D98A
  8
0
 10
4188.902652015757667
 20
240.3070049845686924
 30
0.0
 40
0.034767570704721
 50
285.3646608111246223
 51
342.7983560653294717
  0
ARC
  5
D98B
  8
0
 10
4188.8973848480709421
 20
240.3170295201213094
 30
0.0
 40
0.0458934123654104
 50
230.6851145499431937
 51
288.3908184101596817
  0
ARC
  5
D98C
  8
0
 10
4188.8868227484636009
 20
240.3037225695537131
 30
0.0
 40
0.0289073578222649
 50
181.2234412901360088
 51
230.1709566326746028
  0
ARC
  5
D98D
  8
0
 10
4188.8883681378265464
 20
240.3019330818981132
 30
0.0
 40
0.0304687169845479
 50
118.663681998798296
 51
177.7950202283383021
  0
ARC
  5
D98E
  8
0
 10
4188.8973256335466431
 20
240.3290770310819084
 30
0.0
 40
0.0385404512653389
 50
200.3199793758001022
 51
339.2725705177300028
  0
ARC
  5
D98F
  8
0
 10
4188.9158294540611678
 20
240.3203337797548045
 30
0.0
 40
0.0602405153643703
 50
17.6942492853853892
 51
76.2087945808638239
  0
ARC
  5
D990
  8
0
 10
4188.902040034356105
 20
240.2848957391624936
 30
0.0
 40
0.0980687929651053
 50
73.3190794735678821
 51
127.6525091128188052
  0
ARC
  5
D991
  8
0
 10
4188.8752188283078794
 20
240.3165745117250935
 30
0.0
 40
0.0566347856602984
 50
125.7466613848198023
 51
178.7553749153240119
  0
ARC
  5
D992
  8
0
 10
4188.7063988111267463
 20
240.2190020062035956
 30
0.0
 40
0.0779969061452228
 50
173.889233827069404
 51
186.8397192269341929
  0
ARC
  5
D993
  8
0
 10
4188.7030809093730568
 20
240.1939784811291929
 30
0.0
 40
0.0757755593896574
 50
84.6584174491642187
 51
168.0154058846675866
  0
ARC
  5
D994
  8
0
 10
4188.7123399669617356
 20
240.1933413666831996
 30
0.0
 40
0.0761155520284217
 50
15.7071881075711097
 51
91.6599402181670655
  0
ARC
  5
D995
  8
0
 10
4188.7236859987197022
 20
240.2078891481966991
 30
0.0
 40
0.0622228329240283
 50
288.156854658105317
 51
5.5874438906078581
  0
ARC
  5
D996
  8
0
 10
4188.7078258631072458
 20
240.2350260009629892
 30
0.0
 40
0.0931858053248283
 50
233.97546826298111
 51
292.2269538054368923
  0
ARC
  5
D997
  8
0
 10
4188.6869333438671674
 20
240.2067752812754975
 30
0.0
 40
0.0580507393103484
 50
177.0990741660990011
 51
234.253804899315611
  0
ARC
  5
D998
  8
0
 10
4188.7074874492036543
 20
240.1978671059561918
 30
0.0
 40
0.0466452535851338
 50
56.3791779487459479
 51
120.2326748442215063
  0
ARC
  5
D999
  8
0
 10
4188.7167772022003192
 20
240.2118382902596068
 30
0.0
 40
0.0298674855104996
 50
349.1638023361156797
 51
56.3791779487459479
  0
ARC
  5
D99A
  8
0
 10
4188.7128996978126452
 20
240.2165051510482954
 30
0.0
 40
0.034767570704721
 50
285.3646608111246223
 51
342.7983560653294717
  0
ARC
  5
D99B
  8
0
 10
4188.7076325301268298
 20
240.2265296866009123
 30
0.0
 40
0.0458934123654104
 50
230.6851145499431937
 51
288.3908184101596817
  0
ARC
  5
D99C
  8
0
 10
4188.6970704305213076
 20
240.2132227360332877
 30
0.0
 40
0.0289073578222649
 50
181.2234412901360088
 51
230.1709566326746028
  0
ARC
  5
D99D
  8
0
 10
4188.6986158198833436
 20
240.2114332483776025
 30
0.0
 40
0.0304687169845479
 50
118.663681998798296
 51
177.7950202283383021
  0
ARC
  5
D99E
  8
0
 10
4188.7075733156034403
 20
240.2385771975615114
 30
0.0
 40
0.0385404512653389
 50
200.3199793758001022
 51
339.2725705177300028
  0
LINE
  5
D99F
  8
0
 10
4188.7857766198576428
 20
240.2119432453648074
 30
0.0
 11
4188.7862793068597966
 21
240.2319829760521941
 31
0.0
  0
ARC
  5
D9A0
  8
0
 10
4188.7260771361170555
 20
240.2298339462342938
 30
0.0
 40
0.0602405153643703
 50
2.0444126302486261
 51
4.3583200327057012
  0
ARC
  5
D9A1
  8
0
 10
4188.7260771361170555
 20
240.2298339462342938
 30
0.0
 40
0.0602405153643703
 50
53.2294964675600397
 51
76.2087945808638239
  0
ARC
  5
D9A2
  8
0
 10
4188.7122877164138117
 20
240.1943959056420965
 30
0.0
 40
0.0980687929651053
 50
73.3190794735678821
 51
127.6525091128188052
  0
ARC
  5
D9A3
  8
0
 10
4188.6854665103646767
 20
240.2260746782046112
 30
0.0
 40
0.0566347856602984
 50
125.7466613848198023
 51
178.7553749153240119
  0
ARC
  5
D9A4
  8
0
 10
4188.5154182875157858
 20
240.131609227086102
 30
0.0
 40
0.0779969061452228
 50
173.889233827069404
 51
186.8397192269341929
  0
ARC
  5
D9A5
  8
0
 10
4188.5121003857630058
 20
240.1065857020116994
 30
0.0
 40
0.0757755593896574
 50
84.6584174491642187
 51
168.0154058846675866
  0
ARC
  5
D9A6
  8
0
 10
4188.5213594433507751
 20
240.105948587565706
 30
0.0
 40
0.0761155520284217
 50
15.7071881075711097
 51
91.6599402181670655
  0
ARC
  5
D9A7
  8
0
 10
4188.5327054751087417
 20
240.1204963690792908
 30
0.0
 40
0.0622228329240283
 50
288.156854658105317
 51
5.5874438906078581
  0
ARC
  5
D9A8
  8
0
 10
4188.5168453394962853
 20
240.1476332218454957
 30
0.0
 40
0.0931858053248283
 50
233.97546826298111
 51
292.2269538054368923
  0
ARC
  5
D9A9
  8
0
 10
4188.4959528202562069
 20
240.1193825021580039
 30
0.0
 40
0.0580507393103484
 50
177.0990741660990011
 51
234.253804899315611
  0
ARC
  5
D9AA
  8
0
 10
4188.5165069255926937
 20
240.1104743268386983
 30
0.0
 40
0.0466452535851338
 50
56.3791779487459479
 51
120.2326748442215063
  0
ARC
  5
D9AB
  8
0
 10
4188.5257966785893586
 20
240.1244455111421985
 30
0.0
 40
0.0298674855104996
 50
349.1638023361156797
 51
56.3791779487459479
  0
ARC
  5
D9AC
  8
0
 10
4188.5219191742016847
 20
240.1291123719308018
 30
0.0
 40
0.034767570704721
 50
285.3646608111246223
 51
342.7983560653294717
  0
ARC
  5
D9AD
  8
0
 10
4188.5166520065158693
 20
240.1391369074833904
 30
0.0
 40
0.0458934123654104
 50
230.6851145499431937
 51
288.3908184101596817
  0
ARC
  5
D9AE
  8
0
 10
4188.5060899069103471
 20
240.1258299569157941
 30
0.0
 40
0.0289073578222649
 50
181.2234412901360088
 51
230.1709566326746028
  0
ARC
  5
D9AF
  8
0
 10
4188.5076352962705641
 20
240.1240404692601089
 30
0.0
 40
0.0304687169845479
 50
118.663681998798296
 51
177.7950202283383021
  0
ARC
  5
D9B0
  8
0
 10
4188.5165927919933893
 20
240.1511844184439894
 30
0.0
 40
0.0385404512653389
 50
200.3199793758001022
 51
339.2725705177300028
  0
LINE
  5
D9B1
  8
0
 10
4188.5947960962457728
 20
240.1245504662473138
 30
0.0
 11
4188.5949876666491036
 21
240.1321874635092115
 31
0.0
  0
ARC
  5
D9B2
  8
0
 10
4188.535096612506095
 20
240.1424411671168002
 30
0.0
 40
0.0602405153643703
 50
41.8625004094477617
 51
76.2087945808638239
  0
ARC
  5
D9B3
  8
0
 10
4188.5213071928019417
 20
240.107003126524603
 30
0.0
 40
0.0980687929651053
 50
73.3190794735678821
 51
127.6525091128188052
  0
ARC
  5
D9B4
  8
0
 10
4188.4944859867537161
 20
240.1386818990870893
 30
0.0
 40
0.0566347856602984
 50
125.7466613848198023
 51
178.7553749153240119
  0
ARC
  5
D9B5
  8
0
 10
4188.0122477538134262
 20
240.3648168241981864
 30
0.0
 40
0.0779969061452228
 50
173.889233827069404
 51
186.8397192269341929
  0
ARC
  5
D9B6
  8
0
 10
4188.0089298520606462
 20
240.3397932991238122
 30
0.0
 40
0.0757755593896574
 50
84.6584174491642187
 51
168.0154058846675866
  0
ARC
  5
D9B7
  8
0
 10
4188.0181889096493251
 20
240.3391561846777904
 30
0.0
 40
0.0761155520284217
 50
15.7071881075711097
 51
91.6599402181670655
  0
ARC
  5
D9B8
  8
0
 10
4188.0295349414082011
 20
240.3537039661914037
 30
0.0
 40
0.0622228329240283
 50
288.156854658105317
 51
5.5874438906078581
  0
ARC
  5
D9B9
  8
0
 10
4188.0136748057948353
 20
240.3808408189576085
 30
0.0
 40
0.0931858053248283
 50
233.97546826298111
 51
292.2269538054368923
  0
ARC
  5
D9BA
  8
0
 10
4187.9927822865547569
 20
240.352590099270202
 30
0.0
 40
0.0580507393103484
 50
177.0990741660990011
 51
234.253804899315611
  0
ARC
  5
D9BB
  8
0
 10
4188.0133363918921532
 20
240.3436819239508111
 30
0.0
 40
0.0466452535851338
 50
56.3791779487459479
 51
120.2326748442215063
  0
ARC
  5
D9BC
  8
0
 10
4188.0226261448879086
 20
240.3576531082543113
 30
0.0
 40
0.0298674855104996
 50
349.1638023361156797
 51
56.3791779487459479
  0
ARC
  5
D9BD
  8
0
 10
4188.0187486405011441
 20
240.3623199690428862
 30
0.0
 40
0.034767570704721
 50
285.3646608111246223
 51
342.7983560653294717
  0
ARC
  5
D9BE
  8
0
 10
4188.0134814728144192
 20
240.3723445045955032
 30
0.0
 40
0.0458934123654104
 50
230.6851145499431937
 51
288.3908184101596817
  0
ARC
  5
D9BF
  8
0
 10
4188.002919373208897
 20
240.3590375540279069
 30
0.0
 40
0.0289073578222649
 50
181.2234412901360088
 51
230.1709566326746028
  0
ARC
  5
D9C0
  8
0
 10
4188.0044647625700236
 20
240.357248066372307
 30
0.0
 40
0.0304687169845479
 50
118.663681998798296
 51
177.7950202283383021
  0
ARC
  5
D9C1
  8
0
 10
4188.0134222582910297
 20
240.3843920155561023
 30
0.0
 40
0.0385404512653389
 50
200.3199793758001022
 51
339.2725705177300028
  0
LINE
  5
D9C2
  8
0
 10
4188.0916255625443227
 20
240.3577580633595119
 30
0.0
 11
4188.0921282495482956
 21
240.3777977940468134
 31
0.0
  0
ARC
  5
D9C3
  8
0
 10
4188.0319260788046449
 20
240.3756487642289983
 30
0.0
 40
0.0602405153643703
 50
2.0444126302486261
 51
76.2087945808638239
  0
ARC
  5
D9C4
  8
0
 10
4188.0181366590995822
 20
240.3402107236366874
 30
0.0
 40
0.0980687929651053
 50
73.3190794735678821
 51
83.6662622956407063
  0
ARC
  5
D9C5
  8
0
 10
4188.0181366590995822
 20
240.3402107236366874
 30
0.0
 40
0.0980687929651053
 50
113.4787325578459019
 51
127.6525091128188052
  0
ARC
  5
D9C6
  8
0
 10
4187.9913154530522661
 20
240.3718894961992021
 30
0.0
 40
0.0566347856602984
 50
125.7466613848198023
 51
178.7553749153240119
  0
ARC
  5
D9C7
  8
0
 10
4188.0056297503670066
 20
240.5457533384110889
 30
0.0
 40
0.0779969061452228
 50
173.889233827069404
 51
186.8397192269341929
  0
ARC
  5
D9C8
  8
0
 10
4188.0023118486151361
 20
240.5207298133366862
 30
0.0
 40
0.0757755593896574
 50
84.6584174491642187
 51
168.0154058846675866
  0
ARC
  5
D9C9
  8
0
 10
4188.011570906203815
 20
240.5200926988906929
 30
0.0
 40
0.0761155520284217
 50
15.7071881075711097
 51
91.6599402181670655
  0
ARC
  5
D9CA
  8
0
 10
4188.0229169379617815
 20
240.5346404804043061
 30
0.0
 40
0.0622228329240283
 50
288.156854658105317
 51
5.5874438906078581
  0
ARC
  5
D9CB
  8
0
 10
4188.0070568023484157
 20
240.5617773331705109
 30
0.0
 40
0.0931858053248283
 50
233.97546826298111
 51
292.2269538054368923
  0
ARC
  5
D9CC
  8
0
 10
4187.9861642831083373
 20
240.5335266134831045
 30
0.0
 40
0.0580507393103484
 50
177.0990741660990011
 51
234.253804899315611
  0
ARC
  5
D9CD
  8
0
 10
4188.0067183884457336
 20
240.5246184381637136
 30
0.0
 40
0.0466452535851338
 50
56.3791779487459479
 51
120.2326748442215063
  0
ARC
  5
D9CE
  8
0
 10
4188.0160081414405795
 20
240.5385896224672138
 30
0.0
 40
0.0298674855104996
 50
349.1638023361156797
 51
56.3791779487459479
  0
ARC
  5
D9CF
  8
0
 10
4188.012130637053815
 20
240.5432564832557887
 30
0.0
 40
0.034767570704721
 50
285.3646608111246223
 51
342.7983560653294717
  0
ARC
  5
D9D0
  8
0
 10
4188.0068634693689091
 20
240.5532810188084056
 30
0.0
 40
0.0458934123654104
 50
230.6851145499431937
 51
288.3908184101596817
  0
ARC
  5
D9D1
  8
0
 10
4187.9963013697615679
 20
240.5399740682408094
 30
0.0
 40
0.0289073578222649
 50
181.2234412901360088
 51
230.1709566326746028
  0
ARC
  5
D9D2
  8
0
 10
4187.997846759123604
 20
240.5381845805852095
 30
0.0
 40
0.0304687169845479
 50
118.663681998798296
 51
177.7950202283383021
  0
ARC
  5
D9D3
  8
0
 10
4188.0068042548437006
 20
240.5653285297690047
 30
0.0
 40
0.0385404512653389
 50
200.3199793758001022
 51
339.2725705177300028
  0
LINE
  5
D9D4
  8
0
 10
4188.0850075590997221
 20
240.5386945775723007
 30
0.0
 11
4188.085510246101876
 21
240.5587343082596874
 31
0.0
  0
ARC
  5
D9D5
  8
0
 10
4188.0253080753591348
 20
240.5565852784417871
 30
0.0
 40
0.0602405153643703
 50
2.0444126302486261
 51
76.2087945808638239
  0
ARC
  5
D9D6
  8
0
 10
4188.0115186556549816
 20
240.5211472378495898
 30
0.0
 40
0.0980687929651053
 50
73.3190794735678821
 51
76.3592998054265166
  0
ARC
  5
D9D7
  8
0
 10
4188.0115186556549816
 20
240.5211472378495898
 30
0.0
 40
0.0980687929651053
 50
105.0468195471084982
 51
127.6525091128188052
  0
ARC
  5
D9D8
  8
0
 10
4187.9846974496058465
 20
240.5528260104121046
 30
0.0
 40
0.0566347856602984
 50
125.7466613848198023
 51
178.7553749153240119
  0
ARC
  5
D9D9
  8
0
 10
4188.0099860200052717
 20
240.7230682700192119
 30
0.0
 40
0.0779969061452228
 50
173.889233827069404
 51
186.8397192269341929
  0
ARC
  5
D9DA
  8
0
 10
4188.0066681182506727
 20
240.6980447449448093
 30
0.0
 40
0.0757755593896574
 50
84.6584174491642187
 51
168.0154058846675866
  0
ARC
  5
D9DB
  8
0
 10
4188.015927175840261
 20
240.6974076304987875
 30
0.0
 40
0.0761155520284217
 50
15.7071881075711097
 51
91.6599402181670655
  0
ARC
  5
D9DC
  8
0
 10
4188.0272732075973181
 20
240.7119554120122871
 30
0.0
 40
0.0622228329240283
 50
288.156854658105317
 51
5.5874438906078581
  0
ARC
  5
D9DD
  8
0
 10
4188.0114130719839522
 20
240.7390922647786056
 30
0.0
 40
0.0931858053248283
 50
233.97546826298111
 51
292.2269538054368923
  0
ARC
  5
D9DE
  8
0
 10
4187.9905205527447833
 20
240.7108415450911139
 30
0.0
 40
0.0580507393103484
 50
177.0990741660990011
 51
234.253804899315611
  0
ARC
  5
D9DF
  8
0
 10
4188.0110746580821797
 20
240.7019333697718082
 30
0.0
 40
0.0466452535851338
 50
56.3791779487459479
 51
120.2326748442215063
  0
ARC
  5
D9E0
  8
0
 10
4188.0203644110779351
 20
240.7159045540751947
 30
0.0
 40
0.0298674855104996
 50
349.1638023361156797
 51
56.3791779487459479
  0
ARC
  5
D9E1
  8
0
 10
4188.0164869066920801
 20
240.7205714148639117
 30
0.0
 40
0.034767570704721
 50
285.3646608111246223
 51
342.7983560653294717
  0
ARC
  5
D9E2
  8
0
 10
4188.0112197390062647
 20
240.7305959504165003
 30
0.0
 40
0.0458934123654104
 50
230.6851145499431937
 51
288.3908184101596817
  0
ARC
  5
D9E3
  8
0
 10
4188.000657639398014
 20
240.7172889998487904
 30
0.0
 40
0.0289073578222649
 50
181.2234412901360088
 51
230.1709566326746028
  0
ARC
  5
D9E4
  8
0
 10
4188.0022030287609596
 20
240.7154995121931904
 30
0.0
 40
0.0304687169845479
 50
118.663681998798296
 51
177.7950202283383021
  0
ARC
  5
D9E5
  8
0
 10
4188.0111605244810562
 20
240.7426434613770994
 30
0.0
 40
0.0385404512653389
 50
200.3199793758001022
 51
339.2725705177300028
  0
LINE
  5
D9E6
  8
0
 10
4188.0893638287361682
 20
240.7160095091803953
 30
0.0
 11
4188.0898665157383221
 21
240.7360492398678105
 31
0.0
  0
ARC
  5
D9E7
  8
0
 10
4188.0296643449955809
 20
240.7339002100499101
 30
0.0
 40
0.0602405153643703
 50
2.0444126302486261
 51
76.2087945808638239
  0
ARC
  5
D9E8
  8
0
 10
4188.0158749252914276
 20
240.6984621694577129
 30
0.0
 40
0.0980687929651053
 50
73.3190794735678821
 51
106.9142407267348034
  0
ARC
  5
D9E9
  8
0
 10
4187.9890537192432021
 20
240.7301409420201992
 30
0.0
 40
0.0566347856602984
 50
137.7328364020862921
 51
178.7553749153240119
  0
ARC
  5
D9EA
  8
0
 10
4187.8290539847912441
 20
240.9942897305693918
 30
0.0
 40
0.1307033241075983
 50
103.7123835193726933
 51
134.565771758940798
  0
ARC
  5
D9EB
  8
0
 10
4187.8260141735199795
 20
241.0031331708183018
 30
0.0
 40
0.1223364621502301
 50
136.4582268263262108
 51
195.9317628418166066
  0
ARC
  5
D9EC
  8
0
 10
4187.8287717587672887
 20
241.011535331365593
 30
0.0
 40
0.1275048909555202
 50
199.2240194827720927
 51
273.8259164365512106
  0
ARC
  5
D9ED
  8
0
 10
4187.8363067392074299
 20
240.9677283568312021
 30
0.0
 40
0.0848405799117859
 50
54.4928582906560806
 51
143.0944207783448121
  0
ARC
  5
D9EE
  8
0
 10
4187.8154892449028921
 20
240.9912649785860026
 30
0.0
 40
0.0544287955943765
 50
149.7619735020882956
 51
242.3282828798355126
  0
ARC
  5
D9EF
  8
0
 10
4187.829225343834878
 20
240.9632670131126133
 30
0.0
 40
0.133416026159747
 50
92.6353507398124236
 51
145.4080866904085099
  0
ARC
  5
D9F0
  8
0
 10
4187.7939034797209388
 20
240.99158847571249
 30
0.0
 40
0.0883198510123077
 50
147.5244021224301889
 51
194.4478751759417889
  0
LINE
  5
D9F1
  8
0
 10
4187.8315408191738243
 20
241.0509242954180991
 30
0.0
 11
4187.8433518427736999
 21
241.0509242954180991
 31
0.0
  0
LINE
  5
D9F2
  8
0
 10
4187.8433518427736999
 20
241.0509242954180991
 30
0.0
 11
4187.8433518427736999
 21
241.0320018211180013
 31
0.0
  0
LINE
  5
D9F3
  8
0
 10
4187.8433518427736999
 20
241.0320018211180013
 30
0.0
 11
4187.8315408191738243
 21
241.0320018211180013
 31
0.0
  0
LINE
  5
D9F4
  8
0
 10
4187.8315408191738243
 20
241.0320018211180013
 30
0.0
 11
4187.8315408191738243
 21
241.0509242954180991
 31
0.0
  0
LINE
  5
D9F5
  8
0
 10
4187.8315408191738243
 20
241.035257380418102
 30
0.0
 11
4187.8433518427736999
 21
241.035257380418102
 31
0.0
  0
LINE
  5
D9F6
  8
0
 10
4187.8077813031413825
 20
241.0476296928463
 30
0.0
 11
4187.8084828678229314
 21
241.0315393005251963
 31
0.0
  0
LINE
  5
D9F7
  8
0
 10
4187.8084828678229314
 20
241.0315393005251963
 30
0.0
 11
4187.8044981581460888
 21
241.0313655613446997
 31
0.0
  0
LINE
  5
D9F8
  8
0
 10
4187.7965538279022439
 20
241.0340081848748071
 30
0.0
 11
4187.7961843539287656
 21
241.0424820737914899
 31
0.0
  0
LINE
  5
D9F9
  8
0
 10
4187.8083411695806717
 20
241.0347891509738929
 30
0.0
 11
4187.7965404202377613
 21
241.0343156897542087
 31
0.0
  0
ARC
  5
D9FA
  8
0
 10
4187.8579608972686401
 20
240.9925511354732919
 30
0.0
 40
0.0521558269405727
 50
320.8322349223108745
 51
58.0216964982262482
  0
ARC
  5
D9FB
  8
0
 10
4187.8342446785709399
 20
241.0171040167101921
 30
0.0
 40
0.0861460200966316
 50
239.2603927327944007
 51
318.1330262593144766
  0
LINE
  5
D9FC
  8
0
 10
4187.8670703080861131
 20
241.0467949542641009
 30
0.0
 11
4187.8664051392297552
 21
241.0315393005251963
 31
0.0
  0
LINE
  5
D9FD
  8
0
 10
4187.8664051392297552
 20
241.0315393005251963
 30
0.0
 11
4187.8669879710678288
 21
241.0315138882029942
 31
0.0
  0
LINE
  5
D9FE
  8
0
 10
4187.8784030532206089
 20
241.0355878123168907
 30
0.0
 11
4187.8786498015551842
 21
241.041246987604211
 31
0.0
  0
LINE
  5
D9FF
  8
0
 10
4187.8665468374711054
 20
241.0347891509738929
 30
0.0
 11
4187.8755304682663336
 21
241.0344287161684065
 31
0.0
  0
ARC
  5
DA00
  8
0
 10
4187.8339472797515555
 20
240.9832119016477066
 30
0.0
 40
0.1426412300706971
 50
61.9898527853609167
 51
104.5671236886623063
  0
ARC
  5
DA01
  8
0
 10
4187.8446646695938398
 20
241.0006487029963012
 30
0.0
 40
0.1224374295904077
 50
348.3456831360927026
 51
1.2021168861737761
  0
ARC
  5
DA02
  8
0
 10
4187.8346319046640929
 20
240.991725000079299
 30
0.0
 40
0.1357786026604995
 50
27.9521368331633511
 51
37.7587306114802104
  0
ARC
  5
DA03
  8
0
 10
4187.8430938861083632
 20
241.0104885406204005
 30
0.0
 40
0.1263078381141446
 50
267.3615683089226991
 51
344.1142463136745278
  0
ARC
  5
DA04
  8
0
 10
4187.8383847752556903
 20
240.957900301420807
 30
0.0
 40
0.1394826292475497
 50
34.7690717381237704
 51
96.2949502175381156
  0
ARC
  5
DA05
  8
0
 10
4187.8775125214251602
 20
240.9925261279049948
 30
0.0
 40
0.0878090318866278
 50
341.3475131349434832
 51
30.7658038954048294
  0
ARC
  5
DA06
  8
0
 10
4187.8354906096492414
 20
241.1377985010745988
 30
0.0
 40
0.110853519157603
 50
244.7116774918436022
 51
295.8382182055610201
  0
ARC
  5
DA07
  8
0
 10
4187.874486500061721
 20
241.0085919249588073
 30
0.0
 40
0.0927445112290581
 50
356.6778367491559152
 51
30.2892170359789397
  0
ARC
  5
DA08
  8
0
 10
4189.2561838513292969
 20
240.3046250190635931
 30
0.0
 40
0.1472436069846795
 50
115.1490873197783031
 51
131.7211397540187932
  0
ARC
  5
DA09
  8
0
 10
4189.2232907837069433
 20
240.3377567510707991
 30
0.0
 40
0.100654893406351
 50
130.296901695825909
 51
195.7141184153497022
  0
ARC
  5
DA0A
  8
0
 10
4189.246792879928762
 20
240.3524781970434958
 30
0.0
 40
0.1275048909555202
 50
199.2240194827720927
 51
273.8259164365512106
  0
ARC
  5
DA0B
  8
0
 10
4189.2543278603679937
 20
240.3086712225091048
 30
0.0
 40
0.0848405799117859
 50
54.4928582906560806
 51
143.0944207783448121
  0
ARC
  5
DA0C
  8
0
 10
4189.2335103660643654
 20
240.3322078442639054
 30
0.0
 40
0.0544287955943765
 50
149.7619735020882956
 51
242.3282828798355126
  0
ARC
  5
DA0D
  8
0
 10
4189.2472464649963513
 20
240.3042098787904877
 30
0.0
 40
0.133416026159747
 50
92.6353507398124236
 51
145.4080866904085099
  0
ARC
  5
DA0E
  8
0
 10
4189.2119246008824121
 20
240.3325313413903928
 30
0.0
 40
0.0883198510123077
 50
147.5244021224301889
 51
194.4478751759417889
  0
LINE
  5
DA0F
  8
0
 10
4189.2495619403352975
 20
240.3918671610958882
 30
0.0
 11
4189.2613729639351732
 21
240.3918671610958882
 31
0.0
  0
LINE
  5
DA10
  8
0
 10
4189.2613729639351732
 20
240.3918671610958882
 30
0.0
 11
4189.2613729639351732
 21
240.3729446867959041
 31
0.0
  0
LINE
  5
DA11
  8
0
 10
4189.2613729639351732
 20
240.3729446867959041
 30
0.0
 11
4189.2495619403352975
 21
240.3729446867959041
 31
0.0
  0
LINE
  5
DA12
  8
0
 10
4189.2495619403352975
 20
240.3729446867959041
 30
0.0
 11
4189.2495619403352975
 21
240.3918671610958882
 31
0.0
  0
LINE
  5
DA13
  8
0
 10
4189.2495619403352975
 20
240.3762002460958911
 30
0.0
 11
4189.2613729639351732
 21
240.3762002460958911
 31
0.0
  0
LINE
  5
DA14
  8
0
 10
4189.2258024243019463
 20
240.3885725585242028
 30
0.0
 11
4189.2265039889844047
 21
240.372482166203099
 31
0.0
  0
LINE
  5
DA15
  8
0
 10
4189.2265039889844047
 20
240.372482166203099
 30
0.0
 11
4189.2225192793075621
 21
240.3723084270226025
 31
0.0
  0
LINE
  5
DA16
  8
0
 10
4189.2145749490637172
 20
240.3749510505527098
 30
0.0
 11
4189.2142054750902389
 21
240.3834249394693074
 31
0.0
  0
LINE
  5
DA17
  8
0
 10
4189.226362290742145
 20
240.3757320166517104
 30
0.0
 11
4189.2145615414001441
 21
240.3752585554321115
 31
0.0
  0
ARC
  5
DA18
  8
0
 10
4189.2759820184310229
 20
240.3334940011511947
 30
0.0
 40
0.0521558269405727
 50
320.8322349223108745
 51
58.0216964982262482
  0
ARC
  5
DA19
  8
0
 10
4189.2522657997333226
 20
240.3580468823880096
 30
0.0
 40
0.0861460200966316
 50
239.2603927327944007
 51
318.1330262593144766
  0
LINE
  5
DA1A
  8
0
 10
4189.2850914292466769
 20
240.3877378199418899
 30
0.0
 11
4189.2844262603903189
 21
240.372482166203099
 31
0.0
  0
LINE
  5
DA1B
  8
0
 10
4189.2844262603903189
 20
240.372482166203099
 30
0.0
 11
4189.2850090922302115
 21
240.3724567538808969
 31
0.0
  0
LINE
  5
DA1C
  8
0
 10
4189.2964241743820821
 20
240.3765306779947935
 30
0.0
 11
4189.2966709227166575
 21
240.3821898532821137
 31
0.0
  0
LINE
  5
DA1D
  8
0
 10
4189.2845679586307597
 20
240.3757320166517104
 30
0.0
 11
4189.2935515894268974
 21
240.3753715818463093
 31
0.0
  0
ARC
  5
DA1E
  8
0
 10
4189.2621072795163855
 20
240.2995827537069999
 30
0.0
 40
0.1543587703346822
 50
58.5640166735909773
 51
64.2092134578136324
  0
ARC
  5
DA1F
  8
0
 10
4189.2621072795163855
 20
240.2995827537069999
 30
0.0
 40
0.1543587703346822
 50
83.1118434592877549
 51
116.3440505819043977
  0
ARC
  5
DA20
  8
0
 10
4189.279636520573149
 20
240.3417381618012882
 30
0.0
 40
0.1094744174984869
 50
23.485373726484049
 51
54.8823879547600271
  0
ARC
  5
DA21
  8
0
 10
4189.261115007268927
 20
240.3514314062981896
 30
0.0
 40
0.1263078381141481
 50
267.3615683089226991
 51
338.6198042803317207
  0
ARC
  5
DA22
  8
0
 10
4189.2564058964162541
 20
240.2988431670987097
 30
0.0
 40
0.1394826292475497
 50
34.7690717381237704
 51
96.2949502175381156
  0
ARC
  5
DA23
  8
0
 10
4189.2955336425848145
 20
240.3334689935828123
 30
0.0
 40
0.0878090318866278
 50
341.3475131349434832
 51
30.7658038954048294
  0
ARC
  5
DA24
  8
0
 10
4189.2535117308098052
 20
240.4787413667525016
 30
0.0
 40
0.110853519157603
 50
244.7116774918436022
 51
295.8382182055610201
  0
ARC
  5
DA25
  8
0
 10
4189.2795984836820935
 20
240.3577890911163024
 30
0.0
 40
0.1041604826861868
 50
352.1011715471248067
 51
15.3519700137486304
  0
ARC
  5
DA26
  8
0
 10
4188.8926584562323114
 20
239.9536998355636115
 30
0.0
 40
0.1472436069846795
 50
115.1490873197783031
 51
131.7211397540187932
  0
ARC
  5
DA27
  8
0
 10
4188.8597653886108674
 20
239.986831567570789
 30
0.0
 40
0.100654893406351
 50
130.296901695825909
 51
195.7141184153497022
  0
ARC
  5
DA28
  8
0
 10
4188.883267484832686
 20
240.0015530135434858
 30
0.0
 40
0.1275048909555202
 50
199.2240194827720927
 51
273.8259164365512106
  0
ARC
  5
DA29
  8
0
 10
4188.8908024652719178
 20
239.9577460390090948
 30
0.0
 40
0.0848405799117859
 50
54.4928582906560806
 51
143.0944207783448121
  0
ARC
  5
DA2A
  8
0
 10
4188.8699849709682894
 20
239.9812826607638954
 30
0.0
 40
0.0544287955943765
 50
149.7619735020882956
 51
242.3282828798355126
  0
ARC
  5
DA2B
  8
0
 10
4188.8837210699002753
 20
239.9532846952903924
 30
0.0
 40
0.133416026159747
 50
92.6353507398124236
 51
145.4080866904085099
  0
ARC
  5
DA2C
  8
0
 10
4188.8483992057863361
 20
239.9816061578904112
 30
0.0
 40
0.0883198510123077
 50
147.5244021224301889
 51
194.4478751759417889
  0
LINE
  5
DA2D
  8
0
 10
4188.8860365452392216
 20
240.0409419775959066
 30
0.0
 11
4188.8978475688400067
 21
240.0409419775959066
 31
0.0
  0
LINE
  5
DA2E
  8
0
 10
4188.8978475688400067
 20
240.0409419775959066
 30
0.0
 11
4188.8978475688400067
 21
240.0220195032958941
 31
0.0
  0
LINE
  5
DA2F
  8
0
 10
4188.8978475688400067
 20
240.0220195032958941
 30
0.0
 11
4188.8860365452392216
 21
240.0220195032958941
 31
0.0
  0
LINE
  5
DA30
  8
0
 10
4188.8860365452392216
 20
240.0220195032958941
 30
0.0
 11
4188.8860365452392216
 21
240.0409419775959066
 31
0.0
  0
LINE
  5
DA31
  8
0
 10
4188.8860365452392216
 20
240.0252750625959095
 30
0.0
 11
4188.8978475688400067
 21
240.0252750625959095
 31
0.0
  0
LINE
  5
DA32
  8
0
 10
4188.8622770292058703
 20
240.0376473750241928
 30
0.0
 11
4188.8629785938883288
 21
240.021556982703089
 31
0.0
  0
LINE
  5
DA33
  8
0
 10
4188.8629785938883288
 20
240.021556982703089
 30
0.0
 11
4188.8589938842123956
 21
240.0213832435225925
 31
0.0
  0
LINE
  5
DA34
  8
0
 10
4188.8510495539667318
 20
240.0240258670526998
 30
0.0
 11
4188.850680079994163
 21
240.0324997559692974
 31
0.0
  0
LINE
  5
DA35
  8
0
 10
4188.8628368956469785
 20
240.0248068331517004
 30
0.0
 11
4188.8510361463040681
 21
240.0243333719321015
 31
0.0
  0
ARC
  5
DA36
  8
0
 10
4188.9124566233340374
 20
239.9825688176512131
 30
0.0
 40
0.0521558269405727
 50
320.8322349223108745
 51
58.0216964982262482
  0
ARC
  5
DA37
  8
0
 10
4188.8887404046363372
 20
240.0071216988879996
 30
0.0
 40
0.0861460200966316
 50
239.2603927327944007
 51
318.1330262593144766
  0
LINE
  5
DA38
  8
0
 10
4188.9215660341506009
 20
240.0368126364419084
 30
0.0
 11
4188.9209008652951525
 21
240.021556982703089
 31
0.0
  0
LINE
  5
DA39
  8
0
 10
4188.9209008652951525
 20
240.021556982703089
 30
0.0
 11
4188.9214836971332261
 21
240.0215315703808869
 31
0.0
  0
LINE
  5
DA3A
  8
0
 10
4188.9328987792850967
 20
240.0256054944948119
 30
0.0
 11
4188.9331455276196721
 21
240.0312646697821037
 31
0.0
  0
LINE
  5
DA3B
  8
0
 10
4188.9210425635374122
 20
240.0248068331517004
 30
0.0
 11
4188.9300261943317309
 21
240.0244463983462992
 31
0.0
  0
ARC
  5
DA3C
  8
0
 10
4188.8985818844194
 20
239.9486575702069899
 30
0.0
 40
0.1543587703346822
 50
58.5640166735909773
 51
116.3440505819043977
  0
ARC
  5
DA3D
  8
0
 10
4188.9161111254761636
 20
239.9908129783013067
 30
0.0
 40
0.1094744174984869
 50
42.7088943431486427
 51
54.8823879547600271
  0
ARC
  5
DA3E
  8
0
 10
4188.8975896121737605
 20
240.000506222798208
 30
0.0
 40
0.1263078381141481
 50
267.3615683089226991
 51
338.6198042803317207
  0
ARC
  5
DA3F
  8
0
 10
4188.8928805013210876
 20
239.947917983598586
 30
0.0
 40
0.1394826292475497
 50
34.7690717381237704
 51
96.2949502175381156
  0
ARC
  5
DA40
  8
0
 10
4188.9320082474896481
 20
239.9825438100828876
 30
0.0
 40
0.0878090318866278
 50
341.3475131349434832
 51
30.7658038954048294
  0
ARC
  5
DA41
  8
0
 10
4188.8899863357137292
 20
240.1278161832524916
 30
0.0
 40
0.110853519157603
 50
244.7116774918436022
 51
295.8382182055610201
  0
ARC
  5
DA42
  8
0
 10
4188.916073088586927
 20
240.0068639076162924
 30
0.0
 40
0.1041604826861868
 50
352.1011715471248067
 51
9.0440807934666481
  0
ARC
  5
DA43
  8
0
 10
4188.3356830629327305
 20
239.8741515518636049
 30
0.0
 40
0.1472436069846795
 50
115.1490873197783031
 51
131.7211397540187932
  0
ARC
  5
DA44
  8
0
 10
4188.3027899953112865
 20
239.9072832838708109
 30
0.0
 40
0.100654893406351
 50
130.296901695825909
 51
195.7141184153497022
  0
ARC
  5
DA45
  8
0
 10
4188.3262920915340146
 20
239.9220047298435077
 30
0.0
 40
0.1275048909555202
 50
199.2240194827720927
 51
273.8259164365512106
  0
ARC
  5
DA46
  8
0
 10
4188.3338270719723369
 20
239.878197755309003
 30
0.0
 40
0.0848405799117859
 50
54.4928582906560806
 51
143.0944207783448121
  0
ARC
  5
DA47
  8
0
 10
4188.313009577667799
 20
239.9017343770638888
 30
0.0
 40
0.0544287955943765
 50
149.7619735020882956
 51
242.3282828798355126
  0
ARC
  5
DA48
  8
0
 10
4188.3267456765997849
 20
239.8737364115904995
 30
0.0
 40
0.133416026159747
 50
92.6353507398124236
 51
145.4080866904085099
  0
ARC
  5
DA49
  8
0
 10
4188.2914238124858457
 20
239.9020578741902909
 30
0.0
 40
0.0883198510123077
 50
147.5244021224301889
 51
194.4478751759417889
  0
LINE
  5
DA4A
  8
0
 10
4188.3290611519387312
 20
239.9613936938959
 30
0.0
 11
4188.3408721755386068
 21
239.9613936938959
 31
0.0
  0
LINE
  5
DA4B
  8
0
 10
4188.3408721755386068
 20
239.9613936938959
 30
0.0
 11
4188.3408721755386068
 21
239.9424712195958875
 31
0.0
  0
LINE
  5
DA4C
  8
0
 10
4188.3408721755386068
 20
239.9424712195958875
 30
0.0
 11
4188.3290611519387312
 21
239.9424712195958875
 31
0.0
  0
LINE
  5
DA4D
  8
0
 10
4188.3290611519387312
 20
239.9424712195958875
 30
0.0
 11
4188.3290611519387312
 21
239.9613936938959
 31
0.0
  0
LINE
  5
DA4E
  8
0
 10
4188.3290611519387312
 20
239.945726778895903
 30
0.0
 11
4188.3408721755386068
 21
239.945726778895903
 31
0.0
  0
LINE
  5
DA4F
  8
0
 10
4188.3053016359062894
 20
239.9580990913241862
 30
0.0
 11
4188.3060032005878384
 21
239.9420086990031109
 31
0.0
  0
LINE
  5
DA50
  8
0
 10
4188.3060032005878384
 20
239.9420086990031109
 30
0.0
 11
4188.3020184909119052
 21
239.9418349598225859
 31
0.0
  0
LINE
  5
DA51
  8
0
 10
4188.2940741606680604
 20
239.9444775833526933
 30
0.0
 11
4188.2937046866945821
 21
239.9529514722692909
 31
0.0
  0
LINE
  5
DA52
  8
0
 10
4188.3058615023455786
 20
239.9452585494516939
 30
0.0
 11
4188.2940607530035777
 21
239.9447850882320949
 31
0.0
  0
ARC
  5
DA53
  8
0
 10
4188.355481230035366
 20
239.9030205339512065
 30
0.0
 40
0.0521558269405727
 50
320.8322349223108745
 51
58.0216964982262482
  0
ARC
  5
DA54
  8
0
 10
4188.3317650113358468
 20
239.9275734151879931
 30
0.0
 40
0.0861460200966316
 50
239.2603927327944007
 51
318.1330262593144766
  0
LINE
  5
DA55
  8
0
 10
4188.3645906408501105
 20
239.9572643527419018
 30
0.0
 11
4188.3639254719937526
 21
239.9420086990031109
 31
0.0
  0
LINE
  5
DA56
  8
0
 10
4188.3639254719937526
 20
239.9420086990031109
 30
0.0
 11
4188.3645083038327357
 21
239.9419832866809088
 31
0.0
  0
LINE
  5
DA57
  8
0
 10
4188.3759233859864253
 20
239.9460572107948053
 30
0.0
 11
4188.3761701343210007
 21
239.9517163860820119
 31
0.0
  0
LINE
  5
DA58
  8
0
 10
4188.3640671702360123
 20
239.9452585494516939
 30
0.0
 11
4188.37305080103215
 21
239.9448981146462927
 31
0.0
  0
ARC
  5
DA59
  8
0
 10
4188.3416064911180001
 20
239.8691092865070118
 30
0.0
 40
0.1543587703346822
 50
73.7145832834970065
 51
116.3440505819043977
  0
ARC
  5
DA5A
  8
0
 10
4188.3591357321747637
 20
239.9112646946013001
 30
0.0
 40
0.1094744174984869
 50
23.485373726484049
 51
47.9863839467437785
  0
ARC
  5
DA5B
  8
0
 10
4188.3406142188741796
 20
239.9209579390982015
 30
0.0
 40
0.1263078381141481
 50
267.3615683089226991
 51
338.6198042803317207
  0
ARC
  5
DA5C
  8
0
 10
4188.3359051080196878
 20
239.8683696998986932
 30
0.0
 40
0.1394826292475497
 50
34.7690717381237704
 51
52.7722953136858024
  0
ARC
  5
DA5D
  8
0
 10
4188.3359051080196878
 20
239.8683696998986932
 30
0.0
 40
0.1394826292475497
 50
72.7818969238590938
 51
96.2949502175381156
  0
ARC
  5
DA5E
  8
0
 10
4188.3750328541900672
 20
239.9029955263829095
 30
0.0
 40
0.0878090318866278
 50
341.3475131349434832
 51
30.7658038954048294
  0
ARC
  5
DA5F
  8
0
 10
4188.3330109424141483
 20
240.0482678995523997
 30
0.0
 40
0.110853519157603
 50
244.7116774918436022
 51
295.8382182055610201
  0
ARC
  5
DA60
  8
0
 10
4188.3590976952864366
 20
239.9273156239162859
 30
0.0
 40
0.1041604826861868
 50
352.1011715471248067
 51
15.3519700137486304
  0
ARC
  5
DA61
  8
0
 10
4187.6408857209171401
 20
240.5643402472458945
 30
0.0
 40
0.1307033241075983
 50
103.7123835193726933
 51
134.565771758940798
  0
ARC
  5
DA62
  8
0
 10
4187.637845909644966
 20
240.5731836874948044
 30
0.0
 40
0.1223364621502301
 50
136.4582268263262108
 51
195.9317628418166066
  0
ARC
  5
DA63
  8
0
 10
4187.6406034948940942
 20
240.5815858480420957
 30
0.0
 40
0.1275048909555202
 50
199.2240194827720927
 51
273.8259164365512106
  0
ARC
  5
DA64
  8
0
 10
4187.6481384753333259
 20
240.5377788735077047
 30
0.0
 40
0.0848405799117859
 50
54.4928582906560806
 51
143.0944207783448121
  0
ARC
  5
DA65
  8
0
 10
4187.6273209810278786
 20
240.5613154952625052
 30
0.0
 40
0.0544287955943765
 50
149.7619735020882956
 51
242.3282828798355126
  0
ARC
  5
DA66
  8
0
 10
4187.6410570799616835
 20
240.5333175297890875
 30
0.0
 40
0.133416026159747
 50
92.6353507398124236
 51
145.4080866904085099
  0
ARC
  5
DA67
  8
0
 10
4187.6057352158468348
 20
240.5616389923889926
 30
0.0
 40
0.0883198510123077
 50
147.5244021224301889
 51
194.4478751759417889
  0
LINE
  5
DA68
  8
0
 10
4187.6433725552997203
 20
240.620974812094488
 30
0.0
 11
4187.6551835788995959
 21
240.620974812094488
 31
0.0
  0
LINE
  5
DA69
  8
0
 10
4187.6551835788995959
 20
240.620974812094488
 30
0.0
 11
4187.6551835788995959
 21
240.602052337794504
 31
0.0
  0
LINE
  5
DA6A
  8
0
 10
4187.6551835788995959
 20
240.602052337794504
 30
0.0
 11
4187.6433725552997203
 21
240.602052337794504
 31
0.0
  0
LINE
  5
DA6B
  8
0
 10
4187.6433725552997203
 20
240.602052337794504
 30
0.0
 11
4187.6433725552997203
 21
240.620974812094488
 31
0.0
  0
LINE
  5
DA6C
  8
0
 10
4187.6433725552997203
 20
240.605307897094491
 30
0.0
 11
4187.6551835788995959
 21
240.605307897094491
 31
0.0
  0
LINE
  5
DA6D
  8
0
 10
4187.6196130392672785
 20
240.6176802095228027
 30
0.0
 11
4187.6203146039488274
 21
240.6015898172016989
 31
0.0
  0
LINE
  5
DA6E
  8
0
 10
4187.6203146039488274
 20
240.6015898172016989
 30
0.0
 11
4187.6163298942728943
 21
240.6014160780212876
 31
0.0
  0
LINE
  5
DA6F
  8
0
 10
4187.6083855640281399
 20
240.6040587015513097
 30
0.0
 11
4187.6080160900546616
 21
240.6125325904679073
 31
0.0
  0
LINE
  5
DA70
  8
0
 10
4187.6201729057065677
 20
240.6048396676503955
 30
0.0
 11
4187.6083721563645668
 21
240.6043662064307114
 31
0.0
  0
ARC
  5
DA71
  8
0
 10
4187.6697926333954456
 20
240.5626016521497945
 30
0.0
 40
0.0521558269405727
 50
320.8322349223108745
 51
58.0216964982262482
  0
ARC
  5
DA72
  8
0
 10
4187.6460764146959264
 20
240.5871545333866095
 30
0.0
 40
0.0861460200966316
 50
239.2603927327944007
 51
318.1330262593144766
  0
LINE
  5
DA73
  8
0
 10
4187.6789020442110996
 20
240.6168454709406035
 30
0.0
 11
4187.6782368753547416
 21
240.6015898172016989
 31
0.0
  0
LINE
  5
DA74
  8
0
 10
4187.6782368753547416
 20
240.6015898172016989
 30
0.0
 11
4187.6788197071937248
 21
240.6015644048796105
 31
0.0
  0
LINE
  5
DA75
  8
0
 10
4187.6902347893455953
 20
240.6056383289933933
 30
0.0
 11
4187.6904815376810802
 21
240.6112975042807136
 31
0.0
  0
LINE
  5
DA76
  8
0
 10
4187.6783785735970014
 20
240.6048396676503955
 30
0.0
 11
4187.6873622043922296
 21
240.6044792328449944
 31
0.0
  0
ARC
  5
DA77
  8
0
 10
4187.645779015878361
 20
240.5532624183242092
 30
0.0
 40
0.1426412300706971
 50
49.9045139838655487
 51
82.9914902561727956
  0
ARC
  5
DA78
  8
0
 10
4187.645779015878361
 20
240.5532624183242092
 30
0.0
 40
0.1426412300706971
 50
102.3093284487482038
 51
104.5671236886623063
  0
ARC
  5
DA79
  8
0
 10
4187.6564964057188263
 20
240.5706992196728038
 30
0.0
 40
0.1224374295904077
 50
348.3456831360927026
 51
1.2021168861737761
  0
ARC
  5
DA7A
  8
0
 10
4187.6464636407899889
 20
240.5617755167558016
 30
0.0
 40
0.1357786026604995
 50
27.9521368331633511
 51
47.8113443842272403
  0
ARC
  5
DA7B
  8
0
 10
4187.6549256222351687
 20
240.5805390572969031
 30
0.0
 40
0.1263078381141446
 50
267.3615683089226991
 51
344.1142463136745278
  0
ARC
  5
DA7C
  8
0
 10
4187.6502165113806768
 20
240.5279508180973096
 30
0.0
 40
0.1394826292475497
 50
34.7690717381237704
 51
96.2949502175381156
  0
ARC
  5
DA7D
  8
0
 10
4187.6893442575519657
 20
240.5625766445814975
 30
0.0
 40
0.0878090318866278
 50
341.3475131349434832
 51
30.7658038954048294
  0
ARC
  5
DA7E
  8
0
 10
4187.6473223457751374
 20
240.7078490177511014
 30
0.0
 40
0.110853519157603
 50
244.7116774918436022
 51
295.8382182055610201
  0
ARC
  5
DA7F
  8
0
 10
4187.686318236187617
 20
240.5786424416353952
 30
0.0
 40
0.0927445112290581
 50
356.6778367491559152
 51
30.2892170359789397
  0
ARC
  5
DA80
  8
0
 10
4187.8225310133502717
 20
240.1239925819936047
 30
0.0
 40
0.1242958197571892
 50
97.3492813364377838
 51
113.6824934385262935
  0
ARC
  5
DA81
  8
0
 10
4187.8227628392123734
 20
240.1422372964686929
 30
0.0
 40
0.1129061955545768
 50
144.1792678945699038
 51
197.2061306278490065
  0
ARC
  5
DA82
  8
0
 10
4187.8353045834819568
 20
240.1508210665953982
 30
0.0
 40
0.1275048909555202
 50
199.2240194827720927
 51
273.8259164365512106
  0
ARC
  5
DA83
  8
0
 10
4187.8428395639230075
 20
240.1070140920608935
 30
0.0
 40
0.0848405799117859
 50
54.4928582906560806
 51
143.0944207783448121
  0
ARC
  5
DA84
  8
0
 10
4187.8220220696175602
 20
240.1305507138156941
 30
0.0
 40
0.0544287955943765
 50
149.7619735020882956
 51
242.3282828798355126
  0
ARC
  5
DA85
  8
0
 10
4187.8357581685495461
 20
240.1025527483423048
 30
0.0
 40
0.133416026159747
 50
92.6353507398124236
 51
145.4080866904085099
  0
ARC
  5
DA86
  8
0
 10
4187.8004363044374259
 20
240.1308742109422951
 30
0.0
 40
0.0883198510123077
 50
147.5244021224301889
 51
194.4478751759417889
  0
LINE
  5
DA87
  8
0
 10
4187.8380736438894019
 20
240.1902100306477053
 30
0.0
 11
4187.8498846674892775
 21
240.1902100306477053
 31
0.0
  0
LINE
  5
DA88
  8
0
 10
4187.8498846674892775
 20
240.1902100306477053
 30
0.0
 11
4187.8498846674892775
 21
240.1712875563478065
 31
0.0
  0
LINE
  5
DA89
  8
0
 10
4187.8498846674892775
 20
240.1712875563478065
 30
0.0
 11
4187.8380736438894019
 21
240.1712875563478065
 31
0.0
  0
LINE
  5
DA8A
  8
0
 10
4187.8380736438894019
 20
240.1712875563478065
 30
0.0
 11
4187.8380736438894019
 21
240.1902100306477053
 31
0.0
  0
LINE
  5
DA8B
  8
0
 10
4187.8380736438894019
 20
240.1745431156477082
 30
0.0
 11
4187.8498846674892775
 21
240.1745431156477082
 31
0.0
  0
LINE
  5
DA8C
  8
0
 10
4187.8143141278560506
 20
240.1869154280761052
 30
0.0
 11
4187.8150156925375995
 21
240.1708250357548877
 31
0.0
  0
LINE
  5
DA8D
  8
0
 10
4187.8150156925375995
 20
240.1708250357548877
 30
0.0
 11
4187.8110309828625759
 21
240.1706512965745048
 31
0.0
  0
LINE
  5
DA8E
  8
0
 10
4187.8030866526178215
 20
240.1732939201046122
 30
0.0
 11
4187.8027171786443432
 21
240.1817678090212098
 31
0.0
  0
LINE
  5
DA8F
  8
0
 10
4187.8148739942971588
 20
240.1740748862036128
 30
0.0
 11
4187.8030732449542484
 21
240.1736014249839002
 31
0.0
  0
ARC
  5
DA90
  8
0
 10
4187.8644937219851272
 20
240.1318368707030118
 30
0.0
 40
0.0521558269405727
 50
320.8322349223108745
 51
58.0216964982262482
  0
ARC
  5
DA91
  8
0
 10
4187.840777503287427
 20
240.156389751939912
 30
0.0
 40
0.0861460200966316
 50
239.2603927327944007
 51
318.1330262593144766
  0
LINE
  5
DA92
  8
0
 10
4187.8736031328016907
 20
240.1860806894937923
 30
0.0
 11
4187.8729379639444232
 21
240.1708250357548877
 31
0.0
  0
LINE
  5
DA93
  8
0
 10
4187.8729379639444232
 20
240.1708250357548877
 30
0.0
 11
4187.8735207957843159
 21
240.1707996234327993
 31
0.0
  0
LINE
  5
DA94
  8
0
 10
4187.8849358779361864
 20
240.1748735475466958
 30
0.0
 11
4187.8851826262707618
 21
240.1805327228339024
 31
0.0
  0
LINE
  5
DA95
  8
0
 10
4187.8730796621857735
 20
240.1740748862036128
 30
0.0
 11
4187.8820632929800922
 21
240.1737144513980979
 31
0.0
  0
ARC
  5
DA96
  8
0
 10
4187.8320848251150892
 20
240.0841753525922115
 30
0.0
 40
0.1650662182396112
 50
53.066672737160161
 51
98.8704853413857592
  0
ARC
  5
DA97
  8
0
 10
4187.8511974943103269
 20
240.1399344382259926
 30
0.0
 40
0.1224374295904077
 50
348.3456831360927026
 51
1.2021168861737761
  0
ARC
  5
DA98
  8
0
 10
4187.8573490244607456
 20
240.1204009516507085
 30
0.0
 40
0.1209391618845776
 50
37.7111409403261177
 51
52.3214966454551274
  0
ARC
  5
DA99
  8
0
 10
4187.8496267108239408
 20
240.1497742758500067
 30
0.0
 40
0.1263078381141446
 50
267.3615683089226991
 51
344.1142463136745278
  0
ARC
  5
DA9A
  8
0
 10
4187.8449175999703584
 20
240.0971860366504984
 30
0.0
 40
0.1394826292475497
 50
34.7690717381237704
 51
96.2949502175381156
  0
ARC
  5
DA9B
  8
0
 10
4187.8840453461398283
 20
240.1318118631348
 30
0.0
 40
0.0878090318866278
 50
341.3475131349434832
 51
30.7658038954048294
  0
ARC
  5
DA9C
  8
0
 10
4187.8420234343639095
 20
240.2770842363044039
 30
0.0
 40
0.110853519157603
 50
244.7116774918436022
 51
295.8382182055610201
  0
ARC
  5
DA9D
  8
0
 10
4187.865012799024953
 20
240.129433656427409
 30
0.0
 40
0.1093788044018581
 50
6.8625471151198969
 51
36.4234453626190202
  0
ARC
  5
DA9E
  8
0
 10
4190.2402943379302087
 20
239.8768116019489014
 30
0.0
 40
1.1134304822434851
 50
143.8173718047488876
 51
149.5314704032055886
  0
ARC
  5
DA9F
  8
0
 10
4190.2480343604456721
 20
239.8830257907067107
 30
0.0
 40
1.073665968036924
 50
143.8594141927142118
 51
149.3734895929055995
  0
ARC
  5
DAA0
  8
0
 10
4189.2670838629092032
 20
240.3009531820424058
 30
0.0
 40
0.141090892254817
 50
66.1478434205301795
 51
84.4946586063257428
  0
ARC
  5
DAA1
  8
0
 10
4189.5388456732516715
 20
240.447113492911086
 30
0.0
 40
0.2582891047684017
 50
178.7323945450220037
 51
181.2690124339474949
  0
ARC
  5
DAA2
  8
0
 10
4190.1974176979811091
 20
239.9175552274095935
 30
0.0
 40
1.0616189101350619
 50
144.1503024874702987
 51
149.7214950292741094
  0
ARC
  5
DAA3
  8
0
 10
4189.9636521557877131
 20
240.0100208965016861
 30
0.0
 40
0.760770608108989
 50
163.5378202990432044
 51
169.5509450242832088
  0
ARC
  5
DAA4
  8
0
 10
4189.2066222385683432
 20
240.0969234337310922
 30
0.0
 40
0.0518372001466134
 50
353.4042187562159825
 51
80.1413060130673642
  0
LINE
  5
DAA5
  8
0
 10
4189.2581163399945581
 20
240.0909692052123887
 30
0.0
 11
4189.2691236591972483
 21
240.0846887100107949
 31
0.0
  0
ARC
  5
DAA6
  8
0
 10
4189.951180902690794
 20
240.0051976531129867
 30
0.0
 40
0.7957506902835185
 50
162.9759443258257079
 51
169.5893452270821058
  0
ARC
  5
DAA7
  8
0
 10
4189.1785088342867311
 20
240.0794163007107045
 30
0.0
 40
0.0702871044174497
 50
98.162040336294524
 51
169.8184917430783116
  0
ARC
  5
DAA8
  8
0
 10
4189.1879120072862861
 20
240.0808870877370111
 30
0.0
 40
0.0512395966330001
 50
69.9691063176029786
 51
147.509852542102692
  0
ARC
  5
DAA9
  8
0
 10
4189.1964563196243034
 20
240.099464755135898
 30
0.0
 40
0.0309039089840935
 50
304.9724894392144279
 51
73.055840562124061
  0
ARC
  5
DAAA
  8
0
 10
4189.1809447030364026
 20
240.1512308320949103
 30
0.0
 40
0.050063340273229
 50
229.2193219000521083
 51
320.9483999121204079
  0
ARC
  5
DAAB
  8
0
 10
4189.1802743049865967
 20
240.1132668909934011
 30
0.0
 40
0.0517660942811221
 50
248.1701818141416993
 51
310.9032756355784954
  0
ARC
  5
DAAC
  8
0
 10
4189.1705622656818377
 20
240.0935053591653912
 30
0.0
 40
0.0298567706596224
 50
150.0511146084884047
 51
251.3713686197837092
  0
ARC
  5
DAAD
  8
0
 10
4189.2052008682539963
 20
240.1049762408206902
 30
0.0
 40
0.0551029966544918
 50
356.3264403681035901
 51
77.0526430659395487
  0
ARC
  5
DAAE
  8
0
 10
4189.1688857000954158
 20
240.0980730307666988
 30
0.0
 40
0.0597404898921677
 50
90.2440860764894239
 51
183.0425690954994877
  0
ARC
  5
DAAF
  8
0
 10
4189.9492329726681419
 20
240.0172758874753924
 30
0.0
 40
0.7937574796932929
 50
163.7257960657277067
 51
169.5374903989894904
  0
LINE
  5
DAB0
  8
0
 10
4189.2601906443323969
 20
240.101445693091307
 30
0.0
 11
4189.2691236592318091
 21
240.096349842591394
 31
0.0
  0
ARC
  5
DAB1
  8
0
 10
4188.5193679670428537
 20
240.8399923940291103
 30
0.0
 40
1.065587221229535
 50
279.1226010700821121
 51
311.0038301531761817
  0
LINE
  5
DAB2
  8
0
 10
4189.2185098435320469
 20
240.0358302445914092
 30
0.0
 11
4189.2075031424319604
 21
240.0421103878913982
 31
0.0
  0
ARC
  5
DAB3
  8
0
 10
4189.1780011686996659
 20
240.1174714012713025
 30
0.0
 40
0.0809299004801196
 50
226.8804495087723865
 51
291.3791149406962973
  0
LINE
  5
DAB4
  8
0
 10
4189.2581163399945581
 20
240.0909692052123887
 30
0.0
 11
4189.2601906443323969
 21
240.101445693091307
 31
0.0
  0
LINE
  5
DAB5
  8
0
 10
4189.168529952332392
 20
240.1489914324914139
 30
0.0
 11
4189.1686725529316391
 21
240.1614159849914074
 31
0.0
  0
ARC
  5
DAB6
  8
0
 10
4188.5339475460623362
 20
240.8341570425552902
 30
0.0
 40
1.0432290093276879
 50
278.7981137176353172
 51
310.4476299972512265
  0
ARC
  5
DAB7
  8
0
 10
4189.6269749231278183
 20
238.3875481357677018
 30
0.0
 40
1.781171261477821
 50
106.895157827076801
 51
110.8863616359723068
  0
ARC
  5
DAB8
  8
0
 10
4189.6187431172447759
 20
238.4241030353670112
 30
0.0
 40
1.7079215350187951
 50
106.8846736147029048
 51
110.7598544487257044
  0
ARC
  5
DAB9
  8
0
 10
4188.934249366813674
 20
239.9884525120531862
 30
0.0
 40
0.0856029480839223
 50
22.4457911793930798
 51
47.6109537709578206
  0
ARC
  5
DABA
  8
0
 10
4189.0541666600338431
 20
240.0574992729414987
 30
0.0
 40
0.0624789342263651
 50
174.6534365863624032
 51
185.346563413901805
  0
ARC
  5
DABB
  8
0
 10
4189.6291033983734451
 20
238.3932445986621929
 30
0.0
 40
1.7874863966375101
 50
106.902814668758495
 51
110.8821428428162932
  0
ARC
  5
DABC
  8
0
 10
4188.0928750424300233
 20
238.1623667758840099
 30
0.0
 40
1.779677940207598
 50
74.1006133691287374
 51
78.0016183434390626
  0
ARC
  5
DABD
  8
0
 10
4188.6377714030732022
 20
239.7963652750640051
 30
0.0
 40
0.0964928643322271
 50
69.78304189423352
 51
126.4699799517598962
  0
LINE
  5
DABE
  8
0
 10
4188.6711170167309319
 20
239.8869132894913889
 30
0.0
 11
4188.7677259293013776
 21
239.9476304193663054
 31
0.0
  0
ARC
  5
DABF
  8
0
 10
4188.0963011243311485
 20
238.2117639045877127
 30
0.0
 40
1.6954607902038119
 50
74.0748524709135978
 51
77.7648387080040777
  0
ARC
  5
DAC0
  8
0
 10
4188.6336007867375884
 20
239.8452660013442994
 30
0.0
 40
0.0721640220130196
 50
182.4711435075035979
 51
251.5563779063948004
  0
ARC
  5
DAC1
  8
0
 10
4188.6394340199030921
 20
239.8224722182619928
 30
0.0
 40
0.0512395966330001
 50
69.9691063176029786
 51
147.509852542102692
  0
ARC
  5
DAC2
  8
0
 10
4188.6479783322429284
 20
239.8410498856609081
 30
0.0
 40
0.0309039089840935
 50
304.9724894392144279
 51
73.055840562124061
  0
ARC
  5
DAC3
  8
0
 10
4188.6324667156550277
 20
239.8928159626198919
 30
0.0
 40
0.050063340273229
 50
229.2193219000521083
 51
320.9483999121204079
  0
ARC
  5
DAC4
  8
0
 10
4188.6317963176052217
 20
239.8548520215184112
 30
0.0
 40
0.0517660942811221
 50
248.1701818141416993
 51
310.9032756355784954
  0
ARC
  5
DAC5
  8
0
 10
4188.6220842783013723
 20
239.8350904896904012
 30
0.0
 40
0.0298567706596224
 50
150.0511146084884047
 51
251.3713686197837092
  0
ARC
  5
DAC6
  8
0
 10
4188.6374179213462412
 20
239.8046685466152894
 30
0.0
 40
0.0997583589293384
 50
70.2566648429268241
 51
125.5109303011051054
  0
ARC
  5
DAC7
  8
0
 10
4188.0951114279469039
 20
238.1829336007876918
 30
0.0
 40
1.770481825015169
 50
74.1228393554103633
 51
78.023246961889356
  0
LINE
  5
DAC8
  8
0
 10
4188.6711170167309319
 20
239.8985626419913046
 30
0.0
 11
4188.7636966494483204
 21
239.9572775966312008
 31
0.0
  0
ARC
  5
DAC9
  8
0
 10
4188.6646869321439226
 20
239.8386660021666899
 30
0.0
 40
0.0457005436295493
 50
297.5423574629468817
 51
31.3803450027230504
  0
LINE
  5
DACA
  8
0
 10
4188.6858190570083025
 20
239.798144736308501
 30
0.0
 11
4188.6883142137321556
 21
239.7878834206914007
 31
0.0
  0
LINE
  5
DACB
  8
0
 10
4188.6711170167309319
 20
239.8869132894913889
 30
0.0
 11
4188.6711170167309319
 21
239.8985626419913046
 31
0.0
  0
LINE
  5
DACC
  8
0
 10
4188.5804158973251106
 20
239.8739617880493995
 30
0.0
 11
4188.5794724551806212
 21
239.885872321941406
 31
0.0
  0
ARC
  5
DACD
  8
0
 10
4188.4750952170707023
 20
240.9805039894858965
 30
0.0
 40
1.211317526208191
 50
247.3111831630654081
 51
276.4309707837750238
  0
ARC
  5
DACE
  8
0
 10
4188.4758152547919963
 20
241.0047178634964098
 30
0.0
 40
1.2236823156177881
 50
247.86157840391121
 51
275.4328334459739835
  0
ARC
  5
DACF
  8
0
 10
4187.1472028985435827
 20
239.387194170915393
 30
0.0
 40
1.041912238495496
 50
34.8409747185237819
 51
40.3898847312442015
  0
ARC
  5
DAD0
  8
0
 10
4188.0112503373238724
 20
239.8975593460955906
 30
0.0
 40
0.0853460823124996
 50
33.8807050887056818
 51
95.9908199466872674
  0
LINE
  5
DAD1
  8
0
 10
4188.0821046603323339
 20
239.9451368478914048
 30
0.0
 11
4188.2078634012023031
 21
239.9407549031529072
 31
0.0
  0
ARC
  5
DAD2
  8
0
 10
4188.587008501100172
 20
240.4806432692359976
 30
0.0
 40
0.8170337521016428
 50
213.0590694286852909
 51
219.2319681086644039
  0
ARC
  5
DAD3
  8
0
 10
4187.9821808969199992
 20
239.9299622461367107
 30
0.0
 40
0.0440234778080239
 50
129.563458865706707
 51
216.6306560880337031
  0
ARC
  5
DAD4
  8
0
 10
4188.017042855199179
 20
239.9153555984331092
 30
0.0
 40
0.0512395966330001
 50
69.9691063176029786
 51
147.509852542102692
  0
ARC
  5
DAD5
  8
0
 10
4188.0255871675381059
 20
239.9339332658321098
 30
0.0
 40
0.0309039089840935
 50
304.9724894392144279
 51
73.055840562124061
  0
ARC
  5
DAD6
  8
0
 10
4188.0100755509502051
 20
239.9856993427910936
 30
0.0
 40
0.050063340273229
 50
229.2193219000521083
 51
320.9483999121204079
  0
ARC
  5
DAD7
  8
0
 10
4188.0094051529003991
 20
239.9477354016896129
 30
0.0
 40
0.0517660942811221
 50
248.1701818141416993
 51
310.9032756355784954
  0
ARC
  5
DAD8
  8
0
 10
4187.9996931135956402
 20
239.9279738698616029
 30
0.0
 40
0.0298567706596224
 50
150.0511146084884047
 51
251.3713686197837092
  0
ARC
  5
DAD9
  8
0
 10
4188.0113001567005995
 20
239.909311743208292
 30
0.0
 40
0.0852472979614205
 50
33.8418736886904412
 51
96.0314571225284936
  0
ARC
  5
DADA
  8
0
 10
4187.9980165480092182
 20
239.9325415414629106
 30
0.0
 40
0.0597404898921677
 50
142.9134842307385043
 51
183.0425690954994877
  0
ARC
  5
DADB
  8
0
 10
4187.1491615974991873
 20
239.4002614976054133
 30
0.0
 40
1.0394936904791841
 50
34.8384370072519829
 51
39.9659188577552271
  0
LINE
  5
DADC
  8
0
 10
4188.0821046603323339
 20
239.9567862002913046
 30
0.0
 11
4188.2122672918621902
 21
239.9512951882495884
 31
0.0
  0
LINE
  5
DADD
  8
0
 10
4188.2021448245222928
 20
239.9058842972351044
 30
0.0
 11
4188.0850612349313451
 21
239.9102079393913982
 31
0.0
  0
ARC
  5
DADE
  8
0
 10
4188.0200838215296244
 20
239.9445413802330052
 30
0.0
 40
0.0734904715754553
 50
265.7196787199044934
 51
332.148457474137615
  0
LINE
  5
DADF
  8
0
 10
4188.0821046603323339
 20
239.9451368478914048
 30
0.0
 11
4188.0821046603323339
 21
239.9567862002913046
 31
0.0
  0
LINE
  5
DAE0
  8
0
 10
4188.0023428420317941
 20
239.9824393219068099
 30
0.0
 11
4188.0023428420317941
 21
239.9940871424913098
 31
0.0
  0
ARC
  5
DAE1
  8
0
 10
4188.2937992823763125
 20
240.6495367365781135
 30
0.0
 40
0.8230405765415245
 50
206.8751056276917097
 51
244.5196971484486141
  0
ARC
  5
DAE2
  8
0
 10
419480.3531981165870093
 20
-335805.3149568092194386
 30
0.0
 40
534222.9607080586720258
 50
141.0209991507830978
 51
141.021000375675186
  0
ARC
  5
DAE3
  8
0
 10
4187.9017128055365902
 20
239.9557088240815119
 30
0.0
 40
0.1409806355900949
 50
318.8431158462697113
 51
323.1988782532565097
  0
ARC
  5
DAE4
  8
0
 10
4188.3392774530193492
 20
240.7025292989069101
 30
0.0
 40
0.9011584836284278
 50
208.3431151975877071
 51
243.6764462934397955
  0
ARC
  5
DAE5
  8
0
 10
4187.6642446860214477
 20
239.9006477200414906
 30
0.0
 40
0.2754850367007191
 50
358.7872597801716097
 51
1.2127402197925099
  0
ARC
  5
DAE6
  8
0
 10
4701.7922228523393642
 20
-175.9538079723346016
 30
0.0
 40
661.0478241400885508
 50
141.0164021629288129
 51
141.0167930152300926
  0
ARC
  5
DAE7
  8
0
 10
4186.9393124922344214
 20
240.5606210641909115
 30
0.0
 40
0.7324704506973787
 50
344.633622079685324
 51
351.674529696188813
  0
ARC
  5
DAE8
  8
0
 10
4187.622521387697816
 20
240.3140248985259859
 30
0.0
 40
0.0573465518485929
 50
342.1204188931242243
 51
66.2714069222809314
  0
LINE
  5
DAE9
  8
0
 10
4187.6770983234973755
 20
240.2964185051488926
 30
0.0
 11
4187.7728091369708636
 21
240.2268639244200017
 31
0.0
  0
ARC
  5
DAEA
  8
0
 10
4186.9276613682413881
 20
240.5627819948522017
 30
0.0
 40
0.6967091431381807
 50
344.6878538940948147
 51
351.220092025826375
  0
ARC
  5
DAEB
  8
0
 10
4187.5937431591328277
 20
240.3135324561282005
 30
0.0
 40
0.0655300255425255
 50
84.8385951459124357
 51
158.6234012087375902
  0
ARC
  5
DAEC
  8
0
 10
4187.6075538287477684
 20
240.3074935515182915
 30
0.0
 40
0.0512395966330001
 50
69.9691063176029786
 51
147.509852542102692
  0
ARC
  5
DAED
  8
0
 10
4187.6160981410866953
 20
240.3260712189172068
 30
0.0
 40
0.0309039089840935
 50
304.9724894392144279
 51
73.055840562124061
  0
ARC
  5
DAEE
  8
0
 10
4187.600586524497885
 20
240.3778372958761906
 30
0.0
 40
0.050063340273229
 50
229.2193219000521083
 51
320.9483999121204079
  0
ARC
  5
DAEF
  8
0
 10
4187.599916126448079
 20
240.3398733547747952
 30
0.0
 40
0.0517660942811221
 50
248.1701818141416993
 51
310.9032756355784954
  0
ARC
  5
DAF0
  8
0
 10
4187.5902040871451391
 20
240.3201118229466999
 30
0.0
 40
0.0298567706596224
 50
150.0511146084884047
 51
251.3713686197837092
  0
ARC
  5
DAF1
  8
0
 10
4187.6177824227170277
 20
240.3204877458198894
 30
0.0
 40
0.0638495391249762
 50
346.9695163369652278
 51
61.4499159511029021
  0
ARC
  5
DAF2
  8
0
 10
4187.5954650362191387
 20
240.3218639209131879
 30
0.0
 40
0.0683912837209004
 50
86.5598197887896674
 51
156.552228952549001
  0
ARC
  5
DAF3
  8
0
 10
4186.6333740033460344
 20
240.6405466026349984
 30
0.0
 40
0.9981183139849296
 50
345.463289606349008
 51
349.3914925674492906
  0
LINE
  5
DAF4
  8
0
 10
4187.6799878517804245
 20
240.3060916268439087
 30
0.0
 11
4187.7726053625292479
 21
240.2378208746067116
 31
0.0
  0
ARC
  5
DAF5
  8
0
 10
4187.7936356789768979
 20
240.1571773243319114
 30
0.0
 40
0.0727321599011435
 50
106.6393049737404937
 51
140.5653036174348927
  0
LINE
  5
DAF6
  8
0
 10
4187.7374610636079524
 20
240.2033766714247065
 30
0.0
 11
4187.6490422293318261
 21
240.2688894768913883
 31
0.0
  0
ARC
  5
DAF7
  8
0
 10
4187.6121746467706544
 20
240.3546035579383044
 30
0.0
 40
0.0933066039120714
 50
235.743148061368089
 51
293.2736436735672783
  0
LINE
  5
DAF8
  8
0
 10
4187.5996383529191007
 20
240.378796772089089
 30
0.0
 11
4187.5995395745921996
 21
240.3900186448144893
 31
0.0
  0
ARC
  5
DAF9
  8
0
 10
4151.1764238242176361
 20
416.8973404190969063
 30
0.0
 40
180.2642133039061889
 50
281.6310348959124212
 51
281.6354163282031209
  0
ARC
  5
DAFA
  8
0
 10
4187.6014977967497543
 20
240.0400423556536111
 30
0.0
 40
0.2411003811962519
 50
99.994968190961302
 51
103.2714766129015942
  0
ARC
  5
DAFB
  8
0
 10
4188.1419712726128637
 20
240.5825816016634064
 30
0.0
 40
0.670295149031886
 50
158.2889924700911024
 51
201.7095578985980069
  0
ARC
  5
DAFC
  8
0
 10
4183.8118278602587452
 20
240.3403772456146044
 30
0.0
 40
3.7073961512345179
 50
359.9113070038970932
 51
0.0886932552017306
  0
ARC
  5
DAFD
  8
0
 10
4188.1733806965867188
 20
240.6038845316998049
 30
0.0
 40
0.7031153999550965
 50
184.7897701330304017
 51
201.5066233344203965
  0
ARC
  5
DAFE
  8
0
 10
4315.6195147308180822
 20
574.5961906839188487
 30
0.0
 40
357.4385117855626959
 50
249.0036312582485891
 51
249.0059494247803968
  0
ARC
  5
DAFF
  8
0
 10
4187.6004466929862247
 20
240.808772932278913
 30
0.0
 40
0.086712118054848
 50
55.9092771570699085
 51
118.0589720205530995
  0
LINE
  5
DB00
  8
0
 10
4187.6490492609318608
 20
240.8805836682913935
 30
0.0
 11
4187.728795007467852
 21
240.9324016064603882
 31
0.0
  0
ARC
  5
DB01
  8
0
 10
4187.5531667720006226
 20
240.89879905295399
 30
0.0
 40
0.0762311538322932
 50
243.561498028787895
 51
254.4480757967812963
  0
ARC
  5
DB02
  8
0
 10
4187.6083401721498376
 20
240.8496054928864112
 30
0.0
 40
0.0794043475816324
 50
197.7795944634370073
 51
263.7269787663196894
  0
ARC
  5
DB03
  8
0
 10
4187.6132193592720796
 20
240.8162350314190121
 30
0.0
 40
0.0512395966330001
 50
69.9691063176029786
 51
147.509852542102692
  0
ARC
  5
DB04
  8
0
 10
4187.6217636716110064
 20
240.834812698817899
 30
0.0
 40
0.0309039089840935
 50
304.9724894392144279
 51
73.055840562124061
  0
ARC
  5
DB05
  8
0
 10
4187.6062520550231056
 20
240.8865787757769112
 30
0.0
 40
0.050063340273229
 50
229.2193219000521083
 51
320.9483999121204079
  0
ARC
  5
DB06
  8
0
 10
4187.6055816569723902
 20
240.8486148346754021
 30
0.0
 40
0.0517660942811221
 50
248.1701818141416993
 51
310.9032756355784954
  0
ARC
  5
DB07
  8
0
 10
4187.5958696176694502
 20
240.8288533028473921
 30
0.0
 40
0.0298567706596224
 50
150.0511146084884047
 51
251.3713686197837092
  0
ARC
  5
DB08
  8
0
 10
4187.6004410595196532
 20
240.8204315270949962
 30
0.0
 40
0.0867105122128083
 50
55.9040639634713727
 51
118.0553194533973027
  0
ARC
  5
DB09
  8
0
 10
4187.5963251068696991
 20
241.0011476744894026
 30
0.0
 40
0.1104577992954649
 50
246.0156463977810972
 51
250.6130437357957987
  0
LINE
  5
DB0A
  8
0
 10
4187.6490492609318608
 20
240.8922365107912924
 30
0.0
 11
4187.7233000131209337
 21
240.9398889212122015
 31
0.0
  0
LINE
  5
DB0B
  8
0
 10
4187.7633363163167814
 20
240.902101789483595
 30
0.0
 11
4187.677104600765233
 21
240.846495924305799
 31
0.0
  0
ARC
  5
DB0C
  8
0
 10
4187.6255520517706827
 20
240.827168747764091
 30
0.0
 40
0.055056380746009
 50
294.3826712337569234
 51
20.5511445688459489
  0
LINE
  5
DB0D
  8
0
 10
4187.6490492609318608
 20
240.8805836682913935
 30
0.0
 11
4187.6490492609318608
 21
240.8922365107912924
 31
0.0
  0
LINE
  5
DB0E
  8
0
 10
4187.5596590388322511
 20
240.88529324779131
 30
0.0
 11
4187.5596590388322511
 21
240.8969530254913991
 31
0.0
  0
ARC
  5
DB0F
  8
0
 10
4186.7585414113627849
 20
240.5608218251809092
 30
0.0
 40
0.8669060793471958
 50
7.4795750997842481
 51
14.00893628328798
  0
ARC
  5
DB10
  8
0
 10
4187.0483669817149348
 20
240.625796142291307
 30
0.0
 40
0.6186810766979497
 50
4.292419524459544
 51
14.1483961801439708
  0
ARC
  5
DB11
  8
0
 10
4187.6365110822098359
 20
240.516687677677595
 30
0.0
 40
0.1580610007711244
 50
79.5010049915611035
 51
96.6995317297927102
  0
ARC
  5
DB12
  8
0
 10
4188.1618294454146962
 20
241.3923663081677091
 30
0.0
 40
0.1783909603307046
 50
210.3440947628830031
 51
214.6404500125873085
  0
ARC
  5
DB13
  8
0
 10
4188.0121069685837938
 20
241.2136899058151869
 30
0.0
 40
0.0773310084771321
 50
19.3291397097055899
 51
87.8108451411917059
  0
LINE
  5
DB14
  8
0
 10
4188.0850790396307275
 20
241.2392860328473887
 30
0.0
 11
4188.2000467302395919
 21
241.2368800323808955
 31
0.0
  0
ARC
  5
DB15
  8
0
 10
4186.6348813847889687
 20
240.4314221850171123
 30
0.0
 40
1.551232263453975
 50
32.24527451545395
 51
32.7392668387509218
  0
ARC
  5
DB16
  8
0
 10
4188.3277618009442449
 20
240.4745626604074005
 30
0.0
 40
0.8853747518246278
 50
115.9966620926011984
 51
151.9813932167230917
  0
ARC
  5
DB17
  8
0
 10
4187.9991844087553545
 20
241.2276133305213079
 30
0.0
 40
0.0610457226439441
 50
148.9782814755843106
 51
230.1051128337514058
  0
ARC
  5
DB18
  8
0
 10
4188.0161726335472849
 20
241.2077501087264864
 30
0.0
 40
0.0512395966330001
 50
69.9691063176029786
 51
147.509852542102692
  0
ARC
  5
DB19
  8
0
 10
4188.0247169458862118
 20
241.2263277761254017
 30
0.0
 40
0.0309039089840935
 50
304.9724894392144279
 51
73.055840562124061
  0
ARC
  5
DB1A
  8
0
 10
4188.009205329298311
 20
241.2780938530844139
 30
0.0
 40
0.050063340273229
 50
229.2193219000521083
 51
320.9483999121204079
  0
ARC
  5
DB1B
  8
0
 10
4188.0085349312475955
 20
241.2401299119829048
 30
0.0
 40
0.0517660942811221
 50
248.1701818141416993
 51
310.9032756355784954
  0
ARC
  5
DB1C
  8
0
 10
4187.9988228919437461
 20
241.2203683801548948
 30
0.0
 40
0.0298567706596224
 50
150.0511146084884047
 51
251.3713686197837092
  0
ARC
  5
DB1D
  8
0
 10
4188.0121264886156496
 20
241.2253934663914094
 30
0.0
 40
0.0772865139736106
 50
19.2787574900148684
 51
87.824065754188041
  0
ARC
  5
DB1E
  8
0
 10
4187.9974579529052789
 20
241.2393189661509041
 30
0.0
 40
0.0595822846125763
 50
155.0254587222569
 51
186.9054771333526048
  0
ARC
  5
DB1F
  8
0
 10
4188.0476193833428624
 20
241.3248083960986037
 30
0.0
 40
0.0393978476367897
 50
210.7157414288423922
 51
214.2690742428366946
  0
LINE
  5
DB20
  8
0
 10
4188.0850790396307275
 20
241.2509107260912913
 30
0.0
 11
4188.201038752084969
 21
241.2485852687150896
 31
0.0
  0
LINE
  5
DB21
  8
0
 10
4188.2061756059329127
 20
241.1947268357696998
 30
0.0
 11
4188.0817238748632008
 21
241.1969312522950872
 31
0.0
  0
ARC
  5
DB22
  8
0
 10
4188.0172734765037603
 20
241.2326066110466058
 30
0.0
 40
0.0736653586876312
 50
258.3203084568399959
 51
331.0340680002885847
  0
LINE
  5
DB23
  8
0
 10
4188.0850790396307275
 20
241.2392860328473887
 30
0.0
 11
4188.0850790396307275
 21
241.2509107260912913
 31
0.0
  0
LINE
  5
DB24
  8
0
 10
4188.0150609098318455
 20
241.2909644753914051
 30
0.0
 11
4188.0150609098318455
 21
241.3026242530914089
 31
0.0
  0
ARC
  5
DB25
  8
0
 10
4187.2073126693276208
 20
241.6522903995883951
 30
0.0
 40
0.8882054220001162
 50
321.2297338744821786
 51
327.936421229421228
  0
ARC
  5
DB26
  8
0
 10
4187.218783908556361
 20
241.6491141523671899
 30
0.0
 40
0.9234549323951071
 50
321.1184423367985801
 51
328.0518519713313026
  0
ARC
  5
DB27
  8
0
 10
4120.6839472625297276
 20
145.6325087568424124
 30
0.0
 40
116.7530270708951008
 50
54.8279344307799832
 51
54.8506422213311424
  0
ARC
  5
DB28
  8
0
 10
4188.0676125524732925
 20
241.101920822548891
 30
0.0
 40
0.1678999857025731
 50
178.0121556101163947
 51
181.9878439665374117
  0
ARC
  5
DB29
  8
0
 10
4187.2071418771383833
 20
241.6640409777197078
 30
0.0
 40
0.8884027857787145
 50
321.2314760027811076
 51
327.376704484388199
  0
LINE
  5
DB2A
  8
0
 10
4189.2691236592318091
 20
240.0846887099914113
 30
0.0
 11
4189.2691236592318091
 21
240.096349842591394
 31
0.0
  0
ARC
  5
DB2B
  8
0
 10
4188.7883195262529625
 20
240.6553136314317101
 30
0.0
 40
0.737301248828525
 50
310.7011444911879039
 51
318.6770251455110952
  0
LINE
  5
DB2C
  8
0
 10
4188.7037017259508502
 20
239.8624652434033919
 30
0.0
 11
4188.7888037708817137
 21
239.9159136302880881
 31
0.0
  0
ARC
  5
DB2D
  8
0
 10
4189.1550961845432539
 20
239.3064742500316981
 30
0.0
 40
1.0480703691420949
 50
91.7019260284210702
 51
99.9933700433555543
  0
ARC
  5
DB2E
  8
0
 10
4189.1550961845432539
 20
239.3064742500316981
 30
0.0
 40
1.0480703691420949
 50
108.7235637921457965
 51
112.3111025766981044
  0
ARC
  5
DB2F
  8
0
 10
4189.1550961845432539
 20
239.3064742500316981
 30
0.0
 40
1.0480703691420949
 50
120.1520575397186974
 51
123.4957967713199025
  0
ARC
  5
DB30
  8
0
 10
4189.1550961845432539
 20
239.3064742500316981
 30
0.0
 40
1.0480703691420949
 50
132.2118583919101127
 51
137.8932796421809996
  0
ARC
  5
DB31
  8
0
 10
4189.1584347268290003
 20
239.2877757447814133
 30
0.0
 40
1.053542312968452
 50
91.9448966788574893
 51
100.0852052816642015
  0
ARC
  5
DB32
  8
0
 10
4189.1584347268290003
 20
239.2877757447814133
 30
0.0
 40
1.053542312968452
 50
108.7458989080128049
 51
112.2035880500312999
  0
ARC
  5
DB33
  8
0
 10
4189.1584347268290003
 20
239.2877757447814133
 30
0.0
 40
1.053542312968452
 50
120.1408018955823991
 51
123.4345149959816013
  0
ARC
  5
DB34
  8
0
 10
4189.1584347268290003
 20
239.2877757447814133
 30
0.0
 40
1.053542312968452
 50
131.640787011712888
 51
137.9862632841534094
  0
ARC
  5
DB35
  8
0
 10
4189.1541199873472578
 20
239.3164701429230945
 30
0.0
 40
0.9889508072465185
 50
91.4889818558238659
 51
100.4375894195851942
  0
ARC
  5
DB36
  8
0
 10
4189.1541199873472578
 20
239.3164701429230945
 30
0.0
 40
0.9889508072465185
 50
108.618997020051296
 51
112.0205112390007969
  0
ARC
  5
DB37
  8
0
 10
4189.1541199873472578
 20
239.3164701429230945
 30
0.0
 40
0.9889508072465185
 50
120.8867770103370987
 51
124.428635114595707
  0
ARC
  5
DB38
  8
0
 10
4189.1541199873472578
 20
239.3164701429230945
 30
0.0
 40
0.9889508072465185
 50
131.5671172441329873
 51
138.1862101568775074
  0
ARC
  5
DB39
  8
0
 10
4188.3710364562066388
 20
239.9231355049086005
 30
0.0
 40
0.0699389433461304
 50
48.870664643569377
 51
86.2019192073586566
  0
ARC
  5
DB3A
  8
0
 10
4188.3137272048243176
 20
240.0082704464689982
 30
0.0
 40
0.0638155684072993
 50
346.0821327475711087
 51
0.8523310639517248
  0
ARC
  5
DB3B
  8
0
 10
4188.5438095715308009
 20
240.1706093676847047
 30
0.0
 40
0.0343336982381484
 50
353.9215488605058226
 51
16.7212370069377414
  0
ARC
  5
DB3C
  8
0
 10
4188.5343080814664063
 20
240.1240335798231058
 30
0.0
 40
0.0612249775589236
 50
7.6533357063362786
 51
44.5354826236467005
  0
ARC
  5
DB3D
  8
0
 10
4188.6359019152578185
 20
240.1436518315522051
 30
0.0
 40
0.1725281510201428
 50
31.2973490185381316
 51
43.8592181700485071
  0
ARC
  5
DB3E
  8
0
 10
4188.7234820079729616
 20
240.2611781824793979
 30
0.0
 40
0.0368755523262572
 50
3.134674052961572
 51
23.8389287357948305
  0
ARC
  5
DB3F
  8
0
 10
4188.9101662035291156
 20
240.3066927770697134
 30
0.0
 40
0.066366332746356
 50
350.3760021680241721
 51
16.0479267356605
  0
ARC
  5
DB40
  8
0
 10
4188.6126456803276596
 20
240.3125742169231103
 30
0.0
 40
0.3615155707736742
 50
1.9759344155471741
 51
4.1351913616419651
  0
LINE
  5
DB41
  8
0
 10
4187.7728091369708636
 20
240.2268639244200017
 30
0.0
 11
4187.7726053625292479
 21
240.2378208746067116
 31
0.0
  0
LINE
  5
DB42
  8
0
 10
4187.5192195695317423
 20
240.3461162529978026
 30
0.0
 11
4187.5327212872307427
 21
240.3490776977913868
 31
0.0
  0
LINE
  5
DB43
  8
0
 10
4187.5327212872307427
 20
240.3490776977913868
 30
0.0
 11
4187.5327212871534357
 21
240.3374179200689014
 31
0.0
  0
ARC
  5
DB44
  8
0
 10
4187.3792738595202536
 20
240.5478378238269954
 30
0.0
 40
0.6589543710850791
 50
349.2827238276357775
 51
353.4390183820942752
  0
ARC
  5
DB45
  8
0
 10
4187.3792738595202536
 20
240.5478378238269954
 30
0.0
 40
0.6589543710850791
 50
5.5409222245988508
 51
8.7341775222180775
  0
ARC
  5
DB46
  8
0
 10
4187.3792738595202536
 20
240.5478378238269954
 30
0.0
 40
0.6589543710850791
 50
22.6642782608681799
 51
33.9012207492708271
  0
ARC
  5
DB47
  8
0
 10
4187.3590993467432781
 20
240.5272427384425953
 30
0.0
 40
0.6798892237677463
 50
6.0913443256083157
 51
10.1832714793747403
  0
ARC
  5
DB48
  8
0
 10
4187.3590993467432781
 20
240.5272427384425953
 30
0.0
 40
0.6798892237679232
 50
22.4762698000640704
 51
34.3332508022304523
  0
ARC
  5
DB49
  8
0
 10
4187.3918436198337076
 20
240.5452558260680007
 30
0.0
 40
0.5983946783561488
 50
348.1833011167718155
 51
352.8803495089587727
  0
ARC
  5
DB4A
  8
0
 10
4187.3918436198337076
 20
240.5452558260680007
 30
0.0
 40
0.5983946783561488
 50
5.5174476264488241
 51
10.1857455834785799
  0
ARC
  5
DB4B
  8
0
 10
4187.3918436198337076
 20
240.5452558260680007
 30
0.0
 40
0.5983946783561488
 50
21.3923784552809799
 51
35.1766043328278997
  0
ARC
  5
DB4C
  8
0
 10
4188.0229508342827103
 20
240.6865409513355871
 30
0.0
 40
0.1067385234051173
 50
109.487468160913707
 51
133.8453763883231034
  0
LINE
  5
DB4D
  8
0
 10
4187.987342790832372
 20
240.7871649028593026
 30
0.0
 11
4187.987342790832372
 21
240.8017532387692938
 31
0.0
  0
ARC
  5
DB4E
  8
0
 10
4188.0046668114337081
 20
240.5080155707067888
 30
0.0
 40
0.0963234861365441
 50
71.5506707561088717
 51
100.286726235146304
  0
LINE
  5
DB4F
  8
0
 10
4188.0351492589315967
 20
240.5993944731766021
 30
0.0
 11
4188.0351492589315967
 21
240.6114642618728112
 31
0.0
  0
ARC
  5
DB50
  8
0
 10
4188.0075841260832021
 20
240.3203806875528983
 30
0.0
 40
0.1066494183522395
 50
79.6559545337722028
 51
106.3527441673791003
  0
ARC
  5
DB51
  8
0
 10
4188.5905681323656609
 20
241.4048246289150939
 30
0.0
 40
2.4957284877284911
 50
269.2003731963607152
 51
313.6408809224358265
  0
ARC
  5
DB52
  8
0
 10
4188.505975613065857
 20
241.5012099472955072
 30
0.0
 40
2.4948179638778738
 50
271.6152309536373082
 51
303.8774879988733915
  0
ARC
  5
DB53
  8
0
 10
4188.4907306265304214
 20
241.5947080929493893
 30
0.0
 40
2.6035091947024389
 50
271.4355002872380851
 51
293.6822119502663213
  0
ARC
  5
DB54
  8
0
 10
4189.1548337679378164
 20
239.6924781261784005
 30
0.0
 40
0.0163075007463187
 50
312.4321467855859282
 51
37.5996950543634014
  0
ARC
  5
DB55
  8
0
 10
4189.1477035213256386
 20
239.70010160470909
 30
0.0
 40
0.0267453745575686
 50
217.5923314898466003
 51
312.6870406153090016
  0
ARC
  5
DB56
  8
0
 10
4189.1397947125406063
 20
239.6925349816987136
 30
0.0
 40
0.0159058808929741
 50
153.7770878470522007
 51
213.370753392602694
  0
ARC
  5
DB57
  8
0
 10
4189.147699241169903
 20
239.685381268578908
 30
0.0
 40
0.0263208626621462
 50
40.3647263624424113
 51
147.3972936572021979
  0
ARC
  5
DB58
  8
0
 10
4189.1537963505506923
 20
239.7122336550771138
 30
0.0
 40
0.0638081396161144
 50
297.0523826459893826
 51
345.8703988503760911
  0
ARC
  5
DB59
  8
0
 10
4189.1471202098782669
 20
239.7430017529875954
 30
0.0
 40
0.0945892540384408
 50
239.1918360515415998
 51
292.1716863631227739
  0
ARC
  5
DB5A
  8
0
 10
4189.1223303421929813
 20
239.6994010561923858
 30
0.0
 40
0.044456821179572
 50
189.4396215744087897
 51
237.8525666187902914
  0
LINE
  5
DB5B
  8
0
 10
4189.0784755116555971
 20
239.6921097745579061
 30
0.0
 11
4189.0740963963826289
 21
239.7122732876619011
 31
0.0
  0
ARC
  5
DB5C
  8
0
 10
4189.1241775773823974
 20
239.7147890943232085
 30
0.0
 40
0.0501443314197459
 50
121.4836442636170943
 51
182.8758115025869984
  0
ARC
  5
DB5D
  8
0
 10
4189.1618393708567964
 20
239.6671569243333977
 30
0.0
 40
0.1106707662852213
 50
86.165994162197336
 51
125.2353114832365009
  0
ARC
  5
DB5E
  8
0
 10
4189.1689163615292273
 20
239.7164026576676008
 30
0.0
 40
0.0611782005019706
 50
37.9295526475360916
 51
89.6973732047843555
  0
ARC
  5
DB5F
  8
0
 10
4189.1861693019864106
 20
239.7358764389487931
 30
0.0
 40
0.0359154315365556
 50
351.3163852515032772
 51
30.3215266097318512
  0
LINE
  5
DB60
  8
0
 10
4189.2216730386462586
 20
239.730453994330702
 30
0.0
 11
4189.2156740403197546
 21
239.6966570639787051
 31
0.0
  0
ARC
  5
DB61
  8
0
 10
4189.1647782707714214
 20
239.7026662963631907
 30
0.0
 40
0.0512492949402101
 50
353.2662970031125269
 51
44.9297726543164728
  0
ARC
  5
DB62
  8
0
 10
4189.1474818894093914
 20
239.6812046968491074
 30
0.0
 40
0.0787080853961828
 50
47.0987483063922525
 51
139.9811637228908978
  0
ARC
  5
DB63
  8
0
 10
4189.1304558005613217
 20
239.7014957576274981
 30
0.0
 40
0.0528208965833013
 50
144.9675257771328063
 51
190.23549990160069
  0
ARC
  5
DB64
  8
0
 10
4189.2604306797384197
 20
239.5140337319813
 30
0.0
 40
0.0163075007463187
 50
312.4321467855859282
 51
37.5996950543634014
  0
ARC
  5
DB65
  8
0
 10
4189.2533004331271513
 20
239.5216572105121031
 30
0.0
 40
0.0267453745575686
 50
217.5923314898466003
 51
312.6870406153090016
  0
ARC
  5
DB66
  8
0
 10
4189.245391624342119
 20
239.5140905875016983
 30
0.0
 40
0.0159058808929741
 50
153.7770878470522007
 51
213.370753392602694
  0
ARC
  5
DB67
  8
0
 10
4189.2532961529723252
 20
239.5069368743818075
 30
0.0
 40
0.0263208626621462
 50
40.3647263624424113
 51
147.3972936572021979
  0
ARC
  5
DB68
  8
0
 10
4189.2593932623531146
 20
239.5337892608800132
 30
0.0
 40
0.0638081396161144
 50
297.0523826459893826
 51
345.8703988503760911
  0
ARC
  5
DB69
  8
0
 10
4189.2527171216797797
 20
239.5645573587904948
 30
0.0
 40
0.0945892540384408
 50
239.1918360515415998
 51
292.1716863631227739
  0
ARC
  5
DB6A
  8
0
 10
4189.2279272539935846
 20
239.5209566619953137
 30
0.0
 40
0.044456821179572
 50
189.4396215744087897
 51
237.8525666187902914
  0
LINE
  5
DB6B
  8
0
 10
4189.1840724234571098
 20
239.5136653803608056
 30
0.0
 11
4189.1796933081832321
 21
239.5338288934648006
 31
0.0
  0
ARC
  5
DB6C
  8
0
 10
4189.2297744891830007
 20
239.5363447001261932
 30
0.0
 40
0.0501443314197459
 50
121.4836442636170943
 51
182.8758115025869984
  0
ARC
  5
DB6D
  8
0
 10
4189.2674362826583092
 20
239.4887125301362971
 30
0.0
 40
0.1106707662852213
 50
86.165994162197336
 51
125.2353114832365009
  0
ARC
  5
DB6E
  8
0
 10
4189.2745132733289211
 20
239.5379582634705002
 30
0.0
 40
0.0611782005019706
 50
37.9295526475360916
 51
89.6973732047843555
  0
ARC
  5
DB6F
  8
0
 10
4189.2917662137870138
 20
239.5574320447518062
 30
0.0
 40
0.0359154315365556
 50
351.3163852515032772
 51
30.3215266097318512
  0
LINE
  5
DB70
  8
0
 10
4189.3272699504468619
 20
239.5520096001336015
 30
0.0
 11
4189.3212709521212673
 21
239.5182126697816045
 31
0.0
  0
ARC
  5
DB71
  8
0
 10
4189.2703751825720246
 20
239.5242219021662038
 30
0.0
 40
0.0512492949402101
 50
353.2662970031125269
 51
44.9297726543164728
  0
ARC
  5
DB72
  8
0
 10
4189.2530788012099947
 20
239.5027603026520069
 30
0.0
 40
0.0787080853961828
 50
47.0987483063922525
 51
139.9811637228908978
  0
ARC
  5
DB73
  8
0
 10
4189.2360527123619249
 20
239.5230513634303975
 30
0.0
 40
0.0528208965833013
 50
144.9675257771328063
 51
190.23549990160069
  0
ARC
  5
DB74
  8
0
 10
4189.1790984370372826
 20
239.2726000469783969
 30
0.0
 40
0.0163075007463187
 50
312.4321467855859282
 51
37.5996950543634014
  0
ARC
  5
DB75
  8
0
 10
4189.1719681904260142
 20
239.2802235255090864
 30
0.0
 40
0.0267453745575686
 50
217.5923314898466003
 51
312.6870406153090016
  0
ARC
  5
DB76
  8
0
 10
4189.1640593816409819
 20
239.27265690249871
 30
0.0
 40
0.0159058808929741
 50
153.7770878470522007
 51
213.370753392602694
  0
ARC
  5
DB77
  8
0
 10
4189.1719639102711881
 20
239.2655031893789044
 30
0.0
 40
0.0263208626621462
 50
40.3647263624424113
 51
147.3972936572021979
  0
ARC
  5
DB78
  8
0
 10
4189.1780610196519774
 20
239.2923555758771101
 30
0.0
 40
0.0638081396161144
 50
297.0523826459893826
 51
345.8703988503760911
  0
ARC
  5
DB79
  8
0
 10
4189.171384878977733
 20
239.3231236737875918
 30
0.0
 40
0.0945892540384408
 50
239.1918360515415998
 51
292.1716863631227739
  0
ARC
  5
DB7A
  8
0
 10
4189.1465950112933569
 20
239.2795229769924106
 30
0.0
 40
0.044456821179572
 50
189.4396215744087897
 51
237.8525666187902914
  0
LINE
  5
DB7B
  8
0
 10
4189.1027401807559727
 20
239.2722316953577888
 30
0.0
 11
4189.0983610654811855
 21
239.2923952084618975
 31
0.0
  0
ARC
  5
DB7C
  8
0
 10
4189.148442246482773
 20
239.2949110151232901
 30
0.0
 40
0.0501443314197459
 50
121.4836442636170943
 51
182.8758115025869984
  0
ARC
  5
DB7D
  8
0
 10
4189.1861040399571721
 20
239.2472788451333088
 30
0.0
 40
0.1106707662852213
 50
86.165994162197336
 51
125.2353114832365009
  0
ARC
  5
DB7E
  8
0
 10
4189.1931810306286934
 20
239.2965245784675119
 30
0.0
 40
0.0611782005019706
 50
37.9295526475360916
 51
89.6973732047843555
  0
ARC
  5
DB7F
  8
0
 10
4189.2104339710858767
 20
239.3159983597487894
 30
0.0
 40
0.0359154315365556
 50
351.3163852515032772
 51
30.3215266097318512
  0
LINE
  5
DB80
  8
0
 10
4189.2459377077448153
 20
239.3105759151306131
 30
0.0
 11
4189.2399387094201302
 21
239.2767789847787014
 31
0.0
  0
ARC
  5
DB81
  8
0
 10
4189.1890429398708875
 20
239.2827882171633007
 30
0.0
 40
0.0512492949402101
 50
353.2662970031125269
 51
44.9297726543164728
  0
ARC
  5
DB82
  8
0
 10
4189.1717465585097671
 20
239.2613266176491038
 30
0.0
 40
0.0787080853961828
 50
47.0987483063922525
 51
139.9811637228908978
  0
ARC
  5
DB83
  8
0
 10
4189.1547204696598783
 20
239.2816176784274944
 30
0.0
 40
0.0528208965833013
 50
144.9675257771328063
 51
190.23549990160069
  0
ARC
  5
DB84
  8
0
 10
4189.5998162459363812
 20
239.4599497977783926
 30
0.0
 40
0.0163075007463187
 50
312.4321467855859282
 51
37.5996950543634014
  0
ARC
  5
DB85
  8
0
 10
4189.5926859993251128
 20
239.4675732763091105
 30
0.0
 40
0.0267453745575686
 50
217.5923314898466003
 51
312.6870406153090016
  0
ARC
  5
DB86
  8
0
 10
4189.58477719054099
 20
239.4600066532987057
 30
0.0
 40
0.0159058808929741
 50
153.7770878470522007
 51
213.370753392602694
  0
ARC
  5
DB87
  8
0
 10
4189.5926817191711962
 20
239.4528529401789001
 30
0.0
 40
0.0263208626621462
 50
40.3647263624424113
 51
147.3972936572021979
  0
ARC
  5
DB88
  8
0
 10
4189.5987788285519855
 20
239.4797053266771059
 30
0.0
 40
0.0638081396161144
 50
297.0523826459893826
 51
345.8703988503760911
  0
ARC
  5
DB89
  8
0
 10
4189.5921026878777411
 20
239.5104734245875875
 30
0.0
 40
0.0945892540384408
 50
239.1918360515415998
 51
292.1716863631227739
  0
ARC
  5
DB8A
  8
0
 10
4189.5673128201942745
 20
239.4668727277924063
 30
0.0
 40
0.044456821179572
 50
189.4396215744087897
 51
237.8525666187902914
  0
LINE
  5
DB8B
  8
0
 10
4189.5234579896559808
 20
239.4595814461578982
 30
0.0
 11
4189.5190788743821031
 21
239.4797449592618932
 31
0.0
  0
ARC
  5
DB8C
  8
0
 10
4189.5691600553827811
 20
239.4822607659232858
 30
0.0
 40
0.0501443314197459
 50
121.4836442636170943
 51
182.8758115025869984
  0
ARC
  5
DB8D
  8
0
 10
4189.6068218488571802
 20
239.4346285959333898
 30
0.0
 40
0.1106707662852213
 50
86.165994162197336
 51
125.2353114832365009
  0
ARC
  5
DB8E
  8
0
 10
4189.613898839527792
 20
239.4838743292675929
 30
0.0
 40
0.0611782005019706
 50
37.9295526475360916
 51
89.6973732047843555
  0
ARC
  5
DB8F
  8
0
 10
4189.6311517799858848
 20
239.5033481105488136
 30
0.0
 40
0.0359154315365556
 50
351.3163852515032772
 51
30.3215266097318512
  0
LINE
  5
DB90
  8
0
 10
4189.6666555166448234
 20
239.4979256659306941
 30
0.0
 11
4189.6606565183201383
 21
239.4641287355786972
 31
0.0
  0
ARC
  5
DB91
  8
0
 10
4189.6097607487708956
 20
239.4701379679632964
 30
0.0
 40
0.0512492949402101
 50
353.2662970031125269
 51
44.9297726543164728
  0
ARC
  5
DB92
  8
0
 10
4189.5924643674097752
 20
239.4486763684490995
 30
0.0
 40
0.0787080853961828
 50
47.0987483063922525
 51
139.9811637228908978
  0
ARC
  5
DB93
  8
0
 10
4189.5754382785589769
 20
239.4689674292274049
 30
0.0
 40
0.0528208965833013
 50
144.9675257771328063
 51
190.23549990160069
  0
ARC
  5
DB94
  8
0
 10
4189.5808866226361715
 20
239.7056013438239006
 30
0.0
 40
0.0163075007463187
 50
312.4321467855859282
 51
37.5996950543634014
  0
ARC
  5
DB95
  8
0
 10
4189.5737563760239937
 20
239.7132248223545901
 30
0.0
 40
0.0267453745575686
 50
217.5923314898466003
 51
312.6870406153090016
  0
ARC
  5
DB96
  8
0
 10
4189.5658475672389613
 20
239.7056581993442137
 30
0.0
 40
0.0159058808929741
 50
153.7770878470522007
 51
213.370753392602694
  0
ARC
  5
DB97
  8
0
 10
4189.5737520958691675
 20
239.6985044862244081
 30
0.0
 40
0.0263208626621462
 50
40.3647263624424113
 51
147.3972936572021979
  0
ARC
  5
DB98
  8
0
 10
4189.5798492052499569
 20
239.7253568727226138
 30
0.0
 40
0.0638081396161144
 50
297.0523826459893826
 51
345.8703988503760911
  0
ARC
  5
DB99
  8
0
 10
4189.5731730645757125
 20
239.7561249706330102
 30
0.0
 40
0.0945892540384408
 50
239.1918360515415998
 51
292.1716863631227739
  0
ARC
  5
DB9A
  8
0
 10
4189.5483831968922459
 20
239.7125242738378859
 30
0.0
 40
0.044456821179572
 50
189.4396215744087897
 51
237.8525666187902914
  0
LINE
  5
DB9B
  8
0
 10
4189.5045283663539522
 20
239.7052329922032925
 30
0.0
 11
4189.5001492510800745
 21
239.7253965053072875
 31
0.0
  0
ARC
  5
DB9C
  8
0
 10
4189.5502304320807525
 20
239.7279123119687085
 30
0.0
 40
0.0501443314197459
 50
121.4836442636170943
 51
182.8758115025869984
  0
ARC
  5
DB9D
  8
0
 10
4189.587892225556061
 20
239.6802801419788125
 30
0.0
 40
0.1106707662852213
 50
86.165994162197336
 51
125.2353114832365009
  0
ARC
  5
DB9E
  8
0
 10
4189.5949692162257634
 20
239.7295258753129872
 30
0.0
 40
0.0611782005019706
 50
37.9295526475360916
 51
89.6973732047843555
  0
ARC
  5
DB9F
  8
0
 10
4189.6122221566838562
 20
239.7489996565942931
 30
0.0
 40
0.0359154315365556
 50
351.3163852515032772
 51
30.3215266097318512
  0
LINE
  5
DBA0
  8
0
 10
4189.6477258933427947
 20
239.7435772119760884
 30
0.0
 11
4189.6417268950172001
 21
239.7097802816240915
 31
0.0
  0
ARC
  5
DBA1
  8
0
 10
4189.5908311254679575
 20
239.7157895140086907
 30
0.0
 40
0.0512492949402101
 50
353.2662970031125269
 51
44.9297726543164728
  0
ARC
  5
DBA2
  8
0
 10
4189.573534744106837
 20
239.6943279144946075
 30
0.0
 40
0.0787080853961828
 50
47.0987483063922525
 51
139.9811637228908978
  0
ARC
  5
DBA3
  8
0
 10
4189.5565086552578578
 20
239.7146189752729128
 30
0.0
 40
0.0528208965833013
 50
144.9675257771328063
 51
190.23549990160069
  0
ARC
  5
DBA4
  8
0
 10
4189.4301530206666939
 20
239.8634623547847866
 30
0.0
 40
0.0163075007463187
 50
312.4321467855859282
 51
37.5996950543634014
  0
ARC
  5
DBA5
  8
0
 10
4189.423022774056335
 20
239.8710858333155898
 30
0.0
 40
0.0267453745575686
 50
217.5923314898466003
 51
312.6870406153090016
  0
ARC
  5
DBA6
  8
0
 10
4189.4151139652703932
 20
239.8635192103052134
 30
0.0
 40
0.0159058808929741
 50
153.7770878470522007
 51
213.370753392602694
  0
ARC
  5
DBA7
  8
0
 10
4189.4230184938996899
 20
239.8563654971852941
 30
0.0
 40
0.0263208626621462
 50
40.3647263624424113
 51
147.3972936572021979
  0
ARC
  5
DBA8
  8
0
 10
4189.4291156032813888
 20
239.8832178836834998
 30
0.0
 40
0.0638081396161144
 50
297.0523826459893826
 51
345.8703988503760911
  0
ARC
  5
DBA9
  8
0
 10
4189.4224394626080539
 20
239.9139859815940099
 30
0.0
 40
0.0945892540384408
 50
239.1918360515415998
 51
292.1716863631227739
  0
ARC
  5
DBAA
  8
0
 10
4189.3976495949236778
 20
239.8703852847988003
 30
0.0
 40
0.044456821179572
 50
189.4396215744087897
 51
237.8525666187902914
  0
LINE
  5
DBAB
  8
0
 10
4189.353794764385384
 20
239.8630940031642922
 30
0.0
 11
4189.3494156491124158
 21
239.8832575162682872
 31
0.0
  0
ARC
  5
DBAC
  8
0
 10
4189.3994968301121844
 20
239.8857733229297082
 30
0.0
 40
0.0501443314197459
 50
121.4836442636170943
 51
182.8758115025869984
  0
ARC
  5
DBAD
  8
0
 10
4189.4371586235865834
 20
239.8381411529398122
 30
0.0
 40
0.1106707662852213
 50
86.165994162197336
 51
125.2353114832365009
  0
ARC
  5
DBAE
  8
0
 10
4189.4442356142581048
 20
239.8873868862739869
 30
0.0
 40
0.0611782005019706
 50
37.9295526475360916
 51
89.6973732047843555
  0
ARC
  5
DBAF
  8
0
 10
4189.461488554715288
 20
239.9068606675552076
 30
0.0
 40
0.0359154315365556
 50
351.3163852515032772
 51
30.3215266097318512
  0
LINE
  5
DBB0
  8
0
 10
4189.4969922913751361
 20
239.9014382229370881
 30
0.0
 11
4189.490993293048632
 21
239.8676412925850912
 31
0.0
  0
ARC
  5
DBB1
  8
0
 10
4189.4400975235002988
 20
239.8736505249696904
 30
0.0
 40
0.0512492949402101
 50
353.2662970031125269
 51
44.9297726543164728
  0
ARC
  5
DBB2
  8
0
 10
4189.4228011421382689
 20
239.8521889254554935
 30
0.0
 40
0.0787080853961828
 50
47.0987483063922525
 51
139.9811637228908978
  0
ARC
  5
DBB3
  8
0
 10
4189.4057750532901991
 20
239.8724799862339125
 30
0.0
 40
0.0528208965833013
 50
144.9675257771328063
 51
190.23549990160069
  0
ARC
  5
DBB4
  8
0
 10
4189.6418834613168656
 20
240.0876863745818923
 30
0.0
 40
0.0163075007463187
 50
312.4321467855859282
 51
37.5996950543634014
  0
ARC
  5
DBB5
  8
0
 10
4189.6347532147046877
 20
240.0953098531126955
 30
0.0
 40
0.0267453745575686
 50
217.5923314898466003
 51
312.6870406153090016
  0
ARC
  5
DBB6
  8
0
 10
4189.6268444059187459
 20
240.0877432301022907
 30
0.0
 40
0.0159058808929741
 50
153.7770878470522007
 51
213.370753392602694
  0
ARC
  5
DBB7
  8
0
 10
4189.6347489345498616
 20
240.0805895169825135
 30
0.0
 40
0.0263208626621462
 50
40.3647263624424113
 51
147.3972936572021979
  0
ARC
  5
DBB8
  8
0
 10
4189.6408460439306509
 20
240.1074419034806056
 30
0.0
 40
0.0638081396161144
 50
297.0523826459893826
 51
345.8703988503760911
  0
ARC
  5
DBB9
  8
0
 10
4189.6341699032582255
 20
240.1382100013910872
 30
0.0
 40
0.0945892540384408
 50
239.1918360515415998
 51
292.1716863631227739
  0
ARC
  5
DBBA
  8
0
 10
4189.6093800355720305
 20
240.0946093045959913
 30
0.0
 40
0.044456821179572
 50
189.4396215744087897
 51
237.8525666187902914
  0
LINE
  5
DBBB
  8
0
 10
4189.5655252050346462
 20
240.0873180229613979
 30
0.0
 11
4189.5611460897607685
 21
240.1074815360653929
 31
0.0
  0
ARC
  5
DBBC
  8
0
 10
4189.6112272707623561
 20
240.1099973427268139
 30
0.0
 40
0.0501443314197459
 50
121.4836442636170943
 51
182.8758115025869984
  0
ARC
  5
DBBD
  8
0
 10
4189.6488890642358456
 20
240.0623651727368895
 30
0.0
 40
0.1106707662852213
 50
86.165994162197336
 51
125.2353114832365009
  0
ARC
  5
DBBE
  8
0
 10
4189.6559660549082764
 20
240.1116109060710926
 30
0.0
 40
0.0611782005019706
 50
37.9295526475360916
 51
89.6973732047843555
  0
ARC
  5
DBBF
  8
0
 10
4189.6732189953645502
 20
240.1310846873523985
 30
0.0
 40
0.0359154315365556
 50
351.3163852515032772
 51
30.3215266097318512
  0
LINE
  5
DBC0
  8
0
 10
4189.7087227320253078
 20
240.1256622427341938
 30
0.0
 11
4189.7027237336988037
 21
240.0918653123821969
 31
0.0
  0
ARC
  5
DBC1
  8
0
 10
4189.651827964149561
 20
240.0978745447667961
 30
0.0
 40
0.0512492949402101
 50
353.2662970031125269
 51
44.9297726543164728
  0
ARC
  5
DBC2
  8
0
 10
4189.6345315827893501
 20
240.0764129452527129
 30
0.0
 40
0.0787080853961828
 50
47.0987483063922525
 51
139.9811637228908978
  0
ARC
  5
DBC3
  8
0
 10
4189.6175054939403708
 20
240.0967040060309898
 30
0.0
 40
0.0528208965833013
 50
144.9675257771328063
 51
190.23549990160069
  0
ARC
  5
DBC4
  8
0
 10
4189.8478937476702413
 20
239.9601194018860895
 30
0.0
 40
0.0163075007463187
 50
312.4321467855859282
 51
37.5996950543634014
  0
ARC
  5
DBC5
  8
0
 10
4189.8407635010589729
 20
239.9677428804168926
 30
0.0
 40
0.0267453745575686
 50
217.5923314898466003
 51
312.6870406153090016
  0
ARC
  5
DBC6
  8
0
 10
4189.8328546922730311
 20
239.9601762574064878
 30
0.0
 40
0.0159058808929741
 50
153.7770878470522007
 51
213.370753392602694
  0
ARC
  5
DBC7
  8
0
 10
4189.8407592209041468
 20
239.9530225442865969
 30
0.0
 40
0.0263208626621462
 50
40.3647263624424113
 51
147.3972936572021979
  0
ARC
  5
DBC8
  8
0
 10
4189.8468563302849361
 20
239.979874930784888
 30
0.0
 40
0.0638081396161144
 50
297.0523826459893826
 51
345.8703988503760911
  0
ARC
  5
DBC9
  8
0
 10
4189.8401801896106917
 20
240.010643028695398
 30
0.0
 40
0.0945892540384408
 50
239.1918360515415998
 51
292.1716863631227739
  0
ARC
  5
DBCA
  8
0
 10
4189.8153903219272252
 20
239.9670423319001884
 30
0.0
 40
0.044456821179572
 50
189.4396215744087897
 51
237.8525666187902914
  0
LINE
  5
DBCB
  8
0
 10
4189.7715354913889314
 20
239.959751050265595
 30
0.0
 11
4189.7671563761150537
 21
239.97991456336959
 31
0.0
  0
ARC
  5
DBCC
  8
0
 10
4189.8172375571148223
 20
239.9824303700310111
 30
0.0
 40
0.0501443314197459
 50
121.4836442636170943
 51
182.8758115025869984
  0
ARC
  5
DBCD
  8
0
 10
4189.8548993505901308
 20
239.9347982000410866
 30
0.0
 40
0.1106707662852213
 50
86.165994162197336
 51
125.2353114832365009
  0
ARC
  5
DBCE
  8
0
 10
4189.8619763412607426
 20
239.9840439333752897
 30
0.0
 40
0.0611782005019706
 50
37.9295526475360916
 51
89.6973732047843555
  0
ARC
  5
DBCF
  8
0
 10
4189.8792292817188354
 20
240.0035177146565957
 30
0.0
 40
0.0359154315365556
 50
351.3163852515032772
 51
30.3215266097318512
  0
LINE
  5
DBD0
  8
0
 10
4189.9147330183786835
 20
239.9980952700383909
 30
0.0
 11
4189.9087340200530889
 21
239.9642983396865077
 31
0.0
  0
ARC
  5
DBD1
  8
0
 10
4189.8578382505029367
 20
239.9703075720709933
 30
0.0
 40
0.0512492949402101
 50
353.2662970031125269
 51
44.9297726543164728
  0
ARC
  5
DBD2
  8
0
 10
4189.8405418691418163
 20
239.9488459725569101
 30
0.0
 40
0.0787080853961828
 50
47.0987483063922525
 51
139.9811637228908978
  0
ARC
  5
DBD3
  8
0
 10
4189.8235157802919275
 20
239.9691370333353007
 30
0.0
 40
0.0528208965833013
 50
144.9675257771328063
 51
190.23549990160069
  0
ARC
  5
DBD4
  8
0
 10
4190.1943276057099865
 20
240.0448622515035026
 30
0.0
 40
0.0163075007463187
 50
312.4321467855859282
 51
37.5996950543634014
  0
ARC
  5
DBD5
  8
0
 10
4190.1871973590978087
 20
240.0524857300343058
 30
0.0
 40
0.0267453745575686
 50
217.5923314898466003
 51
312.6870406153090016
  0
ARC
  5
DBD6
  8
0
 10
4190.1792885503127764
 20
240.0449191070239863
 30
0.0
 40
0.0159058808929741
 50
153.7770878470522007
 51
213.370753392602694
  0
ARC
  5
DBD7
  8
0
 10
4190.1871930789429825
 20
240.0377653939040954
 30
0.0
 40
0.0263208626621462
 50
40.3647263624424113
 51
147.3972936572021979
  0
ARC
  5
DBD8
  8
0
 10
4190.1932901883237719
 20
240.0646177804023012
 30
0.0
 40
0.0638081396161144
 50
297.0523826459893826
 51
345.8703988503760911
  0
ARC
  5
DBD9
  8
0
 10
4190.1866140476513465
 20
240.0953858783128112
 30
0.0
 40
0.0945892540384408
 50
239.1918360515415998
 51
292.1716863631227739
  0
ARC
  5
DBDA
  8
0
 10
4190.1618241799651514
 20
240.0517851815176016
 30
0.0
 40
0.044456821179572
 50
189.4396215744087897
 51
237.8525666187902914
  0
LINE
  5
DBDB
  8
0
 10
4190.1179693494286767
 20
240.0444938998830082
 30
0.0
 11
4190.113590234154799
 21
240.0646574129870885
 31
0.0
  0
ARC
  5
DBDC
  8
0
 10
4190.1636714151545675
 20
240.0671732196485095
 30
0.0
 40
0.0501443314197459
 50
121.4836442636170943
 51
182.8758115025869984
  0
ARC
  5
DBDD
  8
0
 10
4190.2013332086289665
 20
240.0195410496586135
 30
0.0
 40
0.1106707662852213
 50
86.165994162197336
 51
125.2353114832365009
  0
ARC
  5
DBDE
  8
0
 10
4190.2084101993013974
 20
240.0687867829927029
 30
0.0
 40
0.0611782005019706
 50
37.9295526475360916
 51
89.6973732047843555
  0
ARC
  5
DBDF
  8
0
 10
4190.2256631397576712
 20
240.0882605642740941
 30
0.0
 40
0.0359154315365556
 50
351.3163852515032772
 51
30.3215266097318512
  0
LINE
  5
DBE0
  8
0
 10
4190.2611668764184287
 20
240.0828381196558041
 30
0.0
 11
4190.2551678780928341
 21
240.0490411893038925
 31
0.0
  0
ARC
  5
DBE1
  8
0
 10
4190.2042721085435915
 20
240.0550504216884917
 30
0.0
 40
0.0512492949402101
 50
353.2662970031125269
 51
44.9297726543164728
  0
ARC
  5
DBE2
  8
0
 10
4190.1869757271815615
 20
240.0335888221742948
 30
0.0
 40
0.0787080853961828
 50
47.0987483063922525
 51
139.9811637228908978
  0
ARC
  5
DBE3
  8
0
 10
4190.1699496383325823
 20
240.0538798829527138
 30
0.0
 40
0.0528208965833013
 50
144.9675257771328063
 51
190.23549990160069
  0
ARC
  5
DBE4
  8
0
 10
4190.0185924471015824
 20
240.2562686264190006
 30
0.0
 40
0.0163075007463187
 50
312.4321467855859282
 51
37.5996950543634014
  0
ARC
  5
DBE5
  8
0
 10
4190.011462200490314
 20
240.2638921049496901
 30
0.0
 40
0.0267453745575686
 50
217.5923314898466003
 51
312.6870406153090016
  0
ARC
  5
DBE6
  8
0
 10
4190.0035533917025532
 20
240.2563254819393137
 30
0.0
 40
0.0159058808929741
 50
153.7770878470522007
 51
213.370753392602694
  0
ARC
  5
DBE7
  8
0
 10
4190.0114579203336689
 20
240.2491717688195081
 30
0.0
 40
0.0263208626621462
 50
40.3647263624424113
 51
147.3972936572021979
  0
ARC
  5
DBE8
  8
0
 10
4190.0175550297153677
 20
240.2760241553177138
 30
0.0
 40
0.0638081396161144
 50
297.0523826459893826
 51
345.8703988503760911
  0
ARC
  5
DBE9
  8
0
 10
4190.0108788890420328
 20
240.3067922532281102
 30
0.0
 40
0.0945892540384408
 50
239.1918360515415998
 51
292.1716863631227739
  0
ARC
  5
DBEA
  8
0
 10
4189.9860890213567473
 20
240.2631915564329859
 30
0.0
 40
0.044456821179572
 50
189.4396215744087897
 51
237.8525666187902914
  0
LINE
  5
DBEB
  8
0
 10
4189.942234190819363
 20
240.2559002747983925
 30
0.0
 11
4189.9378550755463948
 21
240.2760637879023875
 31
0.0
  0
ARC
  5
DBEC
  8
0
 10
4189.9879362565461633
 20
240.2785795945638085
 30
0.0
 40
0.0501443314197459
 50
121.4836442636170943
 51
182.8758115025869984
  0
ARC
  5
DBED
  8
0
 10
4190.0255980500205624
 20
240.2309474245739125
 30
0.0
 40
0.1106707662852213
 50
86.165994162197336
 51
125.2353114832365009
  0
ARC
  5
DBEE
  8
0
 10
4190.0326750406929932
 20
240.2801931579080872
 30
0.0
 40
0.0611782005019706
 50
37.9295526475360916
 51
89.6973732047843555
  0
ARC
  5
DBEF
  8
0
 10
4190.0499279811483575
 20
240.2996669391893931
 30
0.0
 40
0.0359154315365556
 50
351.3163852515032772
 51
30.3215266097318512
  0
LINE
  5
DBF0
  8
0
 10
4190.0854317178100246
 20
240.2942444945711884
 30
0.0
 11
4190.07943271948443
 21
240.2604475642191915
 31
0.0
  0
ARC
  5
DBF1
  8
0
 10
4190.0285369499342778
 20
240.2664567966037907
 30
0.0
 40
0.0512492949402101
 50
353.2662970031125269
 51
44.9297726543164728
  0
ARC
  5
DBF2
  8
0
 10
4190.0112405685731574
 20
240.2449951970897075
 30
0.0
 40
0.0787080853961828
 50
47.0987483063922525
 51
139.9811637228908978
  0
ARC
  5
DBF3
  8
0
 10
4189.9942144797241781
 20
240.2652862578680981
 30
0.0
 40
0.0528208965833013
 50
144.9675257771328063
 51
190.23549990160069
  0
ARC
  5
DBF4
  8
0
 10
4189.774325422416041
 20
240.3488196715971981
 30
0.0
 40
0.0163075007463187
 50
312.4321467855859282
 51
37.5996950543634014
  0
ARC
  5
DBF5
  8
0
 10
4189.7671951758047726
 20
240.3564431501280012
 30
0.0
 40
0.0267453745575686
 50
217.5923314898466003
 51
312.6870406153090016
  0
ARC
  5
DBF6
  8
0
 10
4189.7592863670197403
 20
240.3488765271175964
 30
0.0
 40
0.0159058808929741
 50
153.7770878470522007
 51
213.370753392602694
  0
ARC
  5
DBF7
  8
0
 10
4189.7671908956499465
 20
240.3417228139977055
 30
0.0
 40
0.0263208626621462
 50
40.3647263624424113
 51
147.3972936572021979
  0
ARC
  5
DBF8
  8
0
 10
4189.7732880050307358
 20
240.3685752004959113
 30
0.0
 40
0.0638081396161144
 50
297.0523826459893826
 51
345.8703988503760911
  0
ARC
  5
DBF9
  8
0
 10
4189.7666118643574009
 20
240.3993432984063929
 30
0.0
 40
0.0945892540384408
 50
239.1918360515415998
 51
292.1716863631227739
  0
ARC
  5
DBFA
  8
0
 10
4189.7418219966730248
 20
240.355742601611297
 30
0.0
 40
0.044456821179572
 50
189.4396215744087897
 51
237.8525666187902914
  0
LINE
  5
DBFB
  8
0
 10
4189.6979671661347311
 20
240.3484513199767036
 30
0.0
 11
4189.6935880508617629
 21
240.3686148330806986
 31
0.0
  0
ARC
  5
DBFC
  8
0
 10
4189.7436692318606219
 20
240.3711306397420913
 30
0.0
 40
0.0501443314197459
 50
121.4836442636170943
 51
182.8758115025869984
  0
ARC
  5
DBFD
  8
0
 10
4189.7813310253359305
 20
240.3234984697521952
 30
0.0
 40
0.1106707662852213
 50
86.165994162197336
 51
125.2353114832365009
  0
ARC
  5
DBFE
  8
0
 10
4189.7884080160083613
 20
240.3727442030863983
 30
0.0
 40
0.0611782005019706
 50
37.9295526475360916
 51
89.6973732047843555
  0
ARC
  5
DBFF
  8
0
 10
4189.8056609564646351
 20
240.3922179843677043
 30
0.0
 40
0.0359154315365556
 50
351.3163852515032772
 51
30.3215266097318512
  0
LINE
  5
DC00
  8
0
 10
4189.8411646931235737
 20
240.3867955397494995
 30
0.0
 11
4189.8351656947979791
 21
240.3529986093975879
 31
0.0
  0
ARC
  5
DC01
  8
0
 10
4189.7842699252496459
 20
240.3590078417821019
 30
0.0
 40
0.0512492949402101
 50
353.2662970031125269
 51
44.9297726543164728
  0
ARC
  5
DC02
  8
0
 10
4189.766973543887616
 20
240.3375462422679902
 30
0.0
 40
0.0787080853961828
 50
47.0987483063922525
 51
139.9811637228908978
  0
ARC
  5
DC03
  8
0
 10
4189.7499474550386367
 20
240.3578373030462956
 30
0.0
 40
0.0528208965833013
 50
144.9675257771328063
 51
190.23549990160069
  0
ARC
  5
DC04
  8
0
 10
4190.3319807070784009
 20
240.4088236331299129
 30
0.0
 40
0.0163075007463187
 50
312.4321467855859282
 51
37.5996950543634014
  0
ARC
  5
DC05
  8
0
 10
4190.324850460466223
 20
240.4164471116606023
 30
0.0
 40
0.0267453745575686
 50
217.5923314898466003
 51
312.6870406153090016
  0
ARC
  5
DC06
  8
0
 10
4190.3169416516830097
 20
240.4088804886501975
 30
0.0
 40
0.0159058808929741
 50
153.7770878470522007
 51
213.370753392602694
  0
ARC
  5
DC07
  8
0
 10
4190.3248461803123064
 20
240.4017267755303919
 30
0.0
 40
0.0263208626621462
 50
40.3647263624424113
 51
147.3972936572021979
  0
ARC
  5
DC08
  8
0
 10
4190.3309432896930957
 20
240.4285791620285124
 30
0.0
 40
0.0638081396161144
 50
297.0523826459893826
 51
345.8703988503760911
  0
ARC
  5
DC09
  8
0
 10
4190.3242671490188513
 20
240.4593472599391077
 30
0.0
 40
0.0945892540384408
 50
239.1918360515415998
 51
292.1716863631227739
  0
ARC
  5
DC0A
  8
0
 10
4190.2994772813353848
 20
240.4157465631438981
 30
0.0
 40
0.044456821179572
 50
189.4396215744087897
 51
237.8525666187902914
  0
LINE
  5
DC0B
  8
0
 10
4190.255622450797091
 20
240.40845528150939
 30
0.0
 11
4190.2512433355232133
 21
240.4286187946134135
 31
0.0
  0
ARC
  5
DC0C
  8
0
 10
4190.3013245165238914
 20
240.4311346012746924
 30
0.0
 40
0.0501443314197459
 50
121.4836442636170943
 51
182.8758115025869984
  0
ARC
  5
DC0D
  8
0
 10
4190.3389863099982904
 20
240.38350243128491
 30
0.0
 40
0.1106707662852213
 50
86.165994162197336
 51
125.2353114832365009
  0
ARC
  5
DC0E
  8
0
 10
4190.3460633006698117
 20
240.4327481646189995
 30
0.0
 40
0.0611782005019706
 50
37.9295526475360916
 51
89.6973732047843555
  0
ARC
  5
DC0F
  8
0
 10
4190.363316241126995
 20
240.4522219459003054
 30
0.0
 40
0.0359154315365556
 50
351.3163852515032772
 51
30.3215266097318512
  0
LINE
  5
DC10
  8
0
 10
4190.3988199777868431
 20
240.4467995012821007
 30
0.0
 11
4190.3928209794612485
 21
240.413002570930189
 31
0.0
  0
ARC
  5
DC11
  8
0
 10
4190.3419252099120058
 20
240.419011803314703
 30
0.0
 40
0.0512492949402101
 50
353.2662970031125269
 51
44.9297726543164728
  0
ARC
  5
DC12
  8
0
 10
4190.3246288285508854
 20
240.3975502038005914
 30
0.0
 40
0.0787080853961828
 50
47.0987483063922525
 51
139.9811637228908978
  0
ARC
  5
DC13
  8
0
 10
4190.3076027397019061
 20
240.4178412645788967
 30
0.0
 40
0.0528208965833013
 50
144.9675257771328063
 51
190.23549990160069
  0
ARC
  5
DC14
  8
0
 10
4190.0864506587740834
 20
240.577137997435301
 30
0.0
 40
0.0163075007463187
 50
312.4321467855859282
 51
37.5996950543634014
  0
ARC
  5
DC15
  8
0
 10
4190.0793204121619056
 20
240.5847614759661042
 30
0.0
 40
0.0267453745575686
 50
217.5923314898466003
 51
312.6870406153090016
  0
ARC
  5
DC16
  8
0
 10
4190.0714116033759638
 20
240.5771948529556141
 30
0.0
 40
0.0159058808929741
 50
153.7770878470522007
 51
213.370753392602694
  0
ARC
  5
DC17
  8
0
 10
4190.0793161320070794
 20
240.5700411398358085
 30
0.0
 40
0.0263208626621462
 50
40.3647263624424113
 51
147.3972936572021979
  0
ARC
  5
DC18
  8
0
 10
4190.0854132413869593
 20
240.5968935263339858
 30
0.0
 40
0.0638081396161144
 50
297.0523826459893826
 51
345.8703988503760911
  0
ARC
  5
DC19
  8
0
 10
4190.0787371007154434
 20
240.6276616242444959
 30
0.0
 40
0.0945892540384408
 50
239.1918360515415998
 51
292.1716863631227739
  0
ARC
  5
DC1A
  8
0
 10
4190.0539472330301578
 20
240.5840609274492863
 30
0.0
 40
0.044456821179572
 50
189.4396215744087897
 51
237.8525666187902914
  0
LINE
  5
DC1B
  8
0
 10
4190.0100924024909546
 20
240.5767696458148066
 30
0.0
 11
4190.0057132872188959
 21
240.5969331589188016
 31
0.0
  0
ARC
  5
DC1C
  8
0
 10
4190.0557944682177549
 20
240.5994489655801942
 30
0.0
 40
0.0501443314197459
 50
121.4836442636170943
 51
182.8758115025869984
  0
ARC
  5
DC1D
  8
0
 10
4190.0934562616939729
 20
240.5518167955902982
 30
0.0
 40
0.1106707662852213
 50
86.165994162197336
 51
125.2353114832365009
  0
ARC
  5
DC1E
  8
0
 10
4190.1005332523645848
 20
240.6010625289245013
 30
0.0
 40
0.0611782005019706
 50
37.9295526475360916
 51
89.6973732047843555
  0
ARC
  5
DC1F
  8
0
 10
4190.1177861928208586
 20
240.6205363102058072
 30
0.0
 40
0.0359154315365556
 50
351.3163852515032772
 51
30.3215266097318512
  0
LINE
  5
DC20
  8
0
 10
4190.1532899294816161
 20
240.6151138655876025
 30
0.0
 11
4190.1472909311560215
 21
240.5813169352356056
 31
0.0
  0
ARC
  5
DC21
  8
0
 10
4190.0963951616067789
 20
240.5873261676202048
 30
0.0
 40
0.0512492949402101
 50
353.2662970031125269
 51
44.9297726543164728
  0
ARC
  5
DC22
  8
0
 10
4190.0790987802456584
 20
240.5658645681060932
 30
0.0
 40
0.0787080853961828
 50
47.0987483063922525
 51
139.9811637228908978
  0
ARC
  5
DC23
  8
0
 10
4190.0620726913966791
 20
240.5861556288843985
 30
0.0
 40
0.0528208965833013
 50
144.9675257771328063
 51
190.23549990160069
  0
ARC
  5
DC24
  8
0
 10
4189.8219600569127579
 20
240.6305939208357074
 30
0.0
 40
0.0163075007463187
 50
312.4321467855859282
 51
37.5996950543634014
  0
ARC
  5
DC25
  8
0
 10
4189.814829810302399
 20
240.6382173993663969
 30
0.0
 40
0.0267453745575686
 50
217.5923314898466003
 51
312.6870406153090016
  0
ARC
  5
DC26
  8
0
 10
4189.8069210015155477
 20
240.6306507763559921
 30
0.0
 40
0.0159058808929741
 50
153.7770878470522007
 51
213.370753392602694
  0
ARC
  5
DC27
  8
0
 10
4189.8148255301475729
 20
240.6234970632361865
 30
0.0
 40
0.0263208626621462
 50
40.3647263624424113
 51
147.3972936572021979
  0
ARC
  5
DC28
  8
0
 10
4189.8209226395292717
 20
240.6503494497343922
 30
0.0
 40
0.0638081396161144
 50
297.0523826459893826
 51
345.8703988503760911
  0
ARC
  5
DC29
  8
0
 10
4189.8142464988550273
 20
240.6811175476449023
 30
0.0
 40
0.0945892540384408
 50
239.1918360515415998
 51
292.1716863631227739
  0
ARC
  5
DC2A
  8
0
 10
4189.7894566311697417
 20
240.6375168508496927
 30
0.0
 40
0.044456821179572
 50
189.4396215744087897
 51
237.8525666187902914
  0
LINE
  5
DC2B
  8
0
 10
4189.7456018006323575
 20
240.630225569215213
 30
0.0
 11
4189.7412226853575703
 21
240.650389082319208
 31
0.0
  0
ARC
  5
DC2C
  8
0
 10
4189.7913038663600673
 20
240.6529048889804869
 30
0.0
 40
0.0501443314197459
 50
121.4836442636170943
 51
182.8758115025869984
  0
ARC
  5
DC2D
  8
0
 10
4189.8289656598335569
 20
240.6052727189905909
 30
0.0
 40
0.1106707662852213
 50
86.165994162197336
 51
125.2353114832365009
  0
ARC
  5
DC2E
  8
0
 10
4189.8360426505050782
 20
240.6545184523249077
 30
0.0
 40
0.0611782005019706
 50
37.9295526475360916
 51
89.6973732047843555
  0
ARC
  5
DC2F
  8
0
 10
4189.8532955909622615
 20
240.6739922336060999
 30
0.0
 40
0.0359154315365556
 50
351.3163852515032772
 51
30.3215266097318512
  0
LINE
  5
DC30
  8
0
 10
4189.8887993276212001
 20
240.6685697889880089
 30
0.0
 11
4189.8828003292956055
 21
240.634772858636012
 31
0.0
  0
ARC
  5
DC31
  8
0
 10
4189.8319045597472723
 20
240.6407820910204975
 30
0.0
 40
0.0512492949402101
 50
353.2662970031125269
 51
44.9297726543164728
  0
ARC
  5
DC32
  8
0
 10
4189.8146081783861518
 20
240.6193204915063859
 30
0.0
 40
0.0787080853961828
 50
47.0987483063922525
 51
139.9811637228908978
  0
ARC
  5
DC33
  8
0
 10
4189.7975820895362631
 20
240.6396115522848049
 30
0.0
 40
0.0528208965833013
 50
144.9675257771328063
 51
190.23549990160069
  0
ARC
  5
DC34
  8
0
 10
4190.3734682582644382
 20
240.7945786509691004
 30
0.0
 40
0.0163075007463187
 50
312.4321467855859282
 51
37.5996950543634014
  0
ARC
  5
DC35
  8
0
 10
4190.3663380116531698
 20
240.8022021294997899
 30
0.0
 40
0.0267453745575686
 50
217.5923314898466003
 51
312.6870406153090016
  0
ARC
  5
DC36
  8
0
 10
4190.3584292028681375
 20
240.7946355064894988
 30
0.0
 40
0.0159058808929741
 50
153.7770878470522007
 51
213.370753392602694
  0
ARC
  5
DC37
  8
0
 10
4190.3663337314983437
 20
240.7874817933696079
 30
0.0
 40
0.0263208626621462
 50
40.3647263624424113
 51
147.3972936572021979
  0
ARC
  5
DC38
  8
0
 10
4190.372430840879133
 20
240.8143341798678989
 30
0.0
 40
0.0638081396161144
 50
297.0523826459893826
 51
345.8703988503760911
  0
ARC
  5
DC39
  8
0
 10
4190.3657547002057981
 20
240.8451022777782953
 30
0.0
 40
0.0945892540384408
 50
239.1918360515415998
 51
292.1716863631227739
  0
ARC
  5
DC3A
  8
0
 10
4190.3409648325214221
 20
240.8015015809831993
 30
0.0
 40
0.044456821179572
 50
189.4396215744087897
 51
237.8525666187902914
  0
LINE
  5
DC3B
  8
0
 10
4190.2971100019831283
 20
240.794210299348606
 30
0.0
 11
4190.2927308867092506
 21
240.814373812452601
 31
0.0
  0
ARC
  5
DC3C
  8
0
 10
4190.3428120677099287
 20
240.8168896191139936
 30
0.0
 40
0.0501443314197459
 50
121.4836442636170943
 51
182.8758115025869984
  0
ARC
  5
DC3D
  8
0
 10
4190.3804738611852372
 20
240.7692574491240975
 30
0.0
 40
0.1106707662852213
 50
86.165994162197336
 51
125.2353114832365009
  0
ARC
  5
DC3E
  8
0
 10
4190.3875508518549395
 20
240.8185031824583007
 30
0.0
 40
0.0611782005019706
 50
37.9295526475360916
 51
89.6973732047843555
  0
ARC
  5
DC3F
  8
0
 10
4190.4048037923130323
 20
240.8379769637396066
 30
0.0
 40
0.0359154315365556
 50
351.3163852515032772
 51
30.3215266097318512
  0
LINE
  5
DC40
  8
0
 10
4190.4403075289719709
 20
240.8325545191214019
 30
0.0
 11
4190.4343085306472858
 21
240.7987575887694049
 31
0.0
  0
ARC
  5
DC41
  8
0
 10
4190.3834127610980431
 20
240.8047668211540042
 30
0.0
 40
0.0512492949402101
 50
353.2662970031125269
 51
44.9297726543164728
  0
ARC
  5
DC42
  8
0
 10
4190.3661163797369227
 20
240.7833052216398926
 30
0.0
 40
0.0787080853961828
 50
47.0987483063922525
 51
139.9811637228908978
  0
ARC
  5
DC43
  8
0
 10
4190.3490902908870339
 20
240.8035962824181979
 30
0.0
 40
0.0528208965833013
 50
144.9675257771328063
 51
190.23549990160069
  0
ARC
  5
DC44
  8
0
 10
4190.0703675126633243
 20
240.9061576310249961
 30
0.0
 40
0.0163075007463187
 50
312.4321467855859282
 51
37.5996950543634014
  0
ARC
  5
DC45
  8
0
 10
4190.0632372660511464
 20
240.9137811095557993
 30
0.0
 40
0.0267453745575686
 50
217.5923314898466003
 51
312.6870406153090016
  0
ARC
  5
DC46
  8
0
 10
4190.0553284572652046
 20
240.9062144865453945
 30
0.0
 40
0.0159058808929741
 50
153.7770878470522007
 51
213.370753392602694
  0
ARC
  5
DC47
  8
0
 10
4190.0632329858954108
 20
240.8990607734255036
 30
0.0
 40
0.0263208626621462
 50
40.3647263624424113
 51
147.3972936572021979
  0
ARC
  5
DC48
  8
0
 10
4190.0693300952752907
 20
240.9259131599237094
 30
0.0
 40
0.0638081396161144
 50
297.0523826459893826
 51
345.8703988503760911
  0
ARC
  5
DC49
  8
0
 10
4190.0626539546037748
 20
240.956681257834191
 30
0.0
 40
0.0945892540384408
 50
239.1918360515415998
 51
292.1716863631227739
  0
ARC
  5
DC4A
  8
0
 10
4190.0378640869175797
 20
240.9130805610390951
 30
0.0
 40
0.044456821179572
 50
189.4396215744087897
 51
237.8525666187902914
  0
LINE
  5
DC4B
  8
0
 10
4189.9940092563801954
 20
240.9057892794045017
 30
0.0
 11
4189.9896301411072272
 21
240.9259527925084967
 31
0.0
  0
ARC
  5
DC4C
  8
0
 10
4190.0397113221060863
 20
240.9284685991698893
 30
0.0
 40
0.0501443314197459
 50
121.4836442636170943
 51
182.8758115025869984
  0
ARC
  5
DC4D
  8
0
 10
4190.0773731155823043
 20
240.8808364291799933
 30
0.0
 40
0.1106707662852213
 50
86.165994162197336
 51
125.2353114832365009
  0
ARC
  5
DC4E
  8
0
 10
4190.0844501062538257
 20
240.9300821625141964
 30
0.0
 40
0.0611782005019706
 50
37.9295526475360916
 51
89.6973732047843555
  0
ARC
  5
DC4F
  8
0
 10
4190.1017030467100994
 20
240.9495559437953887
 30
0.0
 40
0.0359154315365556
 50
351.3163852515032772
 51
30.3215266097318512
  0
LINE
  5
DC50
  8
0
 10
4190.137206783370857
 20
240.9441334991772976
 30
0.0
 11
4190.1312077850443529
 21
240.9103365688253007
 31
0.0
  0
ARC
  5
DC51
  8
0
 10
4190.0803120154951102
 20
240.9163458012098999
 30
0.0
 40
0.0512492949402101
 50
353.2662970031125269
 51
44.9297726543164728
  0
ARC
  5
DC52
  8
0
 10
4190.0630156341339898
 20
240.8948842016957883
 30
0.0
 40
0.0787080853961828
 50
47.0987483063922525
 51
139.9811637228908978
  0
ARC
  5
DC53
  8
0
 10
4190.0459895452850105
 20
240.9151752624740936
 30
0.0
 40
0.0528208965833013
 50
144.9675257771328063
 51
190.23549990160069
  0
ARC
  5
DC54
  8
0
 10
4189.7747696301794349
 20
240.9102019310658136
 30
0.0
 40
0.0163075007463187
 50
312.4321467855859282
 51
37.5996950543634014
  0
ARC
  5
DC55
  8
0
 10
4189.7676393835681665
 20
240.9178254095965031
 30
0.0
 40
0.0267453745575686
 50
217.5923314898466003
 51
312.6870406153090016
  0
ARC
  5
DC56
  8
0
 10
4189.7597305747822247
 20
240.910258786586212
 30
0.0
 40
0.0159058808929741
 50
153.7770878470522007
 51
213.370753392602694
  0
ARC
  5
DC57
  8
0
 10
4189.7676351034142499
 20
240.9031050734662927
 30
0.0
 40
0.0263208626621462
 50
40.3647263624424113
 51
147.3972936572021979
  0
ARC
  5
DC58
  8
0
 10
4189.7737322127950392
 20
240.9299574599644984
 30
0.0
 40
0.0638081396161144
 50
297.0523826459893826
 51
345.8703988503760911
  0
ARC
  5
DC59
  8
0
 10
4189.7670560721198854
 20
240.9607255578750085
 30
0.0
 40
0.0945892540384408
 50
239.1918360515415998
 51
292.1716863631227739
  0
ARC
  5
DC5A
  8
0
 10
4189.7422662044364188
 20
240.9171248610799125
 30
0.0
 40
0.044456821179572
 50
189.4396215744087897
 51
237.8525666187902914
  0
LINE
  5
DC5B
  8
0
 10
4189.6984113738972155
 20
240.9098335794452908
 30
0.0
 11
4189.6940322586242473
 21
240.9299970925493142
 31
0.0
  0
ARC
  5
DC5C
  8
0
 10
4189.7441134396249254
 20
240.9325128992107068
 30
0.0
 40
0.0501443314197459
 50
121.4836442636170943
 51
182.8758115025869984
  0
ARC
  5
DC5D
  8
0
 10
4189.7817752330993244
 20
240.8848807292208107
 30
0.0
 40
0.1106707662852213
 50
86.165994162197336
 51
125.2353114832365009
  0
ARC
  5
DC5E
  8
0
 10
4189.7888522237699362
 20
240.9341264625549002
 30
0.0
 40
0.0611782005019706
 50
37.9295526475360916
 51
89.6973732047843555
  0
ARC
  5
DC5F
  8
0
 10
4189.806105164228029
 20
240.9536002438362061
 30
0.0
 40
0.0359154315365556
 50
351.3163852515032772
 51
30.3215266097318512
  0
LINE
  5
DC60
  8
0
 10
4189.8416089008878771
 20
240.9481777992180014
 30
0.0
 11
4189.8356099025622825
 21
240.9143808688660897
 31
0.0
  0
ARC
  5
DC61
  8
0
 10
4189.7847141330130398
 20
240.920390101250689
 30
0.0
 40
0.0512492949402101
 50
353.2662970031125269
 51
44.9297726543164728
  0
ARC
  5
DC62
  8
0
 10
4189.7674177516510099
 20
240.8989285017366058
 30
0.0
 40
0.0787080853961828
 50
47.0987483063922525
 51
139.9811637228908978
  0
ARC
  5
DC63
  8
0
 10
4189.7503916628011211
 20
240.9192195625149111
 30
0.0
 40
0.0528208965833013
 50
144.9675257771328063
 51
190.23549990160069
  0
ARC
  5
DC64
  8
0
 10
4190.2823569253787355
 20
241.1709709397094912
 30
0.0
 40
0.0163075007463187
 50
312.4321467855859282
 51
37.5996950543634014
  0
ARC
  5
DC65
  8
0
 10
4190.2752266787683766
 20
241.1785944182402091
 30
0.0
 40
0.0267453745575686
 50
217.5923314898466003
 51
312.6870406153090016
  0
ARC
  5
DC66
  8
0
 10
4190.2673178699833443
 20
241.1710277952298895
 30
0.0
 40
0.0159058808929741
 50
153.7770878470522007
 51
213.370753392602694
  0
ARC
  5
DC67
  8
0
 10
4190.275222398612641
 20
241.1638740821099987
 30
0.0
 40
0.0263208626621462
 50
40.3647263624424113
 51
147.3972936572021979
  0
ARC
  5
DC68
  8
0
 10
4190.2813195079934303
 20
241.1907264686082897
 30
0.0
 40
0.0638081396161144
 50
297.0523826459893826
 51
345.8703988503760911
  0
ARC
  5
DC69
  8
0
 10
4190.2746433673191859
 20
241.2214945665187997
 30
0.0
 40
0.0945892540384408
 50
239.1918360515415998
 51
292.1716863631227739
  0
ARC
  5
DC6A
  8
0
 10
4190.2498534996348099
 20
241.1778938697235901
 30
0.0
 40
0.044456821179572
 50
189.4396215744087897
 51
237.8525666187902914
  0
LINE
  5
DC6B
  8
0
 10
4190.2059986690974256
 20
241.1706025880889968
 30
0.0
 11
4190.2016195538235479
 21
241.1907661011929918
 31
0.0
  0
ARC
  5
DC6C
  8
0
 10
4190.2517007348242259
 20
241.1932819078544128
 30
0.0
 40
0.0501443314197459
 50
121.4836442636170943
 51
182.8758115025869984
  0
ARC
  5
DC6D
  8
0
 10
4190.289362528298625
 20
241.1456497378644883
 30
0.0
 40
0.1106707662852213
 50
86.165994162197336
 51
125.2353114832365009
  0
ARC
  5
DC6E
  8
0
 10
4190.2964395189710558
 20
241.1948954711986914
 30
0.0
 40
0.0611782005019706
 50
37.9295526475360916
 51
89.6973732047843555
  0
ARC
  5
DC6F
  8
0
 10
4190.3136924594273296
 20
241.2143692524799974
 30
0.0
 40
0.0359154315365556
 50
351.3163852515032772
 51
30.3215266097318512
  0
LINE
  5
DC70
  8
0
 10
4190.3491961960880872
 20
241.2089468078617926
 30
0.0
 11
4190.3431971977606736
 21
241.1751498775099094
 31
0.0
  0
ARC
  5
DC71
  8
0
 10
4190.2923014282123404
 20
241.181159109894395
 30
0.0
 40
0.0512492949402101
 50
353.2662970031125269
 51
44.9297726543164728
  0
ARC
  5
DC72
  8
0
 10
4190.27500504685122
 20
241.1596975103803118
 30
0.0
 40
0.0787080853961828
 50
47.0987483063922525
 51
139.9811637228908978
  0
ARC
  5
DC73
  8
0
 10
4190.2579789580022407
 20
241.1799885711585887
 30
0.0
 40
0.0528208965833013
 50
144.9675257771328063
 51
190.23549990160069
  0
ARC
  5
DC74
  8
0
 10
4189.9387642174551729
 20
241.2165156750810127
 30
0.0
 40
0.0163075007463187
 50
312.4321467855859282
 51
37.5996950543634014
  0
ARC
  5
DC75
  8
0
 10
4189.9316339708439045
 20
241.2241391536117874
 30
0.0
 40
0.0267453745575686
 50
217.5923314898466003
 51
312.6870406153090016
  0
ARC
  5
DC76
  8
0
 10
4189.9237251620579627
 20
241.216572530601411
 30
0.0
 40
0.0159058808929741
 50
153.7770878470522007
 51
213.370753392602694
  0
ARC
  5
DC77
  8
0
 10
4189.9316296906881689
 20
241.2094188174814917
 30
0.0
 40
0.0263208626621462
 50
40.3647263624424113
 51
147.3972936572021979
  0
ARC
  5
DC78
  8
0
 10
4189.9377268000689583
 20
241.2362712039798112
 30
0.0
 40
0.0638081396161144
 50
297.0523826459893826
 51
345.8703988503760911
  0
ARC
  5
DC79
  8
0
 10
4189.9310506593947139
 20
241.2670393018902928
 30
0.0
 40
0.0945892540384408
 50
239.1918360515415998
 51
292.1716863631227739
  0
ARC
  5
DC7A
  8
0
 10
4189.9062607917112473
 20
241.2234386050951116
 30
0.0
 40
0.044456821179572
 50
189.4396215744087897
 51
237.8525666187902914
  0
LINE
  5
DC7B
  8
0
 10
4189.862405961172044
 20
241.2161473234604898
 30
0.0
 11
4189.8580268458990759
 21
241.2363108365645132
 31
0.0
  0
ARC
  5
DC7C
  8
0
 10
4189.9081080268997539
 20
241.2388266432259059
 30
0.0
 40
0.0501443314197459
 50
121.4836442636170943
 51
182.8758115025869984
  0
ARC
  5
DC7D
  8
0
 10
4189.9457698203750624
 20
241.1911944732360098
 30
0.0
 40
0.1106707662852213
 50
86.165994162197336
 51
125.2353114832365009
  0
ARC
  5
DC7E
  8
0
 10
4189.9528468110456743
 20
241.2404402065702129
 30
0.0
 40
0.0611782005019706
 50
37.9295526475360916
 51
89.6973732047843555
  0
ARC
  5
DC7F
  8
0
 10
4189.970099751501948
 20
241.2599139878514904
 30
0.0
 40
0.0359154315365556
 50
351.3163852515032772
 51
30.3215266097318512
  0
LINE
  5
DC80
  8
0
 10
4190.0056034881627056
 20
241.2544915432333141
 30
0.0
 11
4189.999604489837111
 21
241.2206946128812888
 31
0.0
  0
ARC
  5
DC81
  8
0
 10
4189.9487087202878683
 20
241.226703845265888
 30
0.0
 40
0.0512492949402101
 50
353.2662970031125269
 51
44.9297726543164728
  0
ARC
  5
DC82
  8
0
 10
4189.9314123389267479
 20
241.2052422457518048
 30
0.0
 40
0.0787080853961828
 50
47.0987483063922525
 51
139.9811637228908978
  0
ARC
  5
DC83
  8
0
 10
4189.9143862500777686
 20
241.2255333065301954
 30
0.0
 40
0.0528208965833013
 50
144.9675257771328063
 51
190.23549990160069
  0
ARC
  5
DC84
  8
0
 10
4189.6391407512510341
 20
241.171242476888807
 30
0.0
 40
0.0163075007463187
 50
312.4321467855859282
 51
37.5996950543634014
  0
ARC
  5
DC85
  8
0
 10
4189.6320105046397657
 20
241.1788659554194965
 30
0.0
 40
0.0267453745575686
 50
217.5923314898466003
 51
312.6870406153090016
  0
ARC
  5
DC86
  8
0
 10
4189.6241016958538239
 20
241.1712993324090917
 30
0.0
 40
0.0159058808929741
 50
153.7770878470522007
 51
213.370753392602694
  0
ARC
  5
DC87
  8
0
 10
4189.6320062244840301
 20
241.1641456192892861
 30
0.0
 40
0.0263208626621462
 50
40.3647263624424113
 51
147.3972936572021979
  0
ARC
  5
DC88
  8
0
 10
4189.6381033338648194
 20
241.1909980057874918
 30
0.0
 40
0.0638081396161144
 50
297.0523826459893826
 51
345.8703988503760911
  0
ARC
  5
DC89
  8
0
 10
4189.6314271931905751
 20
241.2217661036980019
 30
0.0
 40
0.0945892540384408
 50
239.1918360515415998
 51
292.1716863631227739
  0
ARC
  5
DC8A
  8
0
 10
4189.6066373255071085
 20
241.1781654069029059
 30
0.0
 40
0.044456821179572
 50
189.4396215744087897
 51
237.8525666187902914
  0
LINE
  5
DC8B
  8
0
 10
4189.5627824949688147
 20
241.1708741252683126
 30
0.0
 11
4189.558403379694937
 21
241.1910376383723076
 31
0.0
  0
ARC
  5
DC8C
  8
0
 10
4189.6084845606956151
 20
241.1935534450337002
 30
0.0
 40
0.0501443314197459
 50
121.4836442636170943
 51
182.8758115025869984
  0
ARC
  5
DC8D
  8
0
 10
4189.6461463541709236
 20
241.1459212750436905
 30
0.0
 40
0.1106707662852213
 50
86.165994162197336
 51
125.2353114832365009
  0
ARC
  5
DC8E
  8
0
 10
4189.6532233448424449
 20
241.1951670083780073
 30
0.0
 40
0.0611782005019706
 50
37.9295526475360916
 51
89.6973732047843555
  0
ARC
  5
DC8F
  8
0
 10
4189.6704762852987187
 20
241.2146407896591995
 30
0.0
 40
0.0359154315365556
 50
351.3163852515032772
 51
30.3215266097318512
  0
LINE
  5
DC90
  8
0
 10
4189.7059800219585668
 20
241.2092183450411085
 30
0.0
 11
4189.6999810236329722
 21
241.1754214146891115
 31
0.0
  0
ARC
  5
DC91
  8
0
 10
4189.64908525408282
 20
241.1814306470735971
 30
0.0
 40
0.0512492949402101
 50
353.2662970031125269
 51
44.9297726543164728
  0
ARC
  5
DC92
  8
0
 10
4189.6317888727226091
 20
241.1599690475595992
 30
0.0
 40
0.0787080853961828
 50
47.0987483063922525
 51
139.9811637228908978
  0
ARC
  5
DC93
  8
0
 10
4189.6147627838736298
 20
241.1802601083379045
 30
0.0
 40
0.0528208965833013
 50
144.9675257771328063
 51
190.23549990160069
  0
ARC
  5
DC94
  8
0
 10
4189.4288726672966732
 20
241.3964305535158132
 30
0.0
 40
0.0163075007463187
 50
312.4321467855859282
 51
37.5996950543634014
  0
ARC
  5
DC95
  8
0
 10
4189.4217424206863143
 20
241.404054032046588
 30
0.0
 40
0.0267453745575686
 50
217.5923314898466003
 51
312.6870406153090016
  0
ARC
  5
DC96
  8
0
 10
4189.4138336119003725
 20
241.3964874090362116
 30
0.0
 40
0.0159058808929741
 50
153.7770878470522007
 51
213.370753392602694
  0
ARC
  5
DC97
  8
0
 10
4189.4217381405296692
 20
241.3893336959162923
 30
0.0
 40
0.0263208626621462
 50
40.3647263624424113
 51
147.3972936572021979
  0
ARC
  5
DC98
  8
0
 10
4189.427835249911368
 20
241.4161860824146117
 30
0.0
 40
0.0638081396161144
 50
297.0523826459893826
 51
345.8703988503760911
  0
ARC
  5
DC99
  8
0
 10
4189.4211591092380331
 20
241.4469541803250081
 30
0.0
 40
0.0945892540384408
 50
239.1918360515415998
 51
292.1716863631227739
  0
ARC
  5
DC9A
  8
0
 10
4189.396369241553657
 20
241.4033534835299122
 30
0.0
 40
0.044456821179572
 50
189.4396215744087897
 51
237.8525666187902914
  0
LINE
  5
DC9B
  8
0
 10
4189.3525144110153633
 20
241.3960622018952904
 30
0.0
 11
4189.3481352957423951
 21
241.4162257149993138
 31
0.0
  0
ARC
  5
DC9C
  8
0
 10
4189.3982164767421636
 20
241.4187415216607064
 30
0.0
 40
0.0501443314197459
 50
121.4836442636170943
 51
182.8758115025869984
  0
ARC
  5
DC9D
  8
0
 10
4189.4358782702156532
 20
241.3711093516708104
 30
0.0
 40
0.1106707662852213
 50
86.165994162197336
 51
125.2353114832365009
  0
ARC
  5
DC9E
  8
0
 10
4189.442955260888084
 20
241.4203550850050135
 30
0.0
 40
0.0611782005019706
 50
37.9295526475360916
 51
89.6973732047843555
  0
ARC
  5
DC9F
  8
0
 10
4189.4602082013452673
 20
241.439828866286291
 30
0.0
 40
0.0359154315365556
 50
351.3163852515032772
 51
30.3215266097318512
  0
LINE
  5
DCA0
  8
0
 10
4189.4957119380051154
 20
241.4344064216680863
 30
0.0
 11
4189.4897129396786113
 21
241.400609491316203
 31
0.0
  0
ARC
  5
DCA1
  8
0
 10
4189.4388171701302781
 20
241.4066187237006886
 30
0.0
 40
0.0512492949402101
 50
353.2662970031125269
 51
44.9297726543164728
  0
ARC
  5
DCA2
  8
0
 10
4189.4215207887682482
 20
241.3851571241866054
 30
0.0
 40
0.0787080853961828
 50
47.0987483063922525
 51
139.9811637228908978
  0
ARC
  5
DCA3
  8
0
 10
4189.4044946999201784
 20
241.405448184964996
 30
0.0
 40
0.0528208965833013
 50
144.9675257771328063
 51
190.23549990160069
  0
ARC
  5
DCA4
  8
0
 10
4189.7275583161299437
 20
241.4946766192942107
 30
0.0
 40
0.0163075007463187
 50
312.4321467855859282
 51
37.5996950543634014
  0
ARC
  5
DCA5
  8
0
 10
4189.7204280695177658
 20
241.5023000978250138
 30
0.0
 40
0.0267453745575686
 50
217.5923314898466003
 51
312.6870406153090016
  0
ARC
  5
DCA6
  8
0
 10
4189.7125192607327335
 20
241.4947334748146091
 30
0.0
 40
0.0159058808929741
 50
153.7770878470522007
 51
213.370753392602694
  0
ARC
  5
DCA7
  8
0
 10
4189.7204237893629397
 20
241.4875797616946898
 30
0.0
 40
0.0263208626621462
 50
40.3647263624424113
 51
147.3972936572021979
  0
ARC
  5
DCA8
  8
0
 10
4189.726520898743729
 20
241.5144321481930092
 30
0.0
 40
0.0638081396161144
 50
297.0523826459893826
 51
345.8703988503760911
  0
ARC
  5
DCA9
  8
0
 10
4189.7198447580713037
 20
241.5452002461034056
 30
0.0
 40
0.0945892540384408
 50
239.1918360515415998
 51
292.1716863631227739
  0
ARC
  5
DCAA
  8
0
 10
4189.6950548903851086
 20
241.5015995493083096
 30
0.0
 40
0.044456821179572
 50
189.4396215744087897
 51
237.8525666187902914
  0
LINE
  5
DCAB
  8
0
 10
4189.6512000598477243
 20
241.4943082676736879
 30
0.0
 11
4189.6468209445747561
 21
241.5144717807777113
 31
0.0
  0
ARC
  5
DCAC
  8
0
 10
4189.6969021255754342
 20
241.5169875874391039
 30
0.0
 40
0.0501443314197459
 50
121.4836442636170943
 51
182.8758115025869984
  0
ARC
  5
DCAD
  8
0
 10
4189.7345639190489237
 20
241.4693554174492078
 30
0.0
 40
0.1106707662852213
 50
86.165994162197336
 51
125.2353114832365009
  0
ARC
  5
DCAE
  8
0
 10
4189.7416409097213545
 20
241.518601150783411
 30
0.0
 40
0.0611782005019706
 50
37.9295526475360916
 51
89.6973732047843555
  0
ARC
  5
DCAF
  8
0
 10
4189.7588938501776283
 20
241.5380749320646885
 30
0.0
 40
0.0359154315365556
 50
351.3163852515032772
 51
30.3215266097318512
  0
LINE
  5
DCB0
  8
0
 10
4189.7943975868392954
 20
241.5326524874465122
 30
0.0
 11
4189.7883985885127913
 21
241.4988555570944868
 31
0.0
  0
ARC
  5
DCB1
  8
0
 10
4189.7375028189626391
 20
241.5048647894790861
 30
0.0
 40
0.0512492949402101
 50
353.2662970031125269
 51
44.9297726543164728
  0
ARC
  5
DCB2
  8
0
 10
4189.7202064376006092
 20
241.4834031899650029
 30
0.0
 40
0.0787080853961828
 50
47.0987483063922525
 51
139.9811637228908978
  0
ARC
  5
DCB3
  8
0
 10
4189.7031803487534489
 20
241.5036942507433935
 30
0.0
 40
0.0528208965833013
 50
144.9675257771328063
 51
190.23549990160069
  0
ARC
  5
DCB4
  8
0
 10
4190.0759566032811563
 20
241.5173689378553945
 30
0.0
 40
0.0163075007463187
 50
312.4321467855859282
 51
37.5996950543634014
  0
ARC
  5
DCB5
  8
0
 10
4190.0688263566698879
 20
241.5249924163861124
 30
0.0
 40
0.0267453745575686
 50
217.5923314898466003
 51
312.6870406153090016
  0
ARC
  5
DCB6
  8
0
 10
4190.0609175478839461
 20
241.5174257933757929
 30
0.0
 40
0.0159058808929741
 50
153.7770878470522007
 51
213.370753392602694
  0
ARC
  5
DCB7
  8
0
 10
4190.0688220765150618
 20
241.510272080255902
 30
0.0
 40
0.0263208626621462
 50
40.3647263624424113
 51
147.3972936572021979
  0
ARC
  5
DCB8
  8
0
 10
4190.0749191858949416
 20
241.5371244667541077
 30
0.0
 40
0.0638081396161144
 50
297.0523826459893826
 51
345.8703988503760911
  0
ARC
  5
DCB9
  8
0
 10
4190.0682430452234257
 20
241.5678925646645894
 30
0.0
 40
0.0945892540384408
 50
239.1918360515415998
 51
292.1716863631227739
  0
ARC
  5
DCBA
  8
0
 10
4190.0434531775381402
 20
241.5242918678694934
 30
0.0
 40
0.044456821179572
 50
189.4396215744087897
 51
237.8525666187902914
  0
LINE
  5
DCBB
  8
0
 10
4189.9995983469989369
 20
241.5170005862349001
 30
0.0
 11
4189.9952192317268782
 21
241.5371640993388951
 31
0.0
  0
ARC
  5
DCBC
  8
0
 10
4190.0453004127257373
 20
241.5396799060002024
 30
0.0
 40
0.0501443314197459
 50
121.4836442636170943
 51
182.8758115025869984
  0
ARC
  5
DCBD
  8
0
 10
4190.0829622062010458
 20
241.4920477360103916
 30
0.0
 40
0.1106707662852213
 50
86.165994162197336
 51
125.2353114832365009
  0
ARC
  5
DCBE
  8
0
 10
4190.0900391968716576
 20
241.5412934693445948
 30
0.0
 40
0.0611782005019706
 50
37.9295526475360916
 51
89.6973732047843555
  0
ARC
  5
DCBF
  8
0
 10
4190.1072921373288409
 20
241.560767250625787
 30
0.0
 40
0.0359154315365556
 50
351.3163852515032772
 51
30.3215266097318512
  0
LINE
  5
DCC0
  8
0
 10
4190.142795873988689
 20
241.555344806007696
 30
0.0
 11
4190.1367968756630944
 21
241.521547875655699
 31
0.0
  0
ARC
  5
DCC1
  8
0
 10
4190.0859011061138517
 20
241.5275571080402131
 30
0.0
 40
0.0512492949402101
 50
353.2662970031125269
 51
44.9297726543164728
  0
ARC
  5
DCC2
  8
0
 10
4190.0686047247527313
 20
241.5060955085261014
 30
0.0
 40
0.0787080853961828
 50
47.0987483063922525
 51
139.9811637228908978
  0
ARC
  5
DCC3
  8
0
 10
4190.051578635903752
 20
241.526386569304492
 30
0.0
 40
0.0528208965833013
 50
144.9675257771328063
 51
190.23549990160069
  0
ARC
  5
DCC4
  8
0
 10
4189.7762115580380851
 20
241.8138486011804105
 30
0.0
 40
0.0163075007463187
 50
312.4321467855859282
 51
37.5996950543634014
  0
ARC
  5
DCC5
  8
0
 10
4189.7690813114268167
 20
241.8214720797110999
 30
0.0
 40
0.0267453745575686
 50
217.5923314898466003
 51
312.6870406153090016
  0
ARC
  5
DCC6
  8
0
 10
4189.7611725026408749
 20
241.8139054567006951
 30
0.0
 40
0.0159058808929741
 50
153.7770878470522007
 51
213.370753392602694
  0
ARC
  5
DCC7
  8
0
 10
4189.7690770312719906
 20
241.8067517435808895
 30
0.0
 40
0.0263208626621462
 50
40.3647263624424113
 51
147.3972936572021979
  0
ARC
  5
DCC8
  8
0
 10
4189.7751741406527799
 20
241.8336041300790953
 30
0.0
 40
0.0638081396161144
 50
297.0523826459893826
 51
345.8703988503760911
  0
ARC
  5
DCC9
  8
0
 10
4189.768497999979445
 20
241.8643722279896053
 30
0.0
 40
0.0945892540384408
 50
239.1918360515415998
 51
292.1716863631227739
  0
ARC
  5
DCCA
  8
0
 10
4189.7437081322941594
 20
241.8207715311945094
 30
0.0
 40
0.044456821179572
 50
189.4396215744087897
 51
237.8525666187902914
  0
LINE
  5
DCCB
  8
0
 10
4189.6998533017558657
 20
241.8134802495598876
 30
0.0
 11
4189.6954741864828975
 21
241.833643762663911
 31
0.0
  0
ARC
  5
DCCC
  8
0
 10
4189.745555367482666
 20
241.8361595693253037
 30
0.0
 40
0.0501443314197459
 50
121.4836442636170943
 51
182.8758115025869984
  0
ARC
  5
DCCD
  8
0
 10
4189.7832171609570651
 20
241.7885273993352939
 30
0.0
 40
0.1106707662852213
 50
86.165994162197336
 51
125.2353114832365009
  0
ARC
  5
DCCE
  8
0
 10
4189.7902941516285864
 20
241.8377731326696107
 30
0.0
 40
0.0611782005019706
 50
37.9295526475360916
 51
89.6973732047843555
  0
ARC
  5
DCCF
  8
0
 10
4189.8075470920857697
 20
241.857246913950803
 30
0.0
 40
0.0359154315365556
 50
351.3163852515032772
 51
30.3215266097318512
  0
LINE
  5
DCD0
  8
0
 10
4189.8430508287474368
 20
241.8518244693327119
 30
0.0
 11
4189.8370518304209327
 21
241.8180275389806866
 31
0.0
  0
ARC
  5
DCD1
  8
0
 10
4189.7861560608707805
 20
241.8240367713652859
 30
0.0
 40
0.0512492949402101
 50
353.2662970031125269
 51
44.9297726543164728
  0
ARC
  5
DCD2
  8
0
 10
4189.7688596795096601
 20
241.802575171851089
 30
0.0
 40
0.0787080853961828
 50
47.0987483063922525
 51
139.9811637228908978
  0
ARC
  5
DCD3
  8
0
 10
4189.7518335906606808
 20
241.822866232629508
 30
0.0
 40
0.0528208965833013
 50
144.9675257771328063
 51
190.23549990160069
  0
ARC
  5
DCD4
  8
0
 10
4189.4317923866392448
 20
241.7189658921095088
 30
0.0
 40
0.0163075007463187
 50
312.4321467855859282
 51
37.5996950543634014
  0
ARC
  5
DCD5
  8
0
 10
4189.4246621400270669
 20
241.7265893706403119
 30
0.0
 40
0.0267453745575686
 50
217.5923314898466003
 51
312.6870406153090016
  0
ARC
  5
DCD6
  8
0
 10
4189.4167533312429441
 20
241.7190227476299071
 30
0.0
 40
0.0159058808929741
 50
153.7770878470522007
 51
213.370753392602694
  0
ARC
  5
DCD7
  8
0
 10
4189.4246578598731503
 20
241.7118690345099878
 30
0.0
 40
0.0263208626621462
 50
40.3647263624424113
 51
147.3972936572021979
  0
ARC
  5
DCD8
  8
0
 10
4189.4307549692530301
 20
241.7387214210081936
 30
0.0
 40
0.0638081396161144
 50
297.0523826459893826
 51
345.8703988503760911
  0
ARC
  5
DCD9
  8
0
 10
4189.4240788285796953
 20
241.7694895189187037
 30
0.0
 40
0.0945892540384408
 50
239.1918360515415998
 51
292.1716863631227739
  0
ARC
  5
DCDA
  8
0
 10
4189.3992889608953192
 20
241.7258888221236077
 30
0.0
 40
0.044456821179572
 50
189.4396215744087897
 51
237.8525666187902914
  0
LINE
  5
DCDB
  8
0
 10
4189.3554341303579349
 20
241.7185975404889859
 30
0.0
 11
4189.3510550150840572
 21
241.7387610535930094
 31
0.0
  0
ARC
  5
DCDC
  8
0
 10
4189.4011361960838258
 20
241.741276860254402
 30
0.0
 40
0.0501443314197459
 50
121.4836442636170943
 51
182.8758115025869984
  0
ARC
  5
DCDD
  8
0
 10
4189.4387979895582248
 20
241.6936446902645059
 30
0.0
 40
0.1106707662852213
 50
86.165994162197336
 51
125.2353114832365009
  0
ARC
  5
DCDE
  8
0
 10
4189.4458749802297461
 20
241.742890423598709
 30
0.0
 40
0.0611782005019706
 50
37.9295526475360916
 51
89.6973732047843555
  0
ARC
  5
DCDF
  8
0
 10
4189.4631279206878389
 20
241.7623642048799866
 30
0.0
 40
0.0359154315365556
 50
351.3163852515032772
 51
30.3215266097318512
  0
LINE
  5
DCE0
  8
0
 10
4189.498631657347687
 20
241.7569417602618103
 30
0.0
 11
4189.4926326590220924
 21
241.7231448299098133
 31
0.0
  0
ARC
  5
DCE1
  8
0
 10
4189.4417368894728497
 20
241.7291540622944126
 30
0.0
 40
0.0512492949402101
 50
353.2662970031125269
 51
44.9297726543164728
  0
ARC
  5
DCE2
  8
0
 10
4189.4244405081108198
 20
241.707692462780301
 30
0.0
 40
0.0787080853961828
 50
47.0987483063922525
 51
139.9811637228908978
  0
ARC
  5
DCE3
  8
0
 10
4189.40741441926275
 20
241.7279835235586063
 30
0.0
 40
0.0528208965833013
 50
144.9675257771328063
 51
190.23549990160069
  0
ARC
  5
DCE4
  8
0
 10
4189.3951496555446283
 20
242.0404136364277861
 30
0.0
 40
0.0163075007463187
 50
312.4321467855859282
 51
37.5996950543634014
  0
ARC
  5
DCE5
  8
0
 10
4189.38801940893336
 20
242.0480371149585892
 30
0.0
 40
0.0267453745575686
 50
217.5923314898466003
 51
312.6870406153090016
  0
ARC
  5
DCE6
  8
0
 10
4189.3801106001474182
 20
242.0404704919482128
 30
0.0
 40
0.0159058808929741
 50
153.7770878470522007
 51
213.370753392602694
  0
ARC
  5
DCE7
  8
0
 10
4189.3880151287767148
 20
242.0333167788284072
 30
0.0
 40
0.0263208626621462
 50
40.3647263624424113
 51
147.3972936572021979
  0
ARC
  5
DCE8
  8
0
 10
4189.3941122381584137
 20
242.060169165326613
 30
0.0
 40
0.0638081396161144
 50
297.0523826459893826
 51
345.8703988503760911
  0
ARC
  5
DCE9
  8
0
 10
4189.3874360974850788
 20
242.0909372632370946
 30
0.0
 40
0.0945892540384408
 50
239.1918360515415998
 51
292.1716863631227739
  0
ARC
  5
DCEA
  8
0
 10
4189.3626462298007027
 20
242.0473365664419134
 30
0.0
 40
0.044456821179572
 50
189.4396215744087897
 51
237.8525666187902914
  0
LINE
  5
DCEB
  8
0
 10
4189.318791399262409
 20
242.0400452848072916
 30
0.0
 11
4189.3144122839894408
 21
242.0602087979112866
 31
0.0
  0
ARC
  5
DCEC
  8
0
 10
4189.3644934649892093
 20
242.0627246045727077
 30
0.0
 40
0.0501443314197459
 50
121.4836442636170943
 51
182.8758115025869984
  0
ARC
  5
DCED
  8
0
 10
4189.4021552584654273
 20
242.0150924345828116
 30
0.0
 40
0.1106707662852213
 50
86.165994162197336
 51
125.2353114832365009
  0
ARC
  5
DCEE
  8
0
 10
4189.4092322491351297
 20
242.0643381679169863
 30
0.0
 40
0.0611782005019706
 50
37.9295526475360916
 51
89.6973732047843555
  0
ARC
  5
DCEF
  8
0
 10
4189.426485189592313
 20
242.0838119491982923
 30
0.0
 40
0.0359154315365556
 50
351.3163852515032772
 51
30.3215266097318512
  0
LINE
  5
DCF0
  8
0
 10
4189.461988926252161
 20
242.0783895045800875
 30
0.0
 11
4189.455989927925657
 21
242.0445925742282043
 31
0.0
  0
ARC
  5
DCF1
  8
0
 10
4189.4050941583764143
 20
242.0506018066126899
 30
0.0
 40
0.0512492949402101
 50
353.2662970031108216
 51
44.9297726543164728
  0
ARC
  5
DCF2
  8
0
 10
4189.3877977770152938
 20
242.0291402070986067
 30
0.0
 40
0.0787080853961828
 50
47.0987483063922525
 51
139.9811637228908978
  0
ARC
  5
DCF3
  8
0
 10
4189.3707716881663146
 20
242.0494312678769973
 30
0.0
 40
0.0528208965833013
 50
144.9675257771328063
 51
190.23549990160069
  0
ARC
  5
DCF4
  8
0
 10
4189.0790454143716488
 20
241.8776733684566125
 30
0.0
 40
0.0163075007463187
 50
312.4321467855859282
 51
37.5996950543634014
  0
ARC
  5
DCF5
  8
0
 10
4189.0719151677612899
 20
241.8852968469873019
 30
0.0
 40
0.0267453745575686
 50
217.5923314898466003
 51
312.6870406153090016
  0
ARC
  5
DCF6
  8
0
 10
4189.0640063589744386
 20
241.8777302239768972
 30
0.0
 40
0.0159058808929741
 50
153.7770878470522007
 51
213.370753392602694
  0
ARC
  5
DCF7
  8
0
 10
4189.0719108876046448
 20
241.8705765108570915
 30
0.0
 40
0.0263208626621462
 50
40.3647263624424113
 51
147.3972936572021979
  0
ARC
  5
DCF8
  8
0
 10
4189.0780079969863436
 20
241.8974288973552973
 30
0.0
 40
0.0638081396161144
 50
297.0523826459893826
 51
345.8703988503760911
  0
ARC
  5
DCF9
  8
0
 10
4189.0713318563130088
 20
241.9281969952658073
 30
0.0
 40
0.0945892540384408
 50
239.1918360515415998
 51
292.1716863631227739
  0
ARC
  5
DCFA
  8
0
 10
4189.0465419886268137
 20
241.8845962984705977
 30
0.0
 40
0.044456821179572
 50
189.4396215744087897
 51
237.8525666187902914
  0
LINE
  5
DCFB
  8
0
 10
4189.0026871580894294
 20
241.8773050168360896
 30
0.0
 11
4188.9983080428155517
 21
241.8974685299401131
 31
0.0
  0
ARC
  5
DCFC
  8
0
 10
4189.0483892238171393
 20
241.8999843366015057
 30
0.0
 40
0.0501443314197459
 50
121.4836442636170943
 51
182.8758115025869984
  0
ARC
  5
DCFD
  8
0
 10
4189.0860510172906288
 20
241.8523521666116096
 30
0.0
 40
0.1106707662852213
 50
86.165994162197336
 51
125.2353114832365009
  0
ARC
  5
DCFE
  8
0
 10
4189.0931280079630596
 20
241.9015978999456991
 30
0.0
 40
0.0611782005019706
 50
37.9295526475360916
 51
89.6973732047843555
  0
ARC
  5
DCFF
  8
0
 10
4189.1103809484193334
 20
241.921071681227005
 30
0.0
 40
0.0359154315365556
 50
351.3163852515032772
 51
30.3215266097318512
  0
LINE
  5
DD00
  8
0
 10
4189.145884685080091
 20
241.9156492366088003
 30
0.0
 11
4189.1398856867535869
 21
241.8818523062568886
 31
0.0
  0
ARC
  5
DD01
  8
0
 10
4189.0889899172052537
 20
241.8878615386414879
 30
0.0
 40
0.0512492949402101
 50
353.2662970031108216
 51
44.9297726543164728
  0
ARC
  5
DD02
  8
0
 10
4189.0716935358432238
 20
241.8663999391274047
 30
0.0
 40
0.0787080853961828
 50
47.0987483063922525
 51
139.9811637228908978
  0
ARC
  5
DD03
  8
0
 10
4189.054667446995154
 20
241.88669099990571
 30
0.0
 40
0.0528208965833013
 50
144.9675257771328063
 51
190.23549990160069
  0
ARC
  5
DD04
  8
0
 10
4189.1524901116454203
 20
241.5695376135755055
 30
0.0
 40
0.0163075007463187
 50
312.4321467855859282
 51
37.5996950543634014
  0
ARC
  5
DD05
  8
0
 10
4189.1453598650341519
 20
241.5771610921063086
 30
0.0
 40
0.0267453745575686
 50
217.5923314898466003
 51
312.6870406153090016
  0
ARC
  5
DD06
  8
0
 10
4189.1374510562482101
 20
241.5695944690959038
 30
0.0
 40
0.0159058808929741
 50
153.7770878470522007
 51
213.370753392602694
  0
ARC
  5
DD07
  8
0
 10
4189.1453555848784163
 20
241.5624407559760982
 30
0.0
 40
0.0263208626621462
 50
40.3647263624424113
 51
147.3972936572021979
  0
ARC
  5
DD08
  8
0
 10
4189.1514526942592056
 20
241.589293142474304
 30
0.0
 40
0.0638081396161144
 50
297.0523826459893826
 51
345.8703988503760911
  0
ARC
  5
DD09
  8
0
 10
4189.1447765535849612
 20
241.6200612403847003
 30
0.0
 40
0.0945892540384408
 50
239.1918360515415998
 51
292.1716863631227739
  0
ARC
  5
DD0A
  8
0
 10
4189.1199866859005851
 20
241.5764605435896044
 30
0.0
 40
0.044456821179572
 50
189.4396215744087897
 51
237.8525666187902914
  0
LINE
  5
DD0B
  8
0
 10
4189.0761318553632009
 20
241.5691692619550111
 30
0.0
 11
4189.0717527400902327
 21
241.5893327750590061
 31
0.0
  0
ARC
  5
DD0C
  8
0
 10
4189.1218339210900012
 20
241.5918485817203987
 30
0.0
 40
0.0501443314197459
 50
121.4836442636170943
 51
182.8758115025869984
  0
ARC
  5
DD0D
  8
0
 10
4189.1594957145653098
 20
241.5442164117305026
 30
0.0
 40
0.1106707662852213
 50
86.165994162197336
 51
125.2353114832365009
  0
ARC
  5
DD0E
  8
0
 10
4189.1665727052368311
 20
241.5934621450647057
 30
0.0
 40
0.0611782005019706
 50
37.9295526475360916
 51
89.6973732047843555
  0
ARC
  5
DD0F
  8
0
 10
4189.1838256456931049
 20
241.6129359263460117
 30
0.0
 40
0.0359154315365556
 50
351.3163852515032772
 51
30.3215266097318512
  0
LINE
  5
DD10
  8
0
 10
4189.219329382352953
 20
241.6075134817278069
 30
0.0
 11
4189.2133303840273584
 21
241.5737165513758953
 31
0.0
  0
ARC
  5
DD11
  8
0
 10
4189.1624346144781157
 20
241.5797257837604093
 30
0.0
 40
0.0512492949402101
 50
353.2662970031125269
 51
44.9297726543164728
  0
ARC
  5
DD12
  8
0
 10
4189.1451382331169953
 20
241.5582641842462976
 30
0.0
 40
0.0787080853961828
 50
47.0987483063922525
 51
139.9811637228908978
  0
ARC
  5
DD13
  8
0
 10
4189.128112144268016
 20
241.578555245024603
 30
0.0
 40
0.0528208965833013
 50
144.9675257771328063
 51
190.23549990160069
  0
ARC
  5
DD14
  8
0
 10
4188.9549264139932347
 20
242.1820576187290044
 30
0.0
 40
0.0163075007463187
 50
312.4321467855859282
 51
37.5996950543634014
  0
ARC
  5
DD15
  8
0
 10
4188.9477961673819664
 20
242.1896810972596938
 30
0.0
 40
0.0267453745575686
 50
217.5923314898466003
 51
312.6870406153090016
  0
ARC
  5
DD16
  8
0
 10
4188.9398873585951151
 20
242.1821144742494027
 30
0.0
 40
0.0159058808929741
 50
153.7770878470522007
 51
213.370753392602694
  0
ARC
  5
DD17
  8
0
 10
4188.9477918872262308
 20
242.1749607611295119
 30
0.0
 40
0.0263208626621462
 50
40.3647263624424113
 51
147.3972936572021979
  0
ARC
  5
DD18
  8
0
 10
4188.9538889966079296
 20
242.2018131476276892
 30
0.0
 40
0.0638081396161144
 50
297.0523826459893826
 51
345.8703988503760911
  0
ARC
  5
DD19
  8
0
 10
4188.9472128559345947
 20
242.2325812455381993
 30
0.0
 40
0.0945892540384408
 50
239.1918360515415998
 51
292.1716863631227739
  0
ARC
  5
DD1A
  8
0
 10
4188.9224229882493091
 20
242.1889805487431033
 30
0.0
 40
0.044456821179572
 50
189.4396215744087897
 51
237.8525666187902914
  0
LINE
  5
DD1B
  8
0
 10
4188.8785681577101059
 20
242.18168926710851
 30
0.0
 11
4188.8741890424380472
 21
242.201852780212505
 31
0.0
  0
ARC
  5
DD1C
  8
0
 10
4188.9401472163226572
 20
242.2106889342273917
 30
0.0
 40
0.0665474140741958
 50
134.6250747412883868
 51
187.6302574724263934
  0
ARC
  5
DD1D
  8
0
 10
4188.9483284717625793
 20
242.2058813709284095
 30
0.0
 40
0.0757555749814085
 50
72.2536789815870861
 51
136.4750699060973034
  0
ARC
  5
DD1E
  8
0
 10
4188.9484336902451105
 20
242.1997063879288987
 30
0.0
 40
0.0816287273726788
 50
32.5186748683424582
 51
73.645252421818725
  0
ARC
  5
DD1F
  8
0
 10
4188.9862619480400099
 20
242.2254559314993969
 30
0.0
 40
0.0359154315365556
 50
351.3163852515032772
 51
30.3215266097318512
  0
LINE
  5
DD20
  8
0
 10
4189.0217656847016769
 20
242.2200334868813059
 30
0.0
 11
4189.0157666863751729
 21
242.1862365565293089
 31
0.0
  0
ARC
  5
DD21
  8
0
 10
4188.9648709168259302
 20
242.1922457889137945
 30
0.0
 40
0.0512492949402101
 50
353.2662970031108216
 51
44.9297726543164728
  0
ARC
  5
DD22
  8
0
 10
4188.9475745354648097
 20
242.1707841893997113
 30
0.0
 40
0.0787080853961828
 50
47.0987483063922525
 51
139.9811637228908978
  0
ARC
  5
DD23
  8
0
 10
4188.9305484466158305
 20
242.1910752501781019
 30
0.0
 40
0.0528208965833013
 50
144.9675257771328063
 51
190.23549990160069
  0
ARC
  5
DD24
  8
0
 10
4188.6842209103588175
 20
241.9586842515728904
 30
0.0
 40
0.0163075007463187
 50
312.4321467855859282
 51
37.5996950543634014
  0
ARC
  5
DD25
  8
0
 10
4188.6770906637466396
 20
241.9663077301036935
 30
0.0
 40
0.0267453745575686
 50
217.5923314898466003
 51
312.6870406153090016
  0
ARC
  5
DD26
  8
0
 10
4188.6691818549634263
 20
241.9587411070932887
 30
0.0
 40
0.0159058808929741
 50
153.7770878470522007
 51
213.370753392602694
  0
ARC
  5
DD27
  8
0
 10
4188.6770863835918135
 20
241.9515873939733979
 30
0.0
 40
0.0263208626621462
 50
40.3647263624424113
 51
147.3972936572021979
  0
ARC
  5
DD28
  8
0
 10
4188.6831834929726028
 20
241.9784397804716036
 30
0.0
 40
0.0638081396161144
 50
297.0523826459893826
 51
345.8703988503760911
  0
ARC
  5
DD29
  8
0
 10
4188.6765073523001774
 20
242.0092078783821137
 30
0.0
 40
0.0945892540384408
 50
239.1918360515415998
 51
292.1716863631227739
  0
ARC
  5
DD2A
  8
0
 10
4188.6517174846139824
 20
241.9656071815869041
 30
0.0
 40
0.044456821179572
 50
189.4396215744087897
 51
237.8525666187902914
  0
LINE
  5
DD2B
  8
0
 10
4188.6078626540765981
 20
241.958315899952396
 30
0.0
 11
4188.6034835388036299
 21
241.978479413056391
 31
0.0
  0
ARC
  5
DD2C
  8
0
 10
4188.6694417126882399
 20
241.9873155670713913
 30
0.0
 40
0.0665474140741958
 50
134.6250747412883868
 51
187.6302574724263934
  0
ARC
  5
DD2D
  8
0
 10
4188.677622968129981
 20
241.9825080037722955
 30
0.0
 40
0.0757555749814085
 50
72.2536789815870861
 51
136.4750699060973034
  0
ARC
  5
DD2E
  8
0
 10
4188.6777281866097837
 20
241.9763330207728131
 30
0.0
 40
0.0816287273726788
 50
32.5186748683424582
 51
73.645252421818725
  0
ARC
  5
DD2F
  8
0
 10
4188.7155564444074116
 20
242.0020825643433113
 30
0.0
 40
0.0359154315365556
 50
351.3163852515032772
 51
30.3215266097318512
  0
LINE
  5
DD30
  8
0
 10
4188.7510601810681692
 20
241.9966601197251919
 30
0.0
 11
4188.7450611827416651
 21
241.9628631893731949
 31
0.0
  0
ARC
  5
DD31
  8
0
 10
4188.6941654131924224
 20
241.9688724217577089
 30
0.0
 40
0.0512492949402101
 50
353.2662970031108216
 51
44.9297726543164728
  0
ARC
  5
DD32
  8
0
 10
4188.676869031831302
 20
241.9474108222435973
 30
0.0
 40
0.0787080853961828
 50
47.0987483063922525
 51
139.9811637228908978
  0
ARC
  5
DD33
  8
0
 10
4188.6598429429814132
 20
241.9677018830219879
 30
0.0
 40
0.0528208965833013
 50
144.9675257771328063
 51
190.23549990160069
  0
ARC
  5
DD34
  8
0
 10
4188.8228210951428991
 20
241.6778578830181914
 30
0.0
 40
0.0163075007463187
 50
312.4321467855859282
 51
37.5996950543634014
  0
ARC
  5
DD35
  8
0
 10
4188.8156908485307213
 20
241.6854813615489945
 30
0.0
 40
0.0267453745575686
 50
217.5923314898466003
 51
312.6870406153090016
  0
ARC
  5
DD36
  8
0
 10
4188.8077820397465985
 20
241.6779147385385897
 30
0.0
 40
0.0159058808929741
 50
153.7770878470522007
 51
213.370753392602694
  0
ARC
  5
DD37
  8
0
 10
4188.8156865683768046
 20
241.6707610254186989
 30
0.0
 40
0.0263208626621462
 50
40.3647263624424113
 51
147.3972936572021979
  0
ARC
  5
DD38
  8
0
 10
4188.821783677757594
 20
241.6976134119169046
 30
0.0
 40
0.0638081396161144
 50
297.0523826459893826
 51
345.8703988503760911
  0
ARC
  5
DD39
  8
0
 10
4188.8151075370842591
 20
241.7283815098273863
 30
0.0
 40
0.0945892540384408
 50
239.1918360515415998
 51
292.1716863631227739
  0
ARC
  5
DD3A
  8
0
 10
4188.7903176693989735
 20
241.6847808130322903
 30
0.0
 40
0.044456821179572
 50
189.4396215744071981
 51
237.8525666187902914
  0
LINE
  5
DD3B
  8
0
 10
4188.7464628388606798
 20
241.677489531397697
 30
0.0
 11
4188.7420837235877116
 21
241.697653044501692
 31
0.0
  0
ARC
  5
DD3C
  8
0
 10
4188.8080418974723216
 20
241.7064891985166923
 30
0.0
 40
0.0665474140741958
 50
134.6250747412883868
 51
187.6302574724263934
  0
ARC
  5
DD3D
  8
0
 10
4188.8162231529140627
 20
241.7016816352175965
 30
0.0
 40
0.0757555749814085
 50
72.2536789815870861
 51
136.4750699060973034
  0
ARC
  5
DD3E
  8
0
 10
4188.8163283713947749
 20
241.6955066522181141
 30
0.0
 40
0.0816287273726788
 50
32.5186748683424582
 51
73.645252421818725
  0
ARC
  5
DD3F
  8
0
 10
4188.8541566291905838
 20
241.7212561957886976
 30
0.0
 40
0.0359154315365556
 50
351.3163852515032772
 51
30.3215266097318512
  0
LINE
  5
DD40
  8
0
 10
4188.8896603658513413
 20
241.7158337511704076
 30
0.0
 11
4188.8836613675248373
 21
241.6820368208186096
 31
0.0
  0
ARC
  5
DD41
  8
0
 10
4188.8327655979755946
 20
241.6880460532030952
 30
0.0
 40
0.0512492949402101
 50
353.2662970031108216
 51
44.9297726543164728
  0
ARC
  5
DD42
  8
0
 10
4188.8154692166153836
 20
241.666584453689012
 30
0.0
 40
0.0787080853961828
 50
47.0987483063922525
 51
139.9811637228908978
  0
ARC
  5
DD43
  8
0
 10
4188.7984431277664044
 20
241.6868755144672889
 30
0.0
 40
0.0528208965833013
 50
144.9675257771328063
 51
190.23549990160069
  0
ARC
  5
DD44
  8
0
 10
4188.8284759216667226
 20
239.5825558811121994
 30
0.0
 40
0.0163075007463187
 50
312.4321467855859282
 51
37.5996950543634014
  0
ARC
  5
DD45
  8
0
 10
4188.8213456750563637
 20
239.5901793596430025
 30
0.0
 40
0.0267453745575686
 50
217.5923314898466003
 51
312.6870406153090016
  0
ARC
  5
DD46
  8
0
 10
4188.8134368662713314
 20
239.5826127366325977
 30
0.0
 40
0.0159058808929741
 50
153.7770878470522007
 51
213.370753392602694
  0
ARC
  5
DD47
  8
0
 10
4188.8213413949006281
 20
239.5754590235127921
 30
0.0
 40
0.0263208626621462
 50
40.3647263624424113
 51
147.3972936572021979
  0
ARC
  5
DD48
  8
0
 10
4188.8274385042823269
 20
239.6023114100109979
 30
0.0
 40
0.0638081396161144
 50
297.0523826459893826
 51
345.8703988503760911
  0
ARC
  5
DD49
  8
0
 10
4188.820762363608992
 20
239.6330795079215079
 30
0.0
 40
0.0945892540384408
 50
239.1918360515415998
 51
292.1716863631227739
  0
ARC
  5
DD4A
  8
0
 10
4188.795972495922797
 20
239.5894788111262983
 30
0.0
 40
0.044456821179572
 50
189.4396215744087897
 51
237.8525666187902914
  0
LINE
  5
DD4B
  8
0
 10
4188.7521176653863222
 20
239.5821875294917049
 30
0.0
 11
4188.7477385501124445
 21
239.6023510425956999
 31
0.0
  0
ARC
  5
DD4C
  8
0
 10
4188.7978197311131225
 20
239.6048668492570926
 30
0.0
 40
0.0501443314197459
 50
121.4836442636170943
 51
182.8758115025869984
  0
ARC
  5
DD4D
  8
0
 10
4188.8354815245866121
 20
239.5572346792671965
 30
0.0
 40
0.1106707662852213
 50
86.165994162197336
 51
125.2353114832365009
  0
ARC
  5
DD4E
  8
0
 10
4188.8425585152590429
 20
239.6064804126013996
 30
0.0
 40
0.0611782005019706
 50
37.9295526475360916
 51
89.6973732047843555
  0
ARC
  5
DD4F
  8
0
 10
4188.8598114557162262
 20
239.6259541938827056
 30
0.0
 40
0.0359154315365556
 50
351.3163852515032772
 51
30.3215266097318512
  0
LINE
  5
DD50
  8
0
 10
4188.8953151923760743
 20
239.6205317492645008
 30
0.0
 11
4188.8893161940513892
 21
239.5867348189125892
 31
0.0
  0
ARC
  5
DD51
  8
0
 10
4188.838420424501237
 20
239.5927440512971032
 30
0.0
 40
0.0512492949402101
 50
353.2662970031125269
 51
44.9297726543164728
  0
ARC
  5
DD52
  8
0
 10
4188.8211240431401166
 20
239.5712824517829915
 30
0.0
 40
0.0787080853961828
 50
47.0987483063922525
 51
139.9811637228908978
  0
ARC
  5
DD53
  8
0
 10
4188.8040979542902278
 20
239.5915735125614106
 30
0.0
 40
0.0528208965833013
 50
144.9675257771328063
 51
190.23549990160069
  0
ARC
  5
DD54
  8
0
 10
4188.8833610602896442
 20
239.3934726165682036
 30
0.0
 40
0.0163075007463187
 50
312.4321467855859282
 51
37.5996950543634014
  0
ARC
  5
DD55
  8
0
 10
4188.8762308136783759
 20
239.4010960950988931
 30
0.0
 40
0.0267453745575686
 50
217.5923314898466003
 51
312.6870406153090016
  0
ARC
  5
DD56
  8
0
 10
4188.8683220048933435
 20
239.3935294720884883
 30
0.0
 40
0.0159058808929741
 50
153.7770878470522007
 51
213.370753392602694
  0
ARC
  5
DD57
  8
0
 10
4188.8762265335235497
 20
239.3863757589687111
 30
0.0
 40
0.0263208626621462
 50
40.3647263624424113
 51
147.3972936572021979
  0
ARC
  5
DD58
  8
0
 10
4188.8823236429052486
 20
239.4132281454668885
 30
0.0
 40
0.0638081396161144
 50
297.0523826459893826
 51
345.8703988503760911
  0
ARC
  5
DD59
  8
0
 10
4188.8756475022310042
 20
239.4439962433773132
 30
0.0
 40
0.0945892540384408
 50
239.1918360515415998
 51
292.1716863631227739
  0
ARC
  5
DD5A
  8
0
 10
4188.8508576345457186
 20
239.4003955465821889
 30
0.0
 40
0.044456821179572
 50
189.4396215744087897
 51
237.8525666187902914
  0
LINE
  5
DD5B
  8
0
 10
4188.8070028040083344
 20
239.3931042649475955
 30
0.0
 11
4188.8026236887362757
 21
239.4132677780515905
 31
0.0
  0
ARC
  5
DD5C
  8
0
 10
4188.8527048697360442
 20
239.4157835847130116
 30
0.0
 40
0.0501443314197459
 50
121.4836442636170943
 51
182.8758115025869984
  0
ARC
  5
DD5D
  8
0
 10
4188.8903666632104432
 20
239.3681514147230871
 30
0.0
 40
0.1106707662852213
 50
86.165994162197336
 51
125.2353114832365009
  0
ARC
  5
DD5E
  8
0
 10
4188.8974436538819646
 20
239.4173971480572902
 30
0.0
 40
0.0611782005019706
 50
37.9295526475360916
 51
89.6973732047843555
  0
ARC
  5
DD5F
  8
0
 10
4188.9146965943391479
 20
239.4368709293385962
 30
0.0
 40
0.0359154315365556
 50
351.3163852515032772
 51
30.3215266097318512
  0
LINE
  5
DD60
  8
0
 10
4188.9502003309989959
 20
239.4314484847203914
 30
0.0
 11
4188.9442013326734013
 21
239.3976515543685082
 31
0.0
  0
ARC
  5
DD61
  8
0
 10
4188.8933055631241587
 20
239.4036607867529938
 30
0.0
 40
0.0512492949402101
 50
353.2662970031125269
 51
44.9297726543164728
  0
ARC
  5
DD62
  8
0
 10
4188.8760091817621287
 20
239.3821991872389106
 30
0.0
 40
0.0787080853961828
 50
47.0987483063922525
 51
139.9811637228908978
  0
ARC
  5
DD63
  8
0
 10
4188.8589830929131494
 20
239.4024902480173012
 30
0.0
 40
0.0528208965833013
 50
144.9675257771328063
 51
190.23549990160069
  0
ARC
  5
DD64
  8
0
 10
4188.7225365198428335
 20
239.1772594008182011
 30
0.0
 40
0.0163075007463187
 50
312.4321467855859282
 51
37.5996950543634014
  0
ARC
  5
DD65
  8
0
 10
4188.7154062732306556
 20
239.1848828793488906
 30
0.0
 40
0.0267453745575686
 50
217.5923314898466003
 51
312.6870406153090016
  0
ARC
  5
DD66
  8
0
 10
4188.7074974644456233
 20
239.1773162563385995
 30
0.0
 40
0.0159058808929741
 50
153.7770878470522007
 51
213.370753392602694
  0
ARC
  5
DD67
  8
0
 10
4188.715401993076739
 20
239.1701625432187086
 30
0.0
 40
0.0263208626621462
 50
40.3647263624424113
 51
147.3972936572021979
  0
ARC
  5
DD68
  8
0
 10
4188.7214991024584378
 20
239.1970149297168859
 30
0.0
 40
0.0638081396161144
 50
297.0523826459893826
 51
345.8703988503760911
  0
ARC
  5
DD69
  8
0
 10
4188.7148229617841935
 20
239.227783027627396
 30
0.0
 40
0.0945892540384408
 50
239.1918360515415998
 51
292.1716863631227739
  0
ARC
  5
DD6A
  8
0
 10
4188.6900330940998174
 20
239.1841823308323001
 30
0.0
 40
0.044456821179572
 50
189.4396215744087897
 51
237.8525666187902914
  0
LINE
  5
DD6B
  8
0
 10
4188.6461782635606141
 20
239.1768910491977067
 30
0.0
 11
4188.6417991482876459
 21
239.1970545623017017
 31
0.0
  0
ARC
  5
DD6C
  8
0
 10
4188.691880329288324
 20
239.1995703689630943
 30
0.0
 40
0.0501443314197459
 50
121.4836442636170943
 51
182.8758115025869984
  0
ARC
  5
DD6D
  8
0
 10
4188.729542122762723
 20
239.1519381989731983
 30
0.0
 40
0.1106707662852213
 50
86.165994162197336
 51
125.2353114832365009
  0
ARC
  5
DD6E
  8
0
 10
4188.7366191134333349
 20
239.2011839323074014
 30
0.0
 40
0.0611782005019706
 50
37.9295526475360916
 51
89.6973732047843555
  0
ARC
  5
DD6F
  8
0
 10
4188.7538720538914276
 20
239.2206577135885937
 30
0.0
 40
0.0359154315365556
 50
351.3163852515032772
 51
30.3215266097318512
  0
LINE
  5
DD70
  8
0
 10
4188.7893757905512757
 20
239.2152352689705026
 30
0.0
 11
4188.7833767922247716
 21
239.1814383386185909
 31
0.0
  0
ARC
  5
DD71
  8
0
 10
4188.7324810226764384
 20
239.1874475710031049
 30
0.0
 40
0.0512492949402101
 50
353.2662970031125269
 51
44.9297726543164728
  0
ARC
  5
DD72
  8
0
 10
4188.715184641315318
 20
239.1659859714889933
 30
0.0
 40
0.0787080853961828
 50
47.0987483063922525
 51
139.9811637228908978
  0
ARC
  5
DD73
  8
0
 10
4188.6981585524663387
 20
239.1862770322672986
 30
0.0
 40
0.0528208965833013
 50
144.9675257771328063
 51
190.23549990160069
  0
ARC
  5
DD74
  8
0
 10
4188.4824872639419482
 20
239.5456061934210084
 30
0.0
 40
0.0163075007463187
 50
312.4321467855859282
 51
37.5996950543634014
  0
ARC
  5
DD75
  8
0
 10
4188.4753570173306798
 20
239.5532296719516978
 30
0.0
 40
0.0267453745575686
 50
217.5923314898466003
 51
312.6870406153090016
  0
ARC
  5
DD76
  8
0
 10
4188.4674482085456475
 20
239.545663048941293
 30
0.0
 40
0.0159058808929741
 50
153.7770878470522007
 51
213.370753392602694
  0
ARC
  5
DD77
  8
0
 10
4188.4753527371767632
 20
239.5385093358214874
 30
0.0
 40
0.0263208626621462
 50
40.3647263624424113
 51
147.3972936572021979
  0
ARC
  5
DD78
  8
0
 10
4188.481449846556643
 20
239.5653617223196932
 30
0.0
 40
0.0638081396161144
 50
297.0523826459893826
 51
345.8703988503760911
  0
ARC
  5
DD79
  8
0
 10
4188.4747737058842176
 20
239.5961298202302032
 30
0.0
 40
0.0945892540384408
 50
239.1918360515415998
 51
292.1716863631227739
  0
ARC
  5
DD7A
  8
0
 10
4188.4499838381989321
 20
239.5525291234349936
 30
0.0
 40
0.044456821179572
 50
189.4396215744087897
 51
237.8525666187902914
  0
LINE
  5
DD7B
  8
0
 10
4188.4061290076606383
 20
239.5452378418005139
 30
0.0
 11
4188.4017498923876701
 21
239.5654013549043952
 31
0.0
  0
ARC
  5
DD7C
  8
0
 10
4188.4518310733883482
 20
239.5679171615657879
 30
0.0
 40
0.0501443314197459
 50
121.4836442636170943
 51
182.8758115025869984
  0
ARC
  5
DD7D
  8
0
 10
4188.4894928668627472
 20
239.5202849915758918
 30
0.0
 40
0.1106707662852213
 50
86.165994162197336
 51
125.2353114832365009
  0
ARC
  5
DD7E
  8
0
 10
4188.4965698575342685
 20
239.5695307249102086
 30
0.0
 40
0.0611782005019706
 50
37.9295526475360916
 51
89.6973732047843555
  0
ARC
  5
DD7F
  8
0
 10
4188.5138227979914518
 20
239.5890045061914009
 30
0.0
 40
0.0359154315365556
 50
351.3163852515032772
 51
30.3215266097318512
  0
LINE
  5
DD80
  8
0
 10
4188.5493265346503904
 20
239.5835820615733098
 30
0.0
 11
4188.5433275363247958
 21
239.5497851312213129
 31
0.0
  0
ARC
  5
DD81
  8
0
 10
4188.4924317667773721
 20
239.5557943636057985
 30
0.0
 40
0.0512492949402101
 50
353.2662970031125269
 51
44.9297726543164728
  0
ARC
  5
DD82
  8
0
 10
4188.4751353854162517
 20
239.5343327640916868
 30
0.0
 40
0.0787080853961828
 50
47.0987483063922525
 51
139.9811637228908978
  0
ARC
  5
DD83
  8
0
 10
4188.4581092965672724
 20
239.5546238248701059
 30
0.0
 40
0.0528208965833013
 50
144.9675257771328063
 51
190.23549990160069
  0
ARC
  5
DD84
  8
0
 10
4188.4824848244434179
 20
239.3523587082181905
 30
0.0
 40
0.0163075007463187
 50
312.4321467855859282
 51
37.5996950543634014
  0
ARC
  5
DD85
  8
0
 10
4188.4753545778321495
 20
239.3599821867489084
 30
0.0
 40
0.0267453745575686
 50
217.5923314898466003
 51
312.6870406153090016
  0
ARC
  5
DD86
  8
0
 10
4188.4674457690462077
 20
239.3524155637385888
 30
0.0
 40
0.0159058808929741
 50
153.7770878470522007
 51
213.370753392602694
  0
ARC
  5
DD87
  8
0
 10
4188.4753502976764139
 20
239.345261850618698
 30
0.0
 40
0.0263208626621462
 50
40.3647263624424113
 51
147.3972936572021979
  0
ARC
  5
DD88
  8
0
 10
4188.4814474070581127
 20
239.3721142371169037
 30
0.0
 40
0.0638081396161144
 50
297.0523826459893826
 51
345.8703988503760911
  0
ARC
  5
DD89
  8
0
 10
4188.4747712663838684
 20
239.4028823350274138
 30
0.0
 40
0.0945892540384408
 50
239.1918360515415998
 51
292.1716863631227739
  0
ARC
  5
DD8A
  8
0
 10
4188.4499813987004018
 20
239.3592816382322894
 30
0.0
 40
0.044456821179572
 50
189.4396215744087897
 51
237.8525666187902914
  0
LINE
  5
DD8B
  8
0
 10
4188.4061265681611985
 20
239.3519903565976961
 30
0.0
 11
4188.4017474528882303
 21
239.3721538697016911
 31
0.0
  0
ARC
  5
DD8C
  8
0
 10
4188.4518286338879989
 20
239.3746696763631121
 30
0.0
 40
0.0501443314197459
 50
121.4836442636170943
 51
182.8758115025869984
  0
ARC
  5
DD8D
  8
0
 10
4188.4894904273642169
 20
239.3270375063731876
 30
0.0
 40
0.1106707662852213
 50
86.165994162197336
 51
125.2353114832365009
  0
ARC
  5
DD8E
  8
0
 10
4188.4965674180339192
 20
239.3762832397073907
 30
0.0
 40
0.0611782005019706
 50
37.9295526475360916
 51
89.6973732047843555
  0
ARC
  5
DD8F
  8
0
 10
4188.513820358492012
 20
239.3957570209886114
 30
0.0
 40
0.0359154315365556
 50
351.3163852515032772
 51
30.3215266097318512
  0
LINE
  5
DD90
  8
0
 10
4188.5493240951509506
 20
239.390334576370492
 30
0.0
 11
4188.5433250968262655
 21
239.356537646018495
 31
0.0
  0
ARC
  5
DD91
  8
0
 10
4188.4924293272761133
 20
239.3625468784030943
 30
0.0
 40
0.0512492949402101
 50
353.2662970031125269
 51
44.9297726543164728
  0
ARC
  5
DD92
  8
0
 10
4188.4751329459149929
 20
239.3410852788888974
 30
0.0
 40
0.0787080853961828
 50
47.0987483063922525
 51
139.9811637228908978
  0
ARC
  5
DD93
  8
0
 10
4188.4581068570660136
 20
239.361376339667288
 30
0.0
 40
0.0528208965833013
 50
144.9675257771328063
 51
190.23549990160069
  0
ARC
  5
DD94
  8
0
 10
4188.5477395721491121
 20
240.5442103672826875
 30
0.0
 40
0.1930069620831833
 50
319.5906313813912902
 51
60.0890701757675529
  0
ARC
  5
DD95
  8
0
 10
4173.4452519976375697
 20
237.4373901123803137
 30
0.0
 40
15.6521638436268002
 50
0.2609941622744933
 51
5.5349918889792447
  0
ARC
  5
DD96
  8
0
 10
4172.01839432657016
 20
237.744744241463593
 30
0.0
 40
17.0804903677279398
 50
352.2463985600190881
 51
359.2081365677786948
  0
ARC
  5
DD97
  8
0
 10
4190.5856339347756148
 20
235.178625930099912
 30
0.0
 40
1.663627042729938
 50
170.9481845357547058
 51
181.2282618442889941
  0
ARC
  5
DD98
  8
0
 10
4188.8502722406019529
 20
234.9419424079571002
 30
0.0
 40
0.213567281263567
 50
355.8650023592268212
 51
70.2645523249174033
  0
ARC
  5
DD99
  8
0
 10
4188.789502645842731
 20
235.0323870100382067
 30
0.0
 40
0.2935285453481649
 50
284.3434418818350196
 51
338.8634036533898097
  0
ARC
  5
DD9A
  8
0
 10
4188.9542023878184409
 20
234.8377827482289035
 30
0.0
 40
0.0961547421731392
 50
0.0877070329511688
 51
26.175522623254821
  0
LINE
  5
DD9B
  8
0
 10
4189.0503570173323169
 20
234.8379299395913904
 30
0.0
 11
4189.0511481696839837
 21
234.3210996037302039
 31
0.0
  0
ARC
  5
DD9C
  8
0
 10
4188.8244403339767814
 20
234.3936247043982917
 30
0.0
 40
0.2380259082484819
 50
278.3009056715416136
 51
342.2602360940343829
  0
ARC
  5
DD9D
  8
0
 10
4188.8447424543219313
 20
234.1838970584537094
 30
0.0
 40
0.0293874091206042
 50
179.3362152946434946
 51
298.5880206072588976
  0
LINE
  5
DD9E
  8
0
 10
4188.8153570173317348
 20
234.1842375106913892
 30
0.0
 11
4188.8151567601307761
 21
234.7014272997913906
 31
0.0
  0
ARC
  5
DD9F
  8
0
 10
4188.8446481784385469
 20
234.6997273652100944
 30
0.0
 40
0.0295403712125814
 50
88.6250214979008319
 51
176.701026075352587
  0
ARC
  5
DDA0
  8
0
 10
4188.7658303145008176
 20
235.0502360578406069
 30
0.0
 40
0.3306820527784764
 50
283.9156365666270858
 51
327.3234157760841185
  0
LINE
  5
DDA1
  8
0
 10
4188.8967757202271969
 20
234.1668562654706989
 30
0.0
 11
4188.8800327430308243
 21
233.7893045923852071
 31
0.0
  0
ARC
  5
DDA2
  8
0
 10
4188.7936634615143703
 20
233.7931347407169085
 30
0.0
 40
0.0864541660422153
 50
303.1096113490943935
 51
357.4608142681286722
  0
ARC
  5
DDA3
  8
0
 10
4188.5692301716662769
 20
234.1372885033086959
 30
0.0
 40
0.4973216798446675
 50
270.861434981427692
 51
303.1096113490943935
  0
ARC
  5
DDA4
  8
0
 10
4188.5115913657509736
 20
239.2336710740898127
 30
0.0
 40
0.0444683327100375
 50
351.2738774603362231
 51
83.4130497510524123
  0
ARC
  5
DDA5
  8
0
 10
4151.8401339364572777
 20
239.0457495052868069
 30
0.0
 40
36.7158580423379703
 50
359.239622098841096
 51
0.2827284363469276
  0
ARC
  5
DDA6
  8
0
 10
4188.5125972628384261
 20
238.5584933866946926
 30
0.0
 40
0.0401615289116891
 50
270.4243723889524063
 51
0.0152271673173346
  0
ARC
  5
DDA7
  8
0
 10
4188.5802604663458624
 20
238.978552124345299
 30
0.0
 40
0.0291021835647095
 50
97.8256168723529953
 51
146.6296123725838925
  0
ARC
  5
DDA8
  8
0
 10
4187.72219676054101
 20
240.8750671037959989
 30
0.0
 40
1.6504609106862129
 50
159.4771489171396013
 51
179.593739396891209
  0
ARC
  5
DDA9
  8
0
 10
4187.8460072294374186
 20
240.898001625090302
 30
0.0
 40
1.774265441902416
 50
180.362710072569314
 51
227.0790983394713862
  0
ARC
  5
DDAA
  8
0
 10
4188.4086085021717736
 20
240.1334362112322083
 30
0.0
 40
2.4148958986006068
 50
102.0788021767392024
 51
123.1253325540631067
  0
ARC
  5
DDAB
  8
0
 10
4188.0977773397708006
 20
240.590269299159587
 30
0.0
 40
1.8624785417684779
 50
122.7971681025458963
 51
151.9855189978609928
  0
ARC
  5
DDAC
  8
0
 10
4187.7574123111717199
 20
240.7811678836264093
 30
0.0
 40
1.4723558868678699
 50
152.3226413511357862
 51
187.2636868752395003
  0
ARC
  5
DDAD
  8
0
 10
4187.9819670030783527
 20
240.8615877318414107
 30
0.0
 40
1.7060503807259111
 50
188.989577203607098
 51
237.0518119358241051
  0
ARC
  5
DDAE
  8
0
 10
4188.401674053107854
 20
240.1406574547852983
 30
0.0
 40
2.4218215753272472
 50
103.2315300522568009
 51
123.5073558866212977
  0
ARC
  5
DDAF
  8
0
 10
4187.9890467582035853
 20
240.6980522952542003
 30
0.0
 40
1.729650951946285
 50
122.3032065189468938
 51
162.964671332837014
  0
ARC
  5
DDB0
  8
0
 10
4187.6959011059698241
 20
240.7656474722473945
 30
0.0
 40
1.4297224420857939
 50
162.1130136081768001
 51
208.7064637272941923
  0
ARC
  5
DDB1
  8
0
 10
4188.1848066624406783
 20
241.0517252982972138
 30
0.0
 40
1.996011993726291
 50
209.168169286188089
 51
247.2911402167007111
  0
ARC
  5
DDB2
  8
0
 10
4188.227326186011851
 20
240.6410610735566138
 30
0.0
 40
0.853551065253095
 50
185.8804593496801942
 51
238.4220120320678973
  0
ARC
  5
DDB3
  8
0
 10
4188.219777992402669
 20
240.5740011462654024
 30
0.0
 40
0.8417583004174909
 50
119.5825666756445997
 51
181.3879620724339077
  0
ARC
  5
DDB4
  8
0
 10
4188.0707708025020111
 20
241.094610543100913
 30
0.0
 40
1.9280168049944419
 50
142.6993808035435904
 51
169.2664789976795987
  0
ARC
  5
DDB5
  8
0
 10
4188.2428228904200296
 20
240.9203378177091963
 30
0.0
 40
2.1707593328682488
 50
115.4088457959880003
 51
141.7922973704341132
  0
ARC
  5
DDB6
  8
0
 10
4188.4386946072363571
 20
240.5473160761625877
 30
0.0
 40
2.591796816250008
 50
101.886780998508101
 51
115.7818022250938981
  0
ARC
  5
DDB7
  8
0
 10
4187.0104900712285598
 20
239.7205521025497035
 30
0.0
 40
0.0163075007463187
 50
142.4003049456366057
 51
227.5678532144139865
  0
ARC
  5
DDB8
  8
0
 10
4187.0176203178407377
 20
239.7281755810805066
 30
0.0
 40
0.0267453745575686
 50
227.3129593846898899
 51
322.4076685101533144
  0
ARC
  5
DDB9
  8
0
 10
4187.02552912662577
 20
239.7206089580701018
 30
0.0
 40
0.0159058808929741
 50
326.629246607397306
 51
26.22291215294781
  0
ARC
  5
DDBA
  8
0
 10
4187.0176245979946543
 20
239.713455244950211
 30
0.0
 40
0.0263208626621462
 50
32.6027063427978305
 51
139.6352736375575887
  0
ARC
  5
DDBB
  8
0
 10
4187.011527488613865
 20
239.740307631448502
 30
0.0
 40
0.0638081396161144
 50
194.1296011496237952
 51
242.947617354010589
  0
ARC
  5
DDBC
  8
0
 10
4187.0182036292881094
 20
239.7710757293588983
 30
0.0
 40
0.0945892540384408
 50
247.8283136368771977
 51
300.8081639484582865
  0
ARC
  5
DDBD
  8
0
 10
4187.042993496971576
 20
239.7274750325638024
 30
0.0
 40
0.044456821179572
 50
302.1474333812096233
 51
350.5603784255911819
  0
LINE
  5
DDBE
  8
0
 10
4187.0868483275107792
 20
239.7201837509292091
 30
0.0
 11
4187.0912274427837474
 21
239.7403472640332041
 31
0.0
  0
ARC
  5
DDBF
  8
0
 10
4187.0411462617830693
 20
239.7428630706945967
 30
0.0
 40
0.0501443314197459
 50
357.1241884974130016
 51
58.5163557363828204
  0
ARC
  5
DDC0
  8
0
 10
4187.0034844683086703
 20
239.6952309007047006
 30
0.0
 40
0.1106707662852213
 50
54.7646885167634494
 51
93.8340058378026782
  0
ARC
  5
DDC1
  8
0
 10
4186.9964074776380585
 20
239.7444766340389037
 30
0.0
 40
0.0611782005019706
 50
90.3026267952156303
 51
142.0704473524639013
  0
ARC
  5
DDC2
  8
0
 10
4186.9791545371808752
 20
239.7639504153202097
 30
0.0
 40
0.0359154315365556
 50
149.6784733902680955
 51
188.6836147484966091
  0
LINE
  5
DDC3
  8
0
 10
4186.9436508005210271
 20
239.7585279707020049
 30
0.0
 11
4186.9496497988457122
 21
239.7247310403500933
 31
0.0
  0
ARC
  5
DDC4
  8
0
 10
4187.0005455683958644
 20
239.7307402727346073
 30
0.0
 40
0.0512492949402101
 50
135.0702273456834916
 51
186.7337029968875015
  0
ARC
  5
DDC5
  8
0
 10
4187.0178419497569848
 20
239.7092786732204956
 30
0.0
 40
0.0787080853961828
 50
40.0188362771090382
 51
132.9012516936076906
  0
ARC
  5
DDC6
  8
0
 10
4187.0348680386059641
 20
239.7295697339988862
 30
0.0
 40
0.0528208965833013
 50
349.76450009839931
 51
35.0324742228671795
  0
ARC
  5
DDC7
  8
0
 10
4188.3601459022966083
 20
241.4048246289150939
 30
0.0
 40
2.4957284877284911
 50
226.3591190775640882
 51
270.7996268036392848
  0
ARC
  5
DDC8
  8
0
 10
4188.4447384215982311
 20
241.5012099472955072
 30
0.0
 40
2.4948179638778738
 50
236.1225120011266085
 51
268.3847690463626918
  0
ARC
  5
DDC9
  8
0
 10
4188.4599834081327572
 20
241.5947080929493893
 30
0.0
 40
2.6035091947024389
 50
246.3177880497337071
 51
268.5644997127619149
  0
ARC
  5
DDCA
  8
0
 10
4187.7958802667262717
 20
239.6924781261784005
 30
0.0
 40
0.0163075007463187
 50
142.4003049456366057
 51
227.5678532144139865
  0
ARC
  5
DDCB
  8
0
 10
4187.8030105133366305
 20
239.70010160470909
 30
0.0
 40
0.0267453745575686
 50
227.3129593846898899
 51
322.4076685101533144
  0
ARC
  5
DDCC
  8
0
 10
4187.8109193221243913
 20
239.6925349816987136
 30
0.0
 40
0.0159058808929741
 50
326.629246607397306
 51
26.22291215294781
  0
ARC
  5
DDCD
  8
0
 10
4187.8030147934941851
 20
239.685381268578908
 30
0.0
 40
0.0263208626621462
 50
32.6027063427978305
 51
139.6352736375575887
  0
ARC
  5
DDCE
  8
0
 10
4187.7969176841115768
 20
239.7122336550771138
 30
0.0
 40
0.0638081396161144
 50
194.1296011496237952
 51
242.947617354010589
  0
ARC
  5
DDCF
  8
0
 10
4187.8035938247840022
 20
239.7430017529875954
 30
0.0
 40
0.0945892540384408
 50
247.8283136368771977
 51
300.8081639484582865
  0
ARC
  5
DDD0
  8
0
 10
4187.8283836924701973
 20
239.6994010561923858
 30
0.0
 40
0.044456821179572
 50
302.1474333812096233
 51
350.5603784255911819
  0
LINE
  5
DDD1
  8
0
 10
4187.8722385230075815
 20
239.6921097745579061
 30
0.0
 11
4187.8766176382823687
 21
239.7122732876619011
 31
0.0
  0
ARC
  5
DDD2
  8
0
 10
4187.8265364572816907
 20
239.7147890943232085
 30
0.0
 40
0.0501443314197459
 50
357.1241884974130016
 51
58.5163557363828204
  0
ARC
  5
DDD3
  8
0
 10
4187.7888746638063822
 20
239.6671569243333977
 30
0.0
 40
0.1106707662852213
 50
54.7646885167634494
 51
93.8340058378026782
  0
ARC
  5
DDD4
  8
0
 10
4187.7817976731339513
 20
239.7164026576676008
 30
0.0
 40
0.0611782005019706
 50
90.3026267952156303
 51
142.0704473524639013
  0
ARC
  5
DDD5
  8
0
 10
4187.7645447326776775
 20
239.7358764389487931
 30
0.0
 40
0.0359154315365556
 50
149.6784733902680955
 51
188.6836147484966091
  0
LINE
  5
DDD6
  8
0
 10
4187.7290409960178295
 20
239.730453994330702
 30
0.0
 11
4187.7350399943443335
 21
239.6966570639787051
 31
0.0
  0
ARC
  5
DDD7
  8
0
 10
4187.7859357638926667
 20
239.7026662963631907
 30
0.0
 40
0.0512492949402101
 50
135.0702273456834916
 51
186.7337029968875015
  0
ARC
  5
DDD8
  8
0
 10
4187.8032321452546967
 20
239.6812046968491074
 30
0.0
 40
0.0787080853961828
 50
40.0188362771090382
 51
132.9012516936076906
  0
ARC
  5
DDD9
  8
0
 10
4187.8202582341027664
 20
239.7014957576274981
 30
0.0
 40
0.0528208965833013
 50
349.76450009839931
 51
35.0324742228671795
  0
ARC
  5
DDDA
  8
0
 10
4187.6902833549238494
 20
239.5140337319813
 30
0.0
 40
0.0163075007463187
 50
142.4003049456366057
 51
227.5678532144139865
  0
ARC
  5
DDDB
  8
0
 10
4187.6974136015360273
 20
239.5216572105121031
 30
0.0
 40
0.0267453745575686
 50
227.3129593846898899
 51
322.4076685101533144
  0
ARC
  5
DDDC
  8
0
 10
4187.7053224103219691
 20
239.5140905875016983
 30
0.0
 40
0.0159058808929741
 50
326.629246607397306
 51
26.22291215294781
  0
ARC
  5
DDDD
  8
0
 10
4187.6974178816908534
 20
239.5069368743818075
 30
0.0
 40
0.0263208626621462
 50
32.6027063427978305
 51
139.6352736375575887
  0
ARC
  5
DDDE
  8
0
 10
4187.6913207723109736
 20
239.5337892608800132
 30
0.0
 40
0.0638081396161144
 50
194.1296011496237952
 51
242.947617354010589
  0
ARC
  5
DDDF
  8
0
 10
4187.6979969129843084
 20
239.5645573587904948
 30
0.0
 40
0.0945892540384408
 50
247.8283136368771977
 51
300.8081639484582865
  0
ARC
  5
DDE0
  8
0
 10
4187.7227867806686845
 20
239.5209566619953137
 30
0.0
 40
0.044456821179572
 50
302.1474333812096233
 51
350.5603784255911819
  0
LINE
  5
DDE1
  8
0
 10
4187.7666416112069783
 20
239.5136653803608056
 30
0.0
 11
4187.771020726479037
 21
239.5338288934648006
 31
0.0
  0
ARC
  5
DDE2
  8
0
 10
4187.7209395454810874
 20
239.5363447001261932
 30
0.0
 40
0.0501443314197459
 50
357.1241884974130016
 51
58.5163557363828204
  0
ARC
  5
DDE3
  8
0
 10
4187.6832777520057789
 20
239.4887125301362971
 30
0.0
 40
0.1106707662852213
 50
54.7646885167634494
 51
93.8340058378026782
  0
ARC
  5
DDE4
  8
0
 10
4187.6762007613342575
 20
239.5379582634705002
 30
0.0
 40
0.0611782005019706
 50
90.3026267952156303
 51
142.0704473524639013
  0
ARC
  5
DDE5
  8
0
 10
4187.6589478208770743
 20
239.5574320447518062
 30
0.0
 40
0.0359154315365556
 50
149.6784733902680955
 51
188.6836147484966091
  0
LINE
  5
DDE6
  8
0
 10
4187.6234440842172262
 20
239.5520096001336015
 30
0.0
 11
4187.6294430825428208
 21
239.5182126697816045
 31
0.0
  0
ARC
  5
DDE7
  8
0
 10
4187.6803388520920635
 20
239.5242219021662038
 30
0.0
 40
0.0512492949402101
 50
135.0702273456834916
 51
186.7337029968875015
  0
ARC
  5
DDE8
  8
0
 10
4187.6976352334531839
 20
239.5027603026520069
 30
0.0
 40
0.0787080853961828
 50
40.0188362771090382
 51
132.9012516936076906
  0
ARC
  5
DDE9
  8
0
 10
4187.7146613223021632
 20
239.5230513634303975
 30
0.0
 40
0.0528208965833013
 50
349.76450009839931
 51
35.0324742228671795
  0
ARC
  5
DDEA
  8
0
 10
4187.771615597625896
 20
239.2726000469783969
 30
0.0
 40
0.0163075007463187
 50
142.4003049456366057
 51
227.5678532144139865
  0
ARC
  5
DDEB
  8
0
 10
4187.7787458442380739
 20
239.2802235255090864
 30
0.0
 40
0.0267453745575686
 50
227.3129593846898899
 51
322.4076685101533144
  0
ARC
  5
DDEC
  8
0
 10
4187.7866546530231062
 20
239.27265690249871
 30
0.0
 40
0.0159058808929741
 50
326.629246607397306
 51
26.22291215294781
  0
ARC
  5
DDED
  8
0
 10
4187.7787501243929
 20
239.2655031893789044
 30
0.0
 40
0.0263208626621462
 50
32.6027063427978305
 51
139.6352736375575887
  0
ARC
  5
DDEE
  8
0
 10
4187.7726530150121107
 20
239.2923555758771101
 30
0.0
 40
0.0638081396161144
 50
194.1296011496237952
 51
242.947617354010589
  0
ARC
  5
DDEF
  8
0
 10
4187.7793291556854456
 20
239.3231236737875918
 30
0.0
 40
0.0945892540384408
 50
247.8283136368771977
 51
300.8081639484582865
  0
ARC
  5
DDF0
  8
0
 10
4187.8041190233707312
 20
239.2795229769924106
 30
0.0
 40
0.044456821179572
 50
302.1474333812096233
 51
350.5603784255911819
  0
LINE
  5
DDF1
  8
0
 10
4187.8479738539081154
 20
239.2722316953577888
 30
0.0
 11
4187.8523529691819931
 21
239.2923952084618975
 31
0.0
  0
ARC
  5
DDF2
  8
0
 10
4187.8022717881813151
 20
239.2949110151232901
 30
0.0
 40
0.0501443314197459
 50
357.1241884974130016
 51
58.5163557363828204
  0
ARC
  5
DDF3
  8
0
 10
4187.764609994706916
 20
239.2472788451333088
 30
0.0
 40
0.1106707662852213
 50
54.7646885167634494
 51
93.8340058378026782
  0
ARC
  5
DDF4
  8
0
 10
4187.7575330040353947
 20
239.2965245784675119
 30
0.0
 40
0.0611782005019706
 50
90.3026267952156303
 51
142.0704473524639013
  0
ARC
  5
DDF5
  8
0
 10
4187.7402800635782114
 20
239.3159983597487894
 30
0.0
 40
0.0359154315365556
 50
149.6784733902680955
 51
188.6836147484966091
  0
LINE
  5
DDF6
  8
0
 10
4187.7047763269183633
 20
239.3105759151306131
 30
0.0
 11
4187.7107753252439579
 21
239.2767789847787014
 31
0.0
  0
ARC
  5
DDF7
  8
0
 10
4187.7616710947932006
 20
239.2827882171633007
 30
0.0
 40
0.0512492949402101
 50
135.0702273456834916
 51
186.7337029968875015
  0
ARC
  5
DDF8
  8
0
 10
4187.778967476154321
 20
239.2613266176491038
 30
0.0
 40
0.0787080853961828
 50
40.0188362771090382
 51
132.9012516936076906
  0
ARC
  5
DDF9
  8
0
 10
4187.7959935650033003
 20
239.2816176784274944
 30
0.0
 40
0.0528208965833013
 50
349.76450009839931
 51
35.0324742228671795
  0
ARC
  5
DDFA
  8
0
 10
4187.3508977887267974
 20
239.4599497977783926
 30
0.0
 40
0.0163075007463187
 50
142.4003049456366057
 51
227.5678532144139865
  0
ARC
  5
DDFB
  8
0
 10
4187.3580280353380658
 20
239.4675732763091105
 30
0.0
 40
0.0267453745575686
 50
227.3129593846898899
 51
322.4076685101533144
  0
ARC
  5
DDFC
  8
0
 10
4187.3659368441221886
 20
239.4600066532987057
 30
0.0
 40
0.0159058808929741
 50
326.629246607397306
 51
26.22291215294781
  0
ARC
  5
DDFD
  8
0
 10
4187.3580323154928919
 20
239.4528529401789001
 30
0.0
 40
0.0263208626621462
 50
32.6027063427978305
 51
139.6352736375575887
  0
ARC
  5
DDFE
  8
0
 10
4187.3519352061121026
 20
239.4797053266771059
 30
0.0
 40
0.0638081396161144
 50
194.1296011496237952
 51
242.947617354010589
  0
ARC
  5
DDFF
  8
0
 10
4187.358611346786347
 20
239.5104734245875875
 30
0.0
 40
0.0945892540384408
 50
247.8283136368771977
 51
300.8081639484582865
  0
ARC
  5
DE00
  8
0
 10
4187.3834012144707231
 20
239.4668727277924063
 30
0.0
 40
0.044456821179572
 50
302.1474333812096233
 51
350.5603784255911819
  0
LINE
  5
DE01
  8
0
 10
4187.4272560450071978
 20
239.4595814461578982
 30
0.0
 11
4187.431635160281985
 21
239.4797449592618932
 31
0.0
  0
ARC
  5
DE02
  8
0
 10
4187.381553979281307
 20
239.4822607659232858
 30
0.0
 40
0.0501443314197459
 50
357.1241884974130016
 51
58.5163557363828204
  0
ARC
  5
DE03
  8
0
 10
4187.3438921858069079
 20
239.4346285959333898
 30
0.0
 40
0.1106707662852213
 50
54.7646885167634494
 51
93.8340058378026782
  0
ARC
  5
DE04
  8
0
 10
4187.3368151951353866
 20
239.4838743292675929
 30
0.0
 40
0.0611782005019706
 50
90.3026267952156303
 51
142.0704473524639013
  0
ARC
  5
DE05
  8
0
 10
4187.3195622546772938
 20
239.5033481105488136
 30
0.0
 40
0.0359154315365556
 50
149.6784733902680955
 51
188.6836147484966091
  0
LINE
  5
DE06
  8
0
 10
4187.2840585180183552
 20
239.4979256659306941
 30
0.0
 11
4187.2900575163439498
 21
239.4641287355786972
 31
0.0
  0
ARC
  5
DE07
  8
0
 10
4187.3409532858931925
 20
239.4701379679632964
 30
0.0
 40
0.0512492949402101
 50
135.0702273456834916
 51
186.7337029968875015
  0
ARC
  5
DE08
  8
0
 10
4187.358249667254313
 20
239.4486763684490995
 30
0.0
 40
0.0787080853961828
 50
40.0188362771090382
 51
132.9012516936076906
  0
ARC
  5
DE09
  8
0
 10
4187.3752757561032922
 20
239.4689674292274049
 30
0.0
 40
0.0528208965833013
 50
349.76450009839931
 51
35.0324742228671795
  0
ARC
  5
DE0A
  8
0
 10
4187.3698274120279166
 20
239.7056013438239006
 30
0.0
 40
0.0163075007463187
 50
142.4003049456366057
 51
227.5678532144139865
  0
ARC
  5
DE0B
  8
0
 10
4187.376957658639185
 20
239.7132248223545901
 30
0.0
 40
0.0267453745575686
 50
227.3129593846898899
 51
322.4076685101533144
  0
ARC
  5
DE0C
  8
0
 10
4187.3848664674242173
 20
239.7056581993442137
 30
0.0
 40
0.0159058808929741
 50
326.629246607397306
 51
26.22291215294781
  0
ARC
  5
DE0D
  8
0
 10
4187.3769619387940111
 20
239.6985044862244081
 30
0.0
 40
0.0263208626621462
 50
32.6027063427978305
 51
139.6352736375575887
  0
ARC
  5
DE0E
  8
0
 10
4187.3708648294132217
 20
239.7253568727226138
 30
0.0
 40
0.0638081396161144
 50
194.1296011496237952
 51
242.947617354010589
  0
ARC
  5
DE0F
  8
0
 10
4187.3775409700865566
 20
239.7561249706330102
 30
0.0
 40
0.0945892540384408
 50
247.8283136368771977
 51
300.8081639484582865
  0
ARC
  5
DE10
  8
0
 10
4187.4023308377718422
 20
239.7125242738378859
 30
0.0
 40
0.044456821179572
 50
302.1474333812096233
 51
350.5603784255911819
  0
LINE
  5
DE11
  8
0
 10
4187.446185668310136
 20
239.7052329922032925
 30
0.0
 11
4187.4505647835831041
 21
239.7253965053072875
 31
0.0
  0
ARC
  5
DE12
  8
0
 10
4187.4004836025833356
 20
239.7279123119687085
 30
0.0
 40
0.0501443314197459
 50
357.1241884974130016
 51
58.5163557363828204
  0
ARC
  5
DE13
  8
0
 10
4187.3628218091080271
 20
239.6802801419788125
 30
0.0
 40
0.1106707662852213
 50
54.7646885167634494
 51
93.8340058378026782
  0
ARC
  5
DE14
  8
0
 10
4187.3557448184355962
 20
239.7295258753129872
 30
0.0
 40
0.0611782005019706
 50
90.3026267952156303
 51
142.0704473524639013
  0
ARC
  5
DE15
  8
0
 10
4187.3384918779802319
 20
239.7489996565942931
 30
0.0
 40
0.0359154315365556
 50
149.6784733902680955
 51
188.6836147484966091
  0
LINE
  5
DE16
  8
0
 10
4187.3029881413185649
 20
239.7435772119760884
 30
0.0
 11
4187.3089871396459785
 21
239.7097802816240915
 31
0.0
  0
ARC
  5
DE17
  8
0
 10
4187.3598829091952211
 20
239.7157895140086907
 30
0.0
 40
0.0512492949402101
 50
135.0702273456834916
 51
186.7337029968875015
  0
ARC
  5
DE18
  8
0
 10
4187.3771792905563416
 20
239.6943279144946075
 30
0.0
 40
0.0787080853961828
 50
40.0188362771090382
 51
132.9012516936076906
  0
ARC
  5
DE19
  8
0
 10
4187.3942053794053209
 20
239.7146189752729128
 30
0.0
 40
0.0528208965833013
 50
349.76450009839931
 51
35.0324742228671795
  0
ARC
  5
DE1A
  8
0
 10
4187.5205610139955752
 20
239.8634623547847866
 30
0.0
 40
0.0163075007463187
 50
142.4003049456366057
 51
227.5678532144139865
  0
ARC
  5
DE1B
  8
0
 10
4187.5276912606077531
 20
239.8710858333155898
 30
0.0
 40
0.0267453745575686
 50
227.3129593846898899
 51
322.4076685101533144
  0
ARC
  5
DE1C
  8
0
 10
4187.5356000693936949
 20
239.8635192103052134
 30
0.0
 40
0.0159058808929741
 50
326.629246607397306
 51
26.22291215294781
  0
ARC
  5
DE1D
  8
0
 10
4187.5276955407625792
 20
239.8563654971852941
 30
0.0
 40
0.0263208626621462
 50
32.6027063427978305
 51
139.6352736375575887
  0
ARC
  5
DE1E
  8
0
 10
4187.5215984313817899
 20
239.8832178836834998
 30
0.0
 40
0.0638081396161144
 50
194.1296011496237952
 51
242.947617354010589
  0
ARC
  5
DE1F
  8
0
 10
4187.5282745720560342
 20
239.9139859815940099
 30
0.0
 40
0.0945892540384408
 50
247.8283136368771977
 51
300.8081639484582865
  0
ARC
  5
DE20
  8
0
 10
4187.5530644397404103
 20
239.8703852847988003
 30
0.0
 40
0.044456821179572
 50
302.1474333812096233
 51
350.5603784255911819
  0
LINE
  5
DE21
  8
0
 10
4187.5969192702787041
 20
239.8630940031642922
 30
0.0
 11
4187.6012983855507628
 21
239.8832575162682872
 31
0.0
  0
ARC
  5
DE22
  8
0
 10
4187.5512172045519037
 20
239.8857733229297082
 30
0.0
 40
0.0501443314197459
 50
357.1241884974130016
 51
58.5163557363828204
  0
ARC
  5
DE23
  8
0
 10
4187.5135554110765952
 20
239.8381411529398122
 30
0.0
 40
0.1106707662852213
 50
54.7646885167634494
 51
93.8340058378026782
  0
ARC
  5
DE24
  8
0
 10
4187.5064784204050738
 20
239.8873868862739869
 30
0.0
 40
0.0611782005019706
 50
90.3026267952156303
 51
142.0704473524639013
  0
ARC
  5
DE25
  8
0
 10
4187.4892254799488001
 20
239.9068606675552076
 30
0.0
 40
0.0359154315365556
 50
149.6784733902680955
 51
188.6836147484966091
  0
LINE
  5
DE26
  8
0
 10
4187.453721743287133
 20
239.9014382229370881
 30
0.0
 11
4187.4597207416136371
 21
239.8676412925850912
 31
0.0
  0
ARC
  5
DE27
  8
0
 10
4187.5106165111637893
 20
239.8736505249696904
 30
0.0
 40
0.0512492949402101
 50
135.0702273456834916
 51
186.7337029968875015
  0
ARC
  5
DE28
  8
0
 10
4187.5279128925249097
 20
239.8521889254554935
 30
0.0
 40
0.0787080853961828
 50
40.0188362771090382
 51
132.9012516936076906
  0
ARC
  5
DE29
  8
0
 10
4187.544938981373889
 20
239.8724799862339125
 30
0.0
 40
0.0528208965833013
 50
349.76450009839931
 51
35.0324742228671795
  0
ARC
  5
DE2A
  8
0
 10
4187.3088305733472225
 20
240.0876863745818923
 30
0.0
 40
0.0163075007463187
 50
142.4003049456366057
 51
227.5678532144139865
  0
ARC
  5
DE2B
  8
0
 10
4187.3159608199575814
 20
240.0953098531126955
 30
0.0
 40
0.0267453745575686
 50
227.3129593846898899
 51
322.4076685101533144
  0
ARC
  5
DE2C
  8
0
 10
4187.3238696287444327
 20
240.0877432301022907
 30
0.0
 40
0.0159058808929741
 50
326.629246607397306
 51
26.22291215294781
  0
ARC
  5
DE2D
  8
0
 10
4187.3159651001142265
 20
240.0805895169825135
 30
0.0
 40
0.0263208626621462
 50
32.6027063427978305
 51
139.6352736375575887
  0
ARC
  5
DE2E
  8
0
 10
4187.3098679907334372
 20
240.1074419034806056
 30
0.0
 40
0.0638081396161144
 50
194.1296011496237952
 51
242.947617354010589
  0
ARC
  5
DE2F
  8
0
 10
4187.3165441314049531
 20
240.1382100013910872
 30
0.0
 40
0.0945892540384408
 50
247.8283136368771977
 51
300.8081639484582865
  0
ARC
  5
DE30
  8
0
 10
4187.3413339990911481
 20
240.0946093045959913
 30
0.0
 40
0.044456821179572
 50
302.1474333812096233
 51
350.5603784255911819
  0
LINE
  5
DE31
  8
0
 10
4187.3851888296294419
 20
240.0873180229613979
 30
0.0
 11
4187.3895679449033196
 21
240.1074815360653929
 31
0.0
  0
ARC
  5
DE32
  8
0
 10
4187.339486763901732
 20
240.1099973427268139
 30
0.0
 40
0.0501443314197459
 50
357.1241884974130016
 51
58.5163557363828204
  0
ARC
  5
DE33
  8
0
 10
4187.301824970427333
 20
240.0623651727368895
 30
0.0
 40
0.1106707662852213
 50
54.7646885167634494
 51
93.8340058378026782
  0
ARC
  5
DE34
  8
0
 10
4187.2947479797549022
 20
240.1116109060710926
 30
0.0
 40
0.0611782005019706
 50
90.3026267952156303
 51
142.0704473524639013
  0
ARC
  5
DE35
  8
0
 10
4187.2774950392986284
 20
240.1310846873523985
 30
0.0
 40
0.0359154315365556
 50
149.6784733902680955
 51
188.6836147484966091
  0
LINE
  5
DE36
  8
0
 10
4187.2419913026387803
 20
240.1256622427341938
 30
0.0
 11
4187.2479903009643749
 21
240.0918653123821969
 31
0.0
  0
ARC
  5
DE37
  8
0
 10
4187.2988860705136176
 20
240.0978745447667961
 30
0.0
 40
0.0512492949402101
 50
135.0702273456834916
 51
186.7337029968875015
  0
ARC
  5
DE38
  8
0
 10
4187.316182451874738
 20
240.0764129452527129
 30
0.0
 40
0.0787080853961828
 50
40.0188362771090382
 51
132.9012516936076906
  0
ARC
  5
DE39
  8
0
 10
4187.3332085407237173
 20
240.0967040060309898
 30
0.0
 40
0.0528208965833013
 50
349.76450009839931
 51
35.0324742228671795
  0
ARC
  5
DE3A
  8
0
 10
4187.1028202869938468
 20
239.9601194018860895
 30
0.0
 40
0.0163075007463187
 50
142.4003049456366057
 51
227.5678532144139865
  0
ARC
  5
DE3B
  8
0
 10
4187.1099505336060247
 20
239.9677428804168926
 30
0.0
 40
0.0267453745575686
 50
227.3129593846898899
 51
322.4076685101533144
  0
ARC
  5
DE3C
  8
0
 10
4187.117859342389238
 20
239.9601762574064878
 30
0.0
 40
0.0159058808929741
 50
326.629246607397306
 51
26.22291215294781
  0
ARC
  5
DE3D
  8
0
 10
4187.1099548137599413
 20
239.9530225442865969
 30
0.0
 40
0.0263208626621462
 50
32.6027063427978305
 51
139.6352736375575887
  0
ARC
  5
DE3E
  8
0
 10
4187.103857704379152
 20
239.979874930784888
 30
0.0
 40
0.0638081396161144
 50
194.1296011496237952
 51
242.947617354010589
  0
ARC
  5
DE3F
  8
0
 10
4187.1105338450533964
 20
240.010643028695398
 30
0.0
 40
0.0945892540384408
 50
247.8283136368771977
 51
300.8081639484582865
  0
ARC
  5
DE40
  8
0
 10
4187.1353237127368629
 20
239.9670423319001884
 30
0.0
 40
0.044456821179572
 50
302.1474333812096233
 51
350.5603784255911819
  0
LINE
  5
DE41
  8
0
 10
4187.1791785432751567
 20
239.959751050265595
 30
0.0
 11
4187.1835576585481249
 21
239.97991456336959
 31
0.0
  0
ARC
  5
DE42
  8
0
 10
4187.1334764775483563
 20
239.9824303700310111
 30
0.0
 40
0.0501443314197459
 50
357.1241884974130016
 51
58.5163557363828204
  0
ARC
  5
DE43
  8
0
 10
4187.0958146840739573
 20
239.9347982000410866
 30
0.0
 40
0.1106707662852213
 50
54.7646885167634494
 51
93.8340058378026782
  0
ARC
  5
DE44
  8
0
 10
4187.0887376934033455
 20
239.9840439333752897
 30
0.0
 40
0.0611782005019706
 50
90.3026267952156303
 51
142.0704473524639013
  0
ARC
  5
DE45
  8
0
 10
4187.0714847529452527
 20
240.0035177146565957
 30
0.0
 40
0.0359154315365556
 50
149.6784733902680955
 51
188.6836147484966091
  0
LINE
  5
DE46
  8
0
 10
4187.0359810162854046
 20
239.9980952700383909
 30
0.0
 11
4187.0419800146109992
 21
239.9642983396865077
 31
0.0
  0
ARC
  5
DE47
  8
0
 10
4187.0928757841602419
 20
239.9703075720709933
 30
0.0
 40
0.0512492949402101
 50
135.0702273456834916
 51
186.7337029968875015
  0
ARC
  5
DE48
  8
0
 10
4187.1101721655213623
 20
239.9488459725569101
 30
0.0
 40
0.0787080853961828
 50
40.0188362771090382
 51
132.9012516936076906
  0
ARC
  5
DE49
  8
0
 10
4187.1271982543712511
 20
239.9691370333353007
 30
0.0
 40
0.0528208965833013
 50
349.76450009839931
 51
35.0324742228671795
  0
ARC
  5
DE4A
  8
0
 10
4186.7563864289541016
 20
240.0448622515035026
 30
0.0
 40
0.0163075007463187
 50
142.4003049456366057
 51
227.5678532144139865
  0
ARC
  5
DE4B
  8
0
 10
4186.76351667556537
 20
240.0524857300343058
 30
0.0
 40
0.0267453745575686
 50
227.3129593846898899
 51
322.4076685101533144
  0
ARC
  5
DE4C
  8
0
 10
4186.7714254843513118
 20
240.0449191070239863
 30
0.0
 40
0.0159058808929741
 50
326.629246607397306
 51
26.22291215294781
  0
ARC
  5
DE4D
  8
0
 10
4186.7635209557201961
 20
240.0377653939040954
 30
0.0
 40
0.0263208626621462
 50
32.6027063427978305
 51
139.6352736375575887
  0
ARC
  5
DE4E
  8
0
 10
4186.7574238463403162
 20
240.0646177804023012
 30
0.0
 40
0.0638081396161144
 50
194.1296011496237952
 51
242.947617354010589
  0
ARC
  5
DE4F
  8
0
 10
4186.7640999870118321
 20
240.0953858783128112
 30
0.0
 40
0.0945892540384408
 50
247.8283136368771977
 51
300.8081639484582865
  0
ARC
  5
DE50
  8
0
 10
4186.7888898546971177
 20
240.0517851815176016
 30
0.0
 40
0.044456821179572
 50
302.1474333812096233
 51
350.5603784255911819
  0
LINE
  5
DE51
  8
0
 10
4186.8327446852363209
 20
240.0444938998830082
 30
0.0
 11
4186.8371238005092891
 21
240.0646574129870885
 31
0.0
  0
ARC
  5
DE52
  8
0
 10
4186.7870426195086111
 20
240.0671732196485095
 30
0.0
 40
0.0501443314197459
 50
357.1241884974130016
 51
58.5163557363828204
  0
ARC
  5
DE53
  8
0
 10
4186.7493808260342121
 20
240.0195410496586135
 30
0.0
 40
0.1106707662852213
 50
54.7646885167634494
 51
93.8340058378026782
  0
ARC
  5
DE54
  8
0
 10
4186.7423038353617812
 20
240.0687867829927029
 30
0.0
 40
0.0611782005019706
 50
90.3026267952156303
 51
142.0704473524639013
  0
ARC
  5
DE55
  8
0
 10
4186.7250508949064169
 20
240.0882605642740941
 30
0.0
 40
0.0359154315365556
 50
149.6784733902680955
 51
188.6836147484966091
  0
LINE
  5
DE56
  8
0
 10
4186.6895471582456594
 20
240.0828381196558041
 30
0.0
 11
4186.695546156571254
 21
240.0490411893038925
 31
0.0
  0
ARC
  5
DE57
  8
0
 10
4186.7464419261195872
 20
240.0550504216884917
 30
0.0
 40
0.0512492949402101
 50
135.0702273456834916
 51
186.7337029968875015
  0
ARC
  5
DE58
  8
0
 10
4186.7637383074807076
 20
240.0335888221742948
 30
0.0
 40
0.0787080853961828
 50
40.0188362771090382
 51
132.9012516936076906
  0
ARC
  5
DE59
  8
0
 10
4186.7807643963296869
 20
240.0538798829527138
 30
0.0
 40
0.0528208965833013
 50
349.76450009839931
 51
35.0324742228671795
  0
ARC
  5
DE5A
  8
0
 10
4186.9321215875615962
 20
240.2562686264190006
 30
0.0
 40
0.0163075007463187
 50
142.4003049456366057
 51
227.5678532144139865
  0
ARC
  5
DE5B
  8
0
 10
4186.9392518341737741
 20
240.2638921049496901
 30
0.0
 40
0.0267453745575686
 50
227.3129593846898899
 51
322.4076685101533144
  0
ARC
  5
DE5C
  8
0
 10
4186.9471606429597159
 20
240.2563254819393137
 30
0.0
 40
0.0159058808929741
 50
326.629246607397306
 51
26.22291215294781
  0
ARC
  5
DE5D
  8
0
 10
4186.9392561143286002
 20
240.2491717688195081
 30
0.0
 40
0.0263208626621462
 50
32.6027063427978305
 51
139.6352736375575887
  0
ARC
  5
DE5E
  8
0
 10
4186.9331590049469014
 20
240.2760241553177138
 30
0.0
 40
0.0638081396161144
 50
194.1296011496237952
 51
242.947617354010589
  0
ARC
  5
DE5F
  8
0
 10
4186.9398351456211458
 20
240.3067922532281102
 30
0.0
 40
0.0945892540384408
 50
247.8283136368771977
 51
300.8081639484582865
  0
ARC
  5
DE60
  8
0
 10
4186.9646250133064314
 20
240.2631915564329859
 30
0.0
 40
0.044456821179572
 50
302.1474333812096233
 51
350.5603784255911819
  0
LINE
  5
DE61
  8
0
 10
4187.0084798438447251
 20
240.2559002747983925
 30
0.0
 11
4187.0128589591167838
 21
240.2760637879023875
 31
0.0
  0
ARC
  5
DE62
  8
0
 10
4186.9627777781179248
 20
240.2785795945638085
 30
0.0
 40
0.0501443314197459
 50
357.1241884974130016
 51
58.5163557363828204
  0
ARC
  5
DE63
  8
0
 10
4186.9251159846417067
 20
240.2309474245739125
 30
0.0
 40
0.1106707662852213
 50
54.7646885167634494
 51
93.8340058378026782
  0
ARC
  5
DE64
  8
0
 10
4186.9180389939710949
 20
240.2801931579080872
 30
0.0
 40
0.0611782005019706
 50
90.3026267952156303
 51
142.0704473524639013
  0
ARC
  5
DE65
  8
0
 10
4186.9007860535139116
 20
240.2996669391893931
 30
0.0
 40
0.0359154315365556
 50
149.6784733902680955
 51
188.6836147484966091
  0
LINE
  5
DE66
  8
0
 10
4186.8652823168540635
 20
240.2942444945711884
 30
0.0
 11
4186.8712813151796581
 21
240.2604475642191915
 31
0.0
  0
ARC
  5
DE67
  8
0
 10
4186.9221770847298103
 20
240.2664567966037907
 30
0.0
 40
0.0512492949402101
 50
135.0702273456834916
 51
186.7337029968875015
  0
ARC
  5
DE68
  8
0
 10
4186.9394734660900212
 20
240.2449951970897075
 30
0.0
 40
0.0787080853961828
 50
40.0188362771090382
 51
132.9012516936076906
  0
ARC
  5
DE69
  8
0
 10
4186.95649955493991
 20
240.2652862578680981
 30
0.0
 40
0.0528208965833013
 50
349.76450009839931
 51
35.0324742228671795
  0
ARC
  5
DE6A
  8
0
 10
4187.1763886122471376
 20
240.3488196715971981
 30
0.0
 40
0.0163075007463187
 50
142.4003049456366057
 51
227.5678532144139865
  0
ARC
  5
DE6B
  8
0
 10
4187.183518858858406
 20
240.3564431501280012
 30
0.0
 40
0.0267453745575686
 50
227.3129593846898899
 51
322.4076685101533144
  0
ARC
  5
DE6C
  8
0
 10
4187.1914276676443478
 20
240.3488765271175964
 30
0.0
 40
0.0159058808929741
 50
326.629246607397306
 51
26.22291215294781
  0
ARC
  5
DE6D
  8
0
 10
4187.1835231390141416
 20
240.3417228139977055
 30
0.0
 40
0.0263208626621462
 50
32.6027063427978305
 51
139.6352736375575887
  0
ARC
  5
DE6E
  8
0
 10
4187.1774260296333523
 20
240.3685752004959113
 30
0.0
 40
0.0638081396161144
 50
194.1296011496237952
 51
242.947617354010589
  0
ARC
  5
DE6F
  8
0
 10
4187.1841021703048682
 20
240.3993432984063929
 30
0.0
 40
0.0945892540384408
 50
247.8283136368771977
 51
300.8081639484582865
  0
ARC
  5
DE70
  8
0
 10
4187.2088920379910633
 20
240.355742601611297
 30
0.0
 40
0.044456821179572
 50
302.1474333812096233
 51
350.5603784255911819
  0
LINE
  5
DE71
  8
0
 10
4187.252746868529357
 20
240.3484513199767036
 30
0.0
 11
4187.2571259838023252
 21
240.3686148330806986
 31
0.0
  0
ARC
  5
DE72
  8
0
 10
4187.2070448028025567
 20
240.3711306397420913
 30
0.0
 40
0.0501443314197459
 50
357.1241884974130016
 51
58.5163557363828204
  0
ARC
  5
DE73
  8
0
 10
4187.1693830093272481
 20
240.3234984697521952
 30
0.0
 40
0.1106707662852213
 50
54.7646885167634494
 51
93.8340058378026782
  0
ARC
  5
DE74
  8
0
 10
4187.1623060186548173
 20
240.3727442030863983
 30
0.0
 40
0.0611782005019706
 50
90.3026267952156303
 51
142.0704473524639013
  0
ARC
  5
DE75
  8
0
 10
4187.145053078197634
 20
240.3922179843677043
 30
0.0
 40
0.0359154315365556
 50
149.6784733902680955
 51
188.6836147484966091
  0
LINE
  5
DE76
  8
0
 10
4187.1095493415377859
 20
240.3867955397494995
 30
0.0
 11
4187.1155483398651995
 21
240.3529986093975879
 31
0.0
  0
ARC
  5
DE77
  8
0
 10
4187.1664441094144422
 20
240.3590078417821019
 30
0.0
 40
0.0512492949402101
 50
135.0702273456834916
 51
186.7337029968875015
  0
ARC
  5
DE78
  8
0
 10
4187.1837404907755626
 20
240.3375462422679902
 30
0.0
 40
0.0787080853961828
 50
40.0188362771090382
 51
132.9012516936076906
  0
ARC
  5
DE79
  8
0
 10
4187.2007665796236324
 20
240.3578373030462956
 30
0.0
 40
0.0528208965833013
 50
349.76450009839931
 51
35.0324742228671795
  0
ARC
  5
DE7A
  8
0
 10
4186.6187333275838682
 20
240.4088236331299129
 30
0.0
 40
0.0163075007463187
 50
142.4003049456366057
 51
227.5678532144139865
  0
ARC
  5
DE7B
  8
0
 10
4186.6258635741960461
 20
240.4164471116606023
 30
0.0
 40
0.0267453745575686
 50
227.3129593846898899
 51
322.4076685101533144
  0
ARC
  5
DE7C
  8
0
 10
4186.6337723829819879
 20
240.4088804886501975
 30
0.0
 40
0.0159058808929741
 50
326.629246607397306
 51
26.22291215294781
  0
ARC
  5
DE7D
  8
0
 10
4186.6258678543517817
 20
240.4017267755303919
 30
0.0
 40
0.0263208626621462
 50
32.6027063427978305
 51
139.6352736375575887
  0
ARC
  5
DE7E
  8
0
 10
4186.6197707449709924
 20
240.4285791620285124
 30
0.0
 40
0.0638081396161144
 50
194.1296011496237952
 51
242.947617354010589
  0
ARC
  5
DE7F
  8
0
 10
4186.6264468856443273
 20
240.4593472599391077
 30
0.0
 40
0.0945892540384408
 50
247.8283136368771977
 51
300.8081639484582865
  0
ARC
  5
DE80
  8
0
 10
4186.6512367533287033
 20
240.4157465631438981
 30
0.0
 40
0.044456821179572
 50
302.1474333812096233
 51
350.5603784255911819
  0
LINE
  5
DE81
  8
0
 10
4186.6950915838660876
 20
240.40845528150939
 30
0.0
 11
4186.6994706991399653
 21
240.4286187946134135
 31
0.0
  0
ARC
  5
DE82
  8
0
 10
4186.6493895181401967
 20
240.4311346012746924
 30
0.0
 40
0.0501443314197459
 50
357.1241884974130016
 51
58.5163557363828204
  0
ARC
  5
DE83
  8
0
 10
4186.6117277246648882
 20
240.38350243128491
 30
0.0
 40
0.1106707662852213
 50
54.7646885167634494
 51
93.8340058378026782
  0
ARC
  5
DE84
  8
0
 10
4186.6046507339933669
 20
240.4327481646189995
 30
0.0
 40
0.0611782005019706
 50
90.3026267952156303
 51
142.0704473524639013
  0
ARC
  5
DE85
  8
0
 10
4186.5873977935370931
 20
240.4522219459003054
 30
0.0
 40
0.0359154315365556
 50
149.6784733902680955
 51
188.6836147484966091
  0
LINE
  5
DE86
  8
0
 10
4186.551894056877245
 20
240.4467995012821007
 30
0.0
 11
4186.5578930552019301
 21
240.413002570930189
 31
0.0
  0
ARC
  5
DE87
  8
0
 10
4186.6087888247511728
 20
240.419011803314703
 30
0.0
 40
0.0512492949402101
 50
135.0702273456834916
 51
186.7337029968875015
  0
ARC
  5
DE88
  8
0
 10
4186.6260852061132027
 20
240.3975502038005914
 30
0.0
 40
0.0787080853961828
 50
40.0188362771090382
 51
132.9012516936076906
  0
ARC
  5
DE89
  8
0
 10
4186.6431112949612725
 20
240.4178412645788967
 30
0.0
 40
0.0528208965833013
 50
349.76450009839931
 51
35.0324742228671795
  0
ARC
  5
DE8A
  8
0
 10
4186.8642633758900047
 20
240.577137997435301
 30
0.0
 40
0.0163075007463187
 50
142.4003049456366057
 51
227.5678532144139865
  0
ARC
  5
DE8B
  8
0
 10
4186.8713936225012731
 20
240.5847614759661042
 30
0.0
 40
0.0267453745575686
 50
227.3129593846898899
 51
322.4076685101533144
  0
ARC
  5
DE8C
  8
0
 10
4186.8793024312872149
 20
240.5771948529556141
 30
0.0
 40
0.0159058808929741
 50
326.629246607397306
 51
26.22291215294781
  0
ARC
  5
DE8D
  8
0
 10
4186.8713979026570087
 20
240.5700411398358085
 30
0.0
 40
0.0263208626621462
 50
32.6027063427978305
 51
139.6352736375575887
  0
ARC
  5
DE8E
  8
0
 10
4186.8653007932753098
 20
240.5968935263339858
 30
0.0
 40
0.0638081396161144
 50
194.1296011496237952
 51
242.947617354010589
  0
ARC
  5
DE8F
  8
0
 10
4186.8719769339477352
 20
240.6276616242444959
 30
0.0
 40
0.0945892540384408
 50
247.8283136368771977
 51
300.8081639484582865
  0
ARC
  5
DE90
  8
0
 10
4186.8967668016330208
 20
240.5840609274492863
 30
0.0
 40
0.044456821179572
 50
302.1474333812096233
 51
350.5603784255911819
  0
LINE
  5
DE91
  8
0
 10
4186.9406216321722241
 20
240.5767696458148066
 30
0.0
 11
4186.9450007474451922
 21
240.5969331589188016
 31
0.0
  0
ARC
  5
DE92
  8
0
 10
4186.8949195664454237
 20
240.5994489655801942
 30
0.0
 40
0.0501443314197459
 50
357.1241884974130016
 51
58.5163557363828204
  0
ARC
  5
DE93
  8
0
 10
4186.8572577729692057
 20
240.5518167955902982
 30
0.0
 40
0.1106707662852213
 50
54.7646885167634494
 51
93.8340058378026782
  0
ARC
  5
DE94
  8
0
 10
4186.8501807822985938
 20
240.6010625289245013
 30
0.0
 40
0.0611782005019706
 50
90.3026267952156303
 51
142.0704473524639013
  0
ARC
  5
DE95
  8
0
 10
4186.8329278418414106
 20
240.6205363102058072
 30
0.0
 40
0.0359154315365556
 50
149.6784733902680955
 51
188.6836147484966091
  0
LINE
  5
DE96
  8
0
 10
4186.7974241051815625
 20
240.6151138655876025
 30
0.0
 11
4186.8034231035080666
 21
240.5813169352356056
 31
0.0
  0
ARC
  5
DE97
  8
0
 10
4186.8543188730582187
 20
240.5873261676202048
 30
0.0
 40
0.0512492949402101
 50
135.0702273456834916
 51
186.7337029968875015
  0
ARC
  5
DE98
  8
0
 10
4186.8716152544184297
 20
240.5658645681060932
 30
0.0
 40
0.0787080853961828
 50
40.0188362771090382
 51
132.9012516936076906
  0
ARC
  5
DE99
  8
0
 10
4186.888641343267409
 20
240.5861556288843985
 30
0.0
 40
0.0528208965833013
 50
349.76450009839931
 51
35.0324742228671795
  0
ARC
  5
DE9A
  8
0
 10
4187.1287539777504207
 20
240.6305939208357074
 30
0.0
 40
0.0163075007463187
 50
142.4003049456366057
 51
227.5678532144139865
  0
ARC
  5
DE9B
  8
0
 10
4187.1358842243607796
 20
240.6382173993663969
 30
0.0
 40
0.0267453745575686
 50
227.3129593846898899
 51
322.4076685101533144
  0
ARC
  5
DE9C
  8
0
 10
4187.1437930331458119
 20
240.6306507763559921
 30
0.0
 40
0.0159058808929741
 50
326.629246607397306
 51
26.22291215294781
  0
ARC
  5
DE9D
  8
0
 10
4187.1358885045156057
 20
240.6234970632361865
 30
0.0
 40
0.0263208626621462
 50
32.6027063427978305
 51
139.6352736375575887
  0
ARC
  5
DE9E
  8
0
 10
4187.1297913951348164
 20
240.6503494497343922
 30
0.0
 40
0.0638081396161144
 50
194.1296011496237952
 51
242.947617354010589
  0
ARC
  5
DE9F
  8
0
 10
4187.1364675358090608
 20
240.6811175476449023
 30
0.0
 40
0.0945892540384408
 50
247.8283136368771977
 51
300.8081639484582865
  0
ARC
  5
DEA0
  8
0
 10
4187.1612574034943464
 20
240.6375168508496927
 30
0.0
 40
0.044456821179572
 50
302.1474333812096233
 51
350.5603784255911819
  0
LINE
  5
DEA1
  8
0
 10
4187.2051122340308211
 20
240.630225569215213
 30
0.0
 11
4187.2094913493056083
 21
240.650389082319208
 31
0.0
  0
ARC
  5
DEA2
  8
0
 10
4187.1594101683040208
 20
240.6529048889804869
 30
0.0
 40
0.0501443314197459
 50
357.1241884974130016
 51
58.5163557363828204
  0
ARC
  5
DEA3
  8
0
 10
4187.1217483748296218
 20
240.6052727189905909
 30
0.0
 40
0.1106707662852213
 50
54.7646885167634494
 51
93.8340058378026782
  0
ARC
  5
DEA4
  8
0
 10
4187.1146713841590099
 20
240.6545184523249077
 30
0.0
 40
0.0611782005019706
 50
90.3026267952156303
 51
142.0704473524639013
  0
ARC
  5
DEA5
  8
0
 10
4187.0974184437009171
 20
240.6739922336060999
 30
0.0
 40
0.0359154315365556
 50
149.6784733902680955
 51
188.6836147484966091
  0
LINE
  5
DEA6
  8
0
 10
4187.0619147070419785
 20
240.6685697889880089
 30
0.0
 11
4187.0679137053675731
 21
240.634772858636012
 31
0.0
  0
ARC
  5
DEA7
  8
0
 10
4187.1188094749168158
 20
240.6407820910204975
 30
0.0
 40
0.0512492949402101
 50
135.0702273456834916
 51
186.7337029968875015
  0
ARC
  5
DEA8
  8
0
 10
4187.1361058562779363
 20
240.6193204915063859
 30
0.0
 40
0.0787080853961828
 50
40.0188362771090382
 51
132.9012516936076906
  0
ARC
  5
DEA9
  8
0
 10
4187.153131945127825
 20
240.6396115522848049
 30
0.0
 40
0.0528208965833013
 50
349.76450009839931
 51
35.0324742228671795
  0
ARC
  5
DEAA
  8
0
 10
4186.5772457763987404
 20
240.7945786509691004
 30
0.0
 40
0.0163075007463187
 50
142.4003049456366057
 51
227.5678532144139865
  0
ARC
  5
DEAB
  8
0
 10
4186.5843760230090993
 20
240.8022021294997899
 30
0.0
 40
0.0267453745575686
 50
227.3129593846898899
 51
322.4076685101533144
  0
ARC
  5
DEAC
  8
0
 10
4186.5922848317950411
 20
240.7946355064894988
 30
0.0
 40
0.0159058808929741
 50
326.629246607397306
 51
26.22291215294781
  0
ARC
  5
DEAD
  8
0
 10
4186.5843803031648349
 20
240.7874817933696079
 30
0.0
 40
0.0263208626621462
 50
32.6027063427978305
 51
139.6352736375575887
  0
ARC
  5
DEAE
  8
0
 10
4186.5782831937840456
 20
240.8143341798678989
 30
0.0
 40
0.0638081396161144
 50
194.1296011496237952
 51
242.947617354010589
  0
ARC
  5
DEAF
  8
0
 10
4186.58495933445829
 20
240.8451022777782953
 30
0.0
 40
0.0945892540384408
 50
247.8283136368771977
 51
300.8081639484582865
  0
ARC
  5
DEB0
  8
0
 10
4186.6097492021417565
 20
240.8015015809831993
 30
0.0
 40
0.044456821179572
 50
302.1474333812096233
 51
350.5603784255911819
  0
LINE
  5
DEB1
  8
0
 10
4186.6536040326809598
 20
240.794210299348606
 30
0.0
 11
4186.657983147953928
 21
240.814373812452601
 31
0.0
  0
ARC
  5
DEB2
  8
0
 10
4186.6079019669532499
 20
240.8168896191139936
 30
0.0
 40
0.0501443314197459
 50
357.1241884974130016
 51
58.5163557363828204
  0
ARC
  5
DEB3
  8
0
 10
4186.5702401734788509
 20
240.7692574491240975
 30
0.0
 40
0.1106707662852213
 50
54.7646885167634494
 51
93.8340058378026782
  0
ARC
  5
DEB4
  8
0
 10
4186.5631631828073296
 20
240.8185031824583007
 30
0.0
 40
0.0611782005019706
 50
90.3026267952156303
 51
142.0704473524639013
  0
ARC
  5
DEB5
  8
0
 10
4186.5459102423510558
 20
240.8379769637396066
 30
0.0
 40
0.0359154315365556
 50
149.6784733902680955
 51
188.6836147484966091
  0
LINE
  5
DEB6
  8
0
 10
4186.5104065056912077
 20
240.8325545191214019
 30
0.0
 11
4186.5164055040168023
 21
240.7987575887694049
 31
0.0
  0
ARC
  5
DEB7
  8
0
 10
4186.567301273566045
 20
240.8047668211540042
 30
0.0
 40
0.0512492949402101
 50
135.0702273456834916
 51
186.7337029968875015
  0
ARC
  5
DEB8
  8
0
 10
4186.5845976549271654
 20
240.7833052216398926
 30
0.0
 40
0.0787080853961828
 50
40.0188362771090382
 51
132.9012516936076906
  0
ARC
  5
DEB9
  8
0
 10
4186.6016237437761447
 20
240.8035962824181979
 30
0.0
 40
0.0528208965833013
 50
349.76450009839931
 51
35.0324742228671795
  0
ARC
  5
DEBA
  8
0
 10
4186.8803465220007638
 20
240.9061576310249961
 30
0.0
 40
0.0163075007463187
 50
142.4003049456366057
 51
227.5678532144139865
  0
ARC
  5
DEBB
  8
0
 10
4186.8874767686129417
 20
240.9137811095557993
 30
0.0
 40
0.0267453745575686
 50
227.3129593846898899
 51
322.4076685101533144
  0
ARC
  5
DEBC
  8
0
 10
4186.8953855773988835
 20
240.9062144865453945
 30
0.0
 40
0.0159058808929741
 50
326.629246607397306
 51
26.22291215294781
  0
ARC
  5
DEBD
  8
0
 10
4186.8874810487686773
 20
240.8990607734255036
 30
0.0
 40
0.0263208626621462
 50
32.6027063427978305
 51
139.6352736375575887
  0
ARC
  5
DEBE
  8
0
 10
4186.8813839393869785
 20
240.9259131599237094
 30
0.0
 40
0.0638081396161144
 50
194.1296011496237952
 51
242.947617354010589
  0
ARC
  5
DEBF
  8
0
 10
4186.8880600800603133
 20
240.956681257834191
 30
0.0
 40
0.0945892540384408
 50
247.8283136368771977
 51
300.8081639484582865
  0
ARC
  5
DEC0
  8
0
 10
4186.9128499477446894
 20
240.9130805610390951
 30
0.0
 40
0.044456821179572
 50
302.1474333812096233
 51
350.5603784255911819
  0
LINE
  5
DEC1
  8
0
 10
4186.9567047782838927
 20
240.9057892794045017
 30
0.0
 11
4186.9610838935568609
 21
240.9259527925084967
 31
0.0
  0
ARC
  5
DEC2
  8
0
 10
4186.9110027125570923
 20
240.9284685991698893
 30
0.0
 40
0.0501443314197459
 50
357.1241884974130016
 51
58.5163557363828204
  0
ARC
  5
DEC3
  8
0
 10
4186.8733409190808743
 20
240.8808364291799933
 30
0.0
 40
0.1106707662852213
 50
54.7646885167634494
 51
93.8340058378026782
  0
ARC
  5
DEC4
  8
0
 10
4186.8662639284102625
 20
240.9300821625141964
 30
0.0
 40
0.0611782005019706
 50
90.3026267952156303
 51
142.0704473524639013
  0
ARC
  5
DEC5
  8
0
 10
4186.8490109879530792
 20
240.9495559437953887
 30
0.0
 40
0.0359154315365556
 50
149.6784733902680955
 51
188.6836147484966091
  0
LINE
  5
DEC6
  8
0
 10
4186.8135072512932311
 20
240.9441334991772976
 30
0.0
 11
4186.8195062496188257
 21
240.9103365688253007
 31
0.0
  0
ARC
  5
DEC7
  8
0
 10
4186.8704020191689779
 20
240.9163458012098999
 30
0.0
 40
0.0512492949402101
 50
135.0702273456834916
 51
186.7337029968875015
  0
ARC
  5
DEC8
  8
0
 10
4186.8876984005300983
 20
240.8948842016957883
 30
0.0
 40
0.0787080853961828
 50
40.0188362771090382
 51
132.9012516936076906
  0
ARC
  5
DEC9
  8
0
 10
4186.9047244893790776
 20
240.9151752624740936
 30
0.0
 40
0.0528208965833013
 50
349.76450009839931
 51
35.0324742228671795
  0
ARC
  5
DECA
  8
0
 10
4187.1759444044846532
 20
240.9102019310658136
 30
0.0
 40
0.0163075007463187
 50
142.4003049456366057
 51
227.5678532144139865
  0
ARC
  5
DECB
  8
0
 10
4187.1830746510959216
 20
240.9178254095965031
 30
0.0
 40
0.0267453745575686
 50
227.3129593846898899
 51
322.4076685101533144
  0
ARC
  5
DECC
  8
0
 10
4187.1909834598809539
 20
240.910258786586212
 30
0.0
 40
0.0159058808929741
 50
326.629246607397306
 51
26.22291215294781
  0
ARC
  5
DECD
  8
0
 10
4187.1830789312498382
 20
240.9031050734662927
 30
0.0
 40
0.0263208626621462
 50
32.6027063427978305
 51
139.6352736375575887
  0
ARC
  5
DECE
  8
0
 10
4187.1769818218699584
 20
240.9299574599644984
 30
0.0
 40
0.0638081396161144
 50
194.1296011496237952
 51
242.947617354010589
  0
ARC
  5
DECF
  8
0
 10
4187.1836579625432933
 20
240.9607255578750085
 30
0.0
 40
0.0945892540384408
 50
247.8283136368771977
 51
300.8081639484582865
  0
ARC
  5
DED0
  8
0
 10
4187.2084478302276693
 20
240.9171248610799125
 30
0.0
 40
0.044456821179572
 50
302.1474333812096233
 51
350.5603784255911819
  0
LINE
  5
DED1
  8
0
 10
4187.2523026607650536
 20
240.9098335794452908
 30
0.0
 11
4187.2566817760398408
 21
240.9299970925493142
 31
0.0
  0
ARC
  5
DED2
  8
0
 10
4187.2066005950391627
 20
240.9325128992107068
 30
0.0
 40
0.0501443314197459
 50
357.1241884974130016
 51
58.5163557363828204
  0
ARC
  5
DED3
  8
0
 10
4187.1689388015647637
 20
240.8848807292208107
 30
0.0
 40
0.1106707662852213
 50
54.7646885167634494
 51
93.8340058378026782
  0
ARC
  5
DED4
  8
0
 10
4187.1618618108932424
 20
240.9341264625549002
 30
0.0
 40
0.0611782005019706
 50
90.3026267952156303
 51
142.0704473524639013
  0
ARC
  5
DED5
  8
0
 10
4187.1446088704351496
 20
240.9536002438362061
 30
0.0
 40
0.0359154315365556
 50
149.6784733902680955
 51
188.6836147484966091
  0
LINE
  5
DED6
  8
0
 10
4187.109105133776211
 20
240.9481777992180014
 30
0.0
 11
4187.1151041321018056
 21
240.9143808688660897
 31
0.0
  0
ARC
  5
DED7
  8
0
 10
4187.1659999016501388
 20
240.920390101250689
 30
0.0
 40
0.0512492949402101
 50
135.0702273456834916
 51
186.7337029968875015
  0
ARC
  5
DED8
  8
0
 10
4187.1832962830121687
 20
240.8989285017366058
 30
0.0
 40
0.0787080853961828
 50
40.0188362771090382
 51
132.9012516936076906
  0
ARC
  5
DED9
  8
0
 10
4187.2003223718620575
 20
240.9192195625149111
 30
0.0
 40
0.0528208965833013
 50
349.76450009839931
 51
35.0324742228671795
  0
ARC
  5
DEDA
  8
0
 10
4186.6683571092844431
 20
241.1709709397094912
 30
0.0
 40
0.0163075007463187
 50
142.4003049456366057
 51
227.5678532144139865
  0
ARC
  5
DEDB
  8
0
 10
4186.6754873558957115
 20
241.1785944182402091
 30
0.0
 40
0.0267453745575686
 50
227.3129593846898899
 51
322.4076685101533144
  0
ARC
  5
DEDC
  8
0
 10
4186.6833961646807438
 20
241.1710277952298895
 30
0.0
 40
0.0159058808929741
 50
326.629246607397306
 51
26.22291215294781
  0
ARC
  5
DEDD
  8
0
 10
4186.6754916360514471
 20
241.1638740821099987
 30
0.0
 40
0.0263208626621462
 50
32.6027063427978305
 51
139.6352736375575887
  0
ARC
  5
DEDE
  8
0
 10
4186.6693945266697483
 20
241.1907264686082897
 30
0.0
 40
0.0638081396161144
 50
194.1296011496237952
 51
242.947617354010589
  0
ARC
  5
DEDF
  8
0
 10
4186.6760706673430832
 20
241.2214945665187997
 30
0.0
 40
0.0945892540384408
 50
247.8283136368771977
 51
300.8081639484582865
  0
ARC
  5
DEE0
  8
0
 10
4186.7008605350292783
 20
241.1778938697235901
 30
0.0
 40
0.044456821179572
 50
302.1474333812096233
 51
350.5603784255911819
  0
LINE
  5
DEE1
  8
0
 10
4186.744715365565753
 20
241.1706025880889968
 30
0.0
 11
4186.7490944808387212
 21
241.1907661011929918
 31
0.0
  0
ARC
  5
DEE2
  8
0
 10
4186.6990132998398622
 20
241.1932819078544128
 30
0.0
 40
0.0501443314197459
 50
357.1241884974130016
 51
58.5163557363828204
  0
ARC
  5
DEE3
  8
0
 10
4186.6613515063645536
 20
241.1456497378644883
 30
0.0
 40
0.1106707662852213
 50
54.7646885167634494
 51
93.8340058378026782
  0
ARC
  5
DEE4
  8
0
 10
4186.6542745156930323
 20
241.1948954711986914
 30
0.0
 40
0.0611782005019706
 50
90.3026267952156303
 51
142.0704473524639013
  0
ARC
  5
DEE5
  8
0
 10
4186.6370215752349395
 20
241.2143692524799974
 30
0.0
 40
0.0359154315365556
 50
149.6784733902680955
 51
188.6836147484966091
  0
LINE
  5
DEE6
  8
0
 10
4186.6015178385760009
 20
241.2089468078617926
 30
0.0
 11
4186.6075168369034145
 21
241.1751498775099094
 31
0.0
  0
ARC
  5
DEE7
  8
0
 10
4186.6584126064508382
 20
241.181159109894395
 30
0.0
 40
0.0512492949402101
 50
135.0702273456834916
 51
186.7337029968875015
  0
ARC
  5
DEE8
  8
0
 10
4186.6757089878119587
 20
241.1596975103803118
 30
0.0
 40
0.0787080853961828
 50
40.0188362771090382
 51
132.9012516936076906
  0
ARC
  5
DEE9
  8
0
 10
4186.6927350766609379
 20
241.1799885711585887
 30
0.0
 40
0.0528208965833013
 50
349.76450009839931
 51
35.0324742228671795
  0
ARC
  5
DEEA
  8
0
 10
4187.0119498172080057
 20
241.2165156750810127
 30
0.0
 40
0.0163075007463187
 50
142.4003049456366057
 51
227.5678532144139865
  0
ARC
  5
DEEB
  8
0
 10
4187.0190800638201836
 20
241.2241391536117874
 30
0.0
 40
0.0267453745575686
 50
227.3129593846898899
 51
322.4076685101533144
  0
ARC
  5
DEEC
  8
0
 10
4187.0269888726061254
 20
241.216572530601411
 30
0.0
 40
0.0159058808929741
 50
326.629246607397306
 51
26.22291215294781
  0
ARC
  5
DEED
  8
0
 10
4187.0190843439750097
 20
241.2094188174814917
 30
0.0
 40
0.0263208626621462
 50
32.6027063427978305
 51
139.6352736375575887
  0
ARC
  5
DEEE
  8
0
 10
4187.0129872345942204
 20
241.2362712039798112
 30
0.0
 40
0.0638081396161144
 50
194.1296011496237952
 51
242.947617354010589
  0
ARC
  5
DEEF
  8
0
 10
4187.0196633752666457
 20
241.2670393018902928
 30
0.0
 40
0.0945892540384408
 50
247.8283136368771977
 51
300.8081639484582865
  0
ARC
  5
DEF0
  8
0
 10
4187.0444532429528408
 20
241.2234386050951116
 30
0.0
 40
0.044456821179572
 50
302.1474333812096233
 51
350.5603784255911819
  0
LINE
  5
DEF1
  8
0
 10
4187.0883080734911346
 20
241.2161473234604898
 30
0.0
 11
4187.0926871887641028
 21
241.2363108365645132
 31
0.0
  0
ARC
  5
DEF2
  8
0
 10
4187.0426060077634247
 20
241.2388266432259059
 30
0.0
 40
0.0501443314197459
 50
357.1241884974130016
 51
58.5163557363828204
  0
ARC
  5
DEF3
  8
0
 10
4187.0049442142890257
 20
241.1911944732360098
 30
0.0
 40
0.1106707662852213
 50
54.7646885167634494
 51
93.8340058378026782
  0
ARC
  5
DEF4
  8
0
 10
4186.9978672236184138
 20
241.2404402065702129
 30
0.0
 40
0.0611782005019706
 50
90.3026267952156303
 51
142.0704473524639013
  0
ARC
  5
DEF5
  8
0
 10
4186.9806142831603211
 20
241.2599139878514904
 30
0.0
 40
0.0359154315365556
 50
149.6784733902680955
 51
188.6836147484966091
  0
LINE
  5
DEF6
  8
0
 10
4186.9451105464995635
 20
241.2544915432333141
 30
0.0
 11
4186.9511095448269771
 21
241.2206946128812888
 31
0.0
  0
ARC
  5
DEF7
  8
0
 10
4187.0020053143762198
 20
241.226703845265888
 30
0.0
 40
0.0512492949402101
 50
135.0702273456834916
 51
186.7337029968875015
  0
ARC
  5
DEF8
  8
0
 10
4187.0193016957373402
 20
241.2052422457518048
 30
0.0
 40
0.0787080853961828
 50
40.0188362771090382
 51
132.9012516936076906
  0
ARC
  5
DEF9
  8
0
 10
4187.0363277845863195
 20
241.2255333065301954
 30
0.0
 40
0.0528208965833013
 50
349.76450009839931
 51
35.0324742228671795
  0
ARC
  5
DEFA
  8
0
 10
4187.3115732834121445
 20
241.171242476888807
 30
0.0
 40
0.0163075007463187
 50
142.4003049456366057
 51
227.5678532144139865
  0
ARC
  5
DEFB
  8
0
 10
4187.3187035300234129
 20
241.1788659554194965
 30
0.0
 40
0.0267453745575686
 50
227.3129593846898899
 51
322.4076685101533144
  0
ARC
  5
DEFC
  8
0
 10
4187.3266123388102642
 20
241.1712993324090917
 30
0.0
 40
0.0159058808929741
 50
326.629246607397306
 51
26.22291215294781
  0
ARC
  5
DEFD
  8
0
 10
4187.318707810180058
 20
241.1641456192892861
 30
0.0
 40
0.0263208626621462
 50
32.6027063427978305
 51
139.6352736375575887
  0
ARC
  5
DEFE
  8
0
 10
4187.3126107007983592
 20
241.1909980057874918
 30
0.0
 40
0.0638081396161144
 50
194.1296011496237952
 51
242.947617354010589
  0
ARC
  5
DEFF
  8
0
 10
4187.3192868414707846
 20
241.2217661036980019
 30
0.0
 40
0.0945892540384408
 50
247.8283136368771977
 51
300.8081639484582865
  0
ARC
  5
DF00
  8
0
 10
4187.3440767091569796
 20
241.1781654069029059
 30
0.0
 40
0.044456821179572
 50
302.1474333812096233
 51
350.5603784255911819
  0
LINE
  5
DF01
  8
0
 10
4187.3879315396952734
 20
241.1708741252683126
 30
0.0
 11
4187.3923106549682416
 21
241.1910376383723076
 31
0.0
  0
ARC
  5
DF02
  8
0
 10
4187.3422294739675635
 20
241.1935534450337002
 30
0.0
 40
0.0501443314197459
 50
357.1241884974130016
 51
58.5163557363828204
  0
ARC
  5
DF03
  8
0
 10
4187.3045676804931645
 20
241.1459212750436905
 30
0.0
 40
0.1106707662852213
 50
54.7646885167634494
 51
93.8340058378026782
  0
ARC
  5
DF04
  8
0
 10
4187.2974906898207337
 20
241.1951670083780073
 30
0.0
 40
0.0611782005019706
 50
90.3026267952156303
 51
142.0704473524639013
  0
ARC
  5
DF05
  8
0
 10
4187.2802377493653694
 20
241.2146407896591995
 30
0.0
 40
0.0359154315365556
 50
149.6784733902680955
 51
188.6836147484966091
  0
LINE
  5
DF06
  8
0
 10
4187.2447340127037023
 20
241.2092183450411085
 30
0.0
 11
4187.2507330110311159
 21
241.1754214146891115
 31
0.0
  0
ARC
  5
DF07
  8
0
 10
4187.3016287805803586
 20
241.1814306470735971
 30
0.0
 40
0.0512492949402101
 50
135.0702273456834916
 51
186.7337029968875015
  0
ARC
  5
DF08
  8
0
 10
4187.3189251619423885
 20
241.1599690475595992
 30
0.0
 40
0.0787080853961828
 50
40.0188362771090382
 51
132.9012516936076906
  0
ARC
  5
DF09
  8
0
 10
4187.3359512507895488
 20
241.1802601083379045
 30
0.0
 40
0.0528208965833013
 50
349.76450009839931
 51
35.0324742228671795
  0
ARC
  5
DF0A
  8
0
 10
4187.2231557185341444
 20
241.4946766192942107
 30
0.0
 40
0.0163075007463187
 50
142.4003049456366057
 51
227.5678532144139865
  0
ARC
  5
DF0B
  8
0
 10
4187.2302859651454128
 20
241.5023000978250138
 30
0.0
 40
0.0267453745575686
 50
227.3129593846898899
 51
322.4076685101533144
  0
ARC
  5
DF0C
  8
0
 10
4187.2381947739313546
 20
241.4947334748146091
 30
0.0
 40
0.0159058808929741
 50
326.629246607397306
 51
26.22291215294781
  0
ARC
  5
DF0D
  8
0
 10
4187.2302902453002389
 20
241.4875797616946898
 30
0.0
 40
0.0263208626621462
 50
32.6027063427978305
 51
139.6352736375575887
  0
ARC
  5
DF0E
  8
0
 10
4187.2241931359203591
 20
241.5144321481930092
 30
0.0
 40
0.0638081396161144
 50
194.1296011496237952
 51
242.947617354010589
  0
ARC
  5
DF0F
  8
0
 10
4187.230869276591875
 20
241.5452002461034056
 30
0.0
 40
0.0945892540384408
 50
247.8283136368771977
 51
300.8081639484582865
  0
ARC
  5
DF10
  8
0
 10
4187.25565914427807
 20
241.5015995493083096
 30
0.0
 40
0.044456821179572
 50
302.1474333812096233
 51
350.5603784255911819
  0
LINE
  5
DF11
  8
0
 10
4187.2995139748154543
 20
241.4943082676736879
 30
0.0
 11
4187.303893090089332
 21
241.5144717807777113
 31
0.0
  0
ARC
  5
DF12
  8
0
 10
4187.2538119090886539
 20
241.5169875874391039
 30
0.0
 40
0.0501443314197459
 50
357.1241884974130016
 51
58.5163557363828204
  0
ARC
  5
DF13
  8
0
 10
4187.2161501156142549
 20
241.4693554174492078
 30
0.0
 40
0.1106707662852213
 50
54.7646885167634494
 51
93.8340058378026782
  0
ARC
  5
DF14
  8
0
 10
4187.2090731249418241
 20
241.518601150783411
 30
0.0
 40
0.0611782005019706
 50
90.3026267952156303
 51
142.0704473524639013
  0
ARC
  5
DF15
  8
0
 10
4187.1918201844846408
 20
241.5380749320646885
 30
0.0
 40
0.0359154315365556
 50
149.6784733902680955
 51
188.6836147484966091
  0
LINE
  5
DF16
  8
0
 10
4187.1563164478257022
 20
241.5326524874465122
 30
0.0
 11
4187.1623154461512968
 21
241.4988555570944868
 31
0.0
  0
ARC
  5
DF17
  8
0
 10
4187.21321121569963
 20
241.5048647894790861
 30
0.0
 40
0.0512492949402101
 50
135.0702273456834916
 51
186.7337029968875015
  0
ARC
  5
DF18
  8
0
 10
4187.2305075970607504
 20
241.4834031899650029
 30
0.0
 40
0.0787080853961828
 50
40.0188362771090382
 51
132.9012516936076906
  0
ARC
  5
DF19
  8
0
 10
4187.2475336859106392
 20
241.5036942507433935
 30
0.0
 40
0.0528208965833013
 50
349.76450009839931
 51
35.0324742228671795
  0
ARC
  5
DF1A
  8
0
 10
4186.8747574313820223
 20
241.5173689378553945
 30
0.0
 40
0.0163075007463187
 50
142.4003049456366057
 51
227.5678532144139865
  0
ARC
  5
DF1B
  8
0
 10
4186.8818876779932907
 20
241.5249924163861124
 30
0.0
 40
0.0267453745575686
 50
227.3129593846898899
 51
322.4076685101533144
  0
ARC
  5
DF1C
  8
0
 10
4186.8897964867792325
 20
241.5174257933757929
 30
0.0
 40
0.0159058808929741
 50
326.629246607397306
 51
26.22291215294781
  0
ARC
  5
DF1D
  8
0
 10
4186.8818919581490263
 20
241.510272080255902
 30
0.0
 40
0.0263208626621462
 50
32.6027063427978305
 51
139.6352736375575887
  0
ARC
  5
DF1E
  8
0
 10
4186.875794848768237
 20
241.5371244667541077
 30
0.0
 40
0.0638081396161144
 50
194.1296011496237952
 51
242.947617354010589
  0
ARC
  5
DF1F
  8
0
 10
4186.8824709894406624
 20
241.5678925646645894
 30
0.0
 40
0.0945892540384408
 50
247.8283136368771977
 51
300.8081639484582865
  0
ARC
  5
DF20
  8
0
 10
4186.9072608571250385
 20
241.5242918678694934
 30
0.0
 40
0.044456821179572
 50
302.1474333812096233
 51
350.5603784255911819
  0
LINE
  5
DF21
  8
0
 10
4186.9511156876642417
 20
241.5170005862349001
 30
0.0
 11
4186.9554948029372099
 21
241.5371640993388951
 31
0.0
  0
ARC
  5
DF22
  8
0
 10
4186.9054136219374413
 20
241.5396799060002024
 30
0.0
 40
0.0501443314197459
 50
357.1241884974130016
 51
58.5163557363828204
  0
ARC
  5
DF23
  8
0
 10
4186.8677518284621328
 20
241.4920477360103916
 30
0.0
 40
0.1106707662852213
 50
54.7646885167634494
 51
93.8340058378026782
  0
ARC
  5
DF24
  8
0
 10
4186.8606748377906115
 20
241.5412934693445948
 30
0.0
 40
0.0611782005019706
 50
90.3026267952156303
 51
142.0704473524639013
  0
ARC
  5
DF25
  8
0
 10
4186.8434218973343377
 20
241.560767250625787
 30
0.0
 40
0.0359154315365556
 50
149.6784733902680955
 51
188.6836147484966091
  0
LINE
  5
DF26
  8
0
 10
4186.8079181606726706
 20
241.555344806007696
 30
0.0
 11
4186.8139171590000842
 21
241.521547875655699
 31
0.0
  0
ARC
  5
DF27
  8
0
 10
4186.8648129285502364
 20
241.5275571080402131
 30
0.0
 40
0.0512492949402101
 50
135.0702273456834916
 51
186.7337029968875015
  0
ARC
  5
DF28
  8
0
 10
4186.8821093099113568
 20
241.5060955085261014
 30
0.0
 40
0.0787080853961828
 50
40.0188362771090382
 51
132.9012516936076906
  0
ARC
  5
DF29
  8
0
 10
4186.8991353987603361
 20
241.526386569304492
 30
0.0
 40
0.0528208965833013
 50
349.76450009839931
 51
35.0324742228671795
  0
ARC
  5
DF2A
  8
0
 10
4187.1745024766250935
 20
241.8138486011804105
 30
0.0
 40
0.0163075007463187
 50
142.4003049456366057
 51
227.5678532144139865
  0
ARC
  5
DF2B
  8
0
 10
4187.1816327232372714
 20
241.8214720797110999
 30
0.0
 40
0.0267453745575686
 50
227.3129593846898899
 51
322.4076685101533144
  0
ARC
  5
DF2C
  8
0
 10
4187.1895415320223037
 20
241.8139054567006951
 30
0.0
 40
0.0159058808929741
 50
326.629246607397306
 51
26.22291215294781
  0
ARC
  5
DF2D
  8
0
 10
4187.1816370033920975
 20
241.8067517435808895
 30
0.0
 40
0.0263208626621462
 50
32.6027063427978305
 51
139.6352736375575887
  0
ARC
  5
DF2E
  8
0
 10
4187.1755398940122177
 20
241.8336041300790953
 30
0.0
 40
0.0638081396161144
 50
194.1296011496237952
 51
242.947617354010589
  0
ARC
  5
DF2F
  8
0
 10
4187.1822160346837336
 20
241.8643722279896053
 30
0.0
 40
0.0945892540384408
 50
247.8283136368771977
 51
300.8081639484582865
  0
ARC
  5
DF30
  8
0
 10
4187.2070059023690192
 20
241.8207715311945094
 30
0.0
 40
0.044456821179572
 50
302.1474333812096233
 51
350.5603784255911819
  0
LINE
  5
DF31
  8
0
 10
4187.2508607329073129
 20
241.8134802495598876
 30
0.0
 11
4187.2552398481793716
 21
241.833643762663911
 31
0.0
  0
ARC
  5
DF32
  8
0
 10
4187.2051586671814221
 20
241.8361595693253037
 30
0.0
 40
0.0501443314197459
 50
357.1241884974130016
 51
58.5163557363828204
  0
ARC
  5
DF33
  8
0
 10
4187.1674968737061135
 20
241.7885273993352939
 30
0.0
 40
0.1106707662852213
 50
54.7646885167634494
 51
93.8340058378026782
  0
ARC
  5
DF34
  8
0
 10
4187.1604198830336827
 20
241.8377731326696107
 30
0.0
 40
0.0611782005019706
 50
90.3026267952156303
 51
142.0704473524639013
  0
ARC
  5
DF35
  8
0
 10
4187.1431669425774089
 20
241.857246913950803
 30
0.0
 40
0.0359154315365556
 50
149.6784733902680955
 51
188.6836147484966091
  0
LINE
  5
DF36
  8
0
 10
4187.1076632059166513
 20
241.8518244693327119
 30
0.0
 11
4187.1136622042431554
 21
241.8180275389806866
 31
0.0
  0
ARC
  5
DF37
  8
0
 10
4187.1645579737923981
 20
241.8240367713652859
 30
0.0
 40
0.0512492949402101
 50
135.0702273456834916
 51
186.7337029968875015
  0
ARC
  5
DF38
  8
0
 10
4187.1818543551526091
 20
241.802575171851089
 30
0.0
 40
0.0787080853961828
 50
40.0188362771090382
 51
132.9012516936076906
  0
ARC
  5
DF39
  8
0
 10
4187.1988804440034073
 20
241.822866232629508
 30
0.0
 40
0.0528208965833013
 50
349.76450009839931
 51
35.0324742228671795
  0
ARC
  5
DF3A
  8
0
 10
4187.5189216480230243
 20
241.7189658921095088
 30
0.0
 40
0.0163075007463187
 50
142.4003049456366057
 51
227.5678532144139865
  0
ARC
  5
DF3B
  8
0
 10
4187.5260518946352022
 20
241.7265893706403119
 30
0.0
 40
0.0267453745575686
 50
227.3129593846898899
 51
322.4076685101533144
  0
ARC
  5
DF3C
  8
0
 10
4187.533960703421144
 20
241.7190227476299071
 30
0.0
 40
0.0159058808929741
 50
326.629246607397306
 51
26.22291215294781
  0
ARC
  5
DF3D
  8
0
 10
4187.5260561747909378
 20
241.7118690345099878
 30
0.0
 40
0.0263208626621462
 50
32.6027063427978305
 51
139.6352736375575887
  0
ARC
  5
DF3E
  8
0
 10
4187.519959065411058
 20
241.7387214210081936
 30
0.0
 40
0.0638081396161144
 50
194.1296011496237952
 51
242.947617354010589
  0
ARC
  5
DF3F
  8
0
 10
4187.5266352060825739
 20
241.7694895189187037
 30
0.0
 40
0.0945892540384408
 50
247.8283136368771977
 51
300.8081639484582865
  0
ARC
  5
DF40
  8
0
 10
4187.5514250737678594
 20
241.7258888221236077
 30
0.0
 40
0.044456821179572
 50
302.1474333812096233
 51
350.5603784255911819
  0
LINE
  5
DF41
  8
0
 10
4187.5952799043061532
 20
241.7185975404889859
 30
0.0
 11
4187.5996590195782119
 21
241.7387610535930094
 31
0.0
  0
ARC
  5
DF42
  8
0
 10
4187.5495778385802623
 20
241.741276860254402
 30
0.0
 40
0.0501443314197459
 50
357.1241884974130016
 51
58.5163557363828204
  0
ARC
  5
DF43
  8
0
 10
4187.5119160451049538
 20
241.6936446902645059
 30
0.0
 40
0.1106707662852213
 50
54.7646885167634494
 51
93.8340058378026782
  0
ARC
  5
DF44
  8
0
 10
4187.5048390544334325
 20
241.742890423598709
 30
0.0
 40
0.0611782005019706
 50
90.3026267952156303
 51
142.0704473524639013
  0
ARC
  5
DF45
  8
0
 10
4187.4875861139762492
 20
241.7623642048799866
 30
0.0
 40
0.0359154315365556
 50
149.6784733902680955
 51
188.6836147484966091
  0
LINE
  5
DF46
  8
0
 10
4187.4520823773164011
 20
241.7569417602618103
 30
0.0
 11
4187.4580813756419957
 21
241.7231448299098133
 31
0.0
  0
ARC
  5
DF47
  8
0
 10
4187.5089771451912384
 20
241.7291540622944126
 30
0.0
 40
0.0512492949402101
 50
135.0702273456834916
 51
186.7337029968875015
  0
ARC
  5
DF48
  8
0
 10
4187.5262735265523588
 20
241.707692462780301
 30
0.0
 40
0.0787080853961828
 50
40.0188362771090382
 51
132.9012516936076906
  0
ARC
  5
DF49
  8
0
 10
4187.5432996154013381
 20
241.7279835235586063
 30
0.0
 40
0.0528208965833013
 50
349.76450009839931
 51
35.0324742228671795
  0
ARC
  5
DF4A
  8
0
 10
4187.5555643791203693
 20
242.0404136364277861
 30
0.0
 40
0.0163075007463187
 50
142.4003049456366057
 51
227.5678532144139865
  0
ARC
  5
DF4B
  8
0
 10
4187.5626946257298187
 20
242.0480371149585892
 30
0.0
 40
0.0267453745575686
 50
227.3129593846898899
 51
322.4076685101533144
  0
ARC
  5
DF4C
  8
0
 10
4187.5706034345157605
 20
242.0404704919482128
 30
0.0
 40
0.0159058808929741
 50
326.629246607397306
 51
26.22291215294781
  0
ARC
  5
DF4D
  8
0
 10
4187.5626989058855543
 20
242.0333167788284072
 30
0.0
 40
0.0263208626621462
 50
32.6027063427978305
 51
139.6352736375575887
  0
ARC
  5
DF4E
  8
0
 10
4187.5566017965047649
 20
242.060169165326613
 30
0.0
 40
0.0638081396161144
 50
194.1296011496237952
 51
242.947617354010589
  0
ARC
  5
DF4F
  8
0
 10
4187.5632779371780998
 20
242.0909372632370946
 30
0.0
 40
0.0945892540384408
 50
247.8283136368771977
 51
300.8081639484582865
  0
ARC
  5
DF50
  8
0
 10
4187.5880678048633854
 20
242.0473365664419134
 30
0.0
 40
0.044456821179572
 50
302.1474333812096233
 51
350.5603784255911819
  0
LINE
  5
DF51
  8
0
 10
4187.6319226354016791
 20
242.0400452848072916
 30
0.0
 11
4187.6363017506737378
 21
242.0602087979112866
 31
0.0
  0
ARC
  5
DF52
  8
0
 10
4187.5862205696739693
 20
242.0627246045727077
 30
0.0
 40
0.0501443314197459
 50
357.1241884974130016
 51
58.5163557363828204
  0
ARC
  5
DF53
  8
0
 10
4187.5485587761986608
 20
242.0150924345828116
 30
0.0
 40
0.1106707662852213
 50
54.7646885167634494
 51
93.8340058378026782
  0
ARC
  5
DF54
  8
0
 10
4187.5414817855280489
 20
242.0643381679169863
 30
0.0
 40
0.0611782005019706
 50
90.3026267952156303
 51
142.0704473524639013
  0
ARC
  5
DF55
  8
0
 10
4187.5242288450717751
 20
242.0838119491982923
 30
0.0
 40
0.0359154315365556
 50
149.6784733902680955
 51
188.6836147484966091
  0
LINE
  5
DF56
  8
0
 10
4187.4887251084110176
 20
242.0783895045800875
 30
0.0
 11
4187.4947241067366122
 21
242.0445925742282043
 31
0.0
  0
ARC
  5
DF57
  8
0
 10
4187.5456198762867643
 20
242.0506018066126899
 30
0.0
 40
0.0512492949402101
 50
135.0702273456834916
 51
186.7337029968875015
  0
ARC
  5
DF58
  8
0
 10
4187.5629162576478848
 20
242.0291402070986067
 30
0.0
 40
0.0787080853961828
 50
40.0188362771090382
 51
132.9012516936076906
  0
ARC
  5
DF59
  8
0
 10
4187.579942346496864
 20
242.0494312678769973
 30
0.0
 40
0.0528208965833013
 50
349.76450009839931
 51
35.0324742228671795
  0
ARC
  5
DF5A
  8
0
 10
4187.8716686202924393
 20
241.8776733684566125
 30
0.0
 40
0.0163075007463187
 50
142.4003049456366057
 51
227.5678532144139865
  0
ARC
  5
DF5B
  8
0
 10
4187.8787988669027982
 20
241.8852968469873019
 30
0.0
 40
0.0267453745575686
 50
227.3129593846898899
 51
322.4076685101533144
  0
ARC
  5
DF5C
  8
0
 10
4187.8867076756896495
 20
241.8777302239768972
 30
0.0
 40
0.0159058808929741
 50
326.629246607397306
 51
26.22291215294781
  0
ARC
  5
DF5D
  8
0
 10
4187.8788031470576243
 20
241.8705765108570915
 30
0.0
 40
0.0263208626621462
 50
32.6027063427978305
 51
139.6352736375575887
  0
ARC
  5
DF5E
  8
0
 10
4187.872706037676835
 20
241.8974288973552973
 30
0.0
 40
0.0638081396161144
 50
194.1296011496237952
 51
242.947617354010589
  0
ARC
  5
DF5F
  8
0
 10
4187.8793821783501699
 20
241.9281969952658073
 30
0.0
 40
0.0945892540384408
 50
247.8283136368771977
 51
300.8081639484582865
  0
ARC
  5
DF60
  8
0
 10
4187.9041720460363649
 20
241.8845962984705977
 30
0.0
 40
0.044456821179572
 50
302.1474333812096233
 51
350.5603784255911819
  0
LINE
  5
DF61
  8
0
 10
4187.9480268765737492
 20
241.8773050168360896
 30
0.0
 11
4187.9524059918467174
 21
241.8974685299401131
 31
0.0
  0
ARC
  5
DF62
  8
0
 10
4187.9023248108460393
 20
241.8999843366015057
 30
0.0
 40
0.0501443314197459
 50
357.1241884974130016
 51
58.5163557363828204
  0
ARC
  5
DF63
  8
0
 10
4187.8646630173716403
 20
241.8523521666116096
 30
0.0
 40
0.1106707662852213
 50
54.7646885167634494
 51
93.8340058378026782
  0
ARC
  5
DF64
  8
0
 10
4187.8575860267010285
 20
241.9015978999456991
 30
0.0
 40
0.0611782005019706
 50
90.3026267952156303
 51
142.0704473524639013
  0
ARC
  5
DF65
  8
0
 10
4187.8403330862438452
 20
241.921071681227005
 30
0.0
 40
0.0359154315365556
 50
149.6784733902680955
 51
188.6836147484966091
  0
LINE
  5
DF66
  8
0
 10
4187.8048293495839971
 20
241.9156492366088003
 30
0.0
 11
4187.8108283479086822
 21
241.8818523062568886
 31
0.0
  0
ARC
  5
DF67
  8
0
 10
4187.8617241174588344
 20
241.8878615386414879
 30
0.0
 40
0.0512492949402101
 50
135.0702273456834916
 51
186.7337029968875015
  0
ARC
  5
DF68
  8
0
 10
4187.8790204988199548
 20
241.8663999391274047
 30
0.0
 40
0.0787080853961828
 50
40.0188362771090382
 51
132.9012516936076906
  0
ARC
  5
DF69
  8
0
 10
4187.8960465876698436
 20
241.88669099990571
 30
0.0
 40
0.0528208965833013
 50
349.76450009839931
 51
35.0324742228671795
  0
ARC
  5
DF6A
  8
0
 10
4187.7982239230177584
 20
241.5695376135755055
 30
0.0
 40
0.0163075007463187
 50
142.4003049456366057
 51
227.5678532144139865
  0
ARC
  5
DF6B
  8
0
 10
4187.8053541696299362
 20
241.5771610921063086
 30
0.0
 40
0.0267453745575686
 50
227.3129593846898899
 51
322.4076685101533144
  0
ARC
  5
DF6C
  8
0
 10
4187.813262978415878
 20
241.5695944690959038
 30
0.0
 40
0.0159058808929741
 50
326.629246607397306
 51
26.22291215294781
  0
ARC
  5
DF6D
  8
0
 10
4187.8053584497847623
 20
241.5624407559760982
 30
0.0
 40
0.0263208626621462
 50
32.6027063427978305
 51
139.6352736375575887
  0
ARC
  5
DF6E
  8
0
 10
4187.799261340403973
 20
241.589293142474304
 30
0.0
 40
0.0638081396161144
 50
194.1296011496237952
 51
242.947617354010589
  0
ARC
  5
DF6F
  8
0
 10
4187.8059374810773079
 20
241.6200612403847003
 30
0.0
 40
0.0945892540384408
 50
247.8283136368771977
 51
300.8081639484582865
  0
ARC
  5
DF70
  8
0
 10
4187.8307273487625935
 20
241.5764605435896044
 30
0.0
 40
0.044456821179572
 50
302.1474333812096233
 51
350.5603784255911819
  0
LINE
  5
DF71
  8
0
 10
4187.8745821793008872
 20
241.5691692619550111
 30
0.0
 11
4187.8789612945738554
 21
241.5893327750590061
 31
0.0
  0
ARC
  5
DF72
  8
0
 10
4187.8288801135731774
 20
241.5918485817203987
 30
0.0
 40
0.0501443314197459
 50
357.1241884974130016
 51
58.5163557363828204
  0
ARC
  5
DF73
  8
0
 10
4187.7912183200987783
 20
241.5442164117305026
 30
0.0
 40
0.1106707662852213
 50
54.7646885167634494
 51
93.8340058378026782
  0
ARC
  5
DF74
  8
0
 10
4187.784141329427257
 20
241.5934621450647057
 30
0.0
 40
0.0611782005019706
 50
90.3026267952156303
 51
142.0704473524639013
  0
ARC
  5
DF75
  8
0
 10
4187.7668883889700737
 20
241.6129359263460117
 30
0.0
 40
0.0359154315365556
 50
149.6784733902680955
 51
188.6836147484966091
  0
LINE
  5
DF76
  8
0
 10
4187.7313846523102256
 20
241.6075134817278069
 30
0.0
 11
4187.7373836506358202
 21
241.5737165513758953
 31
0.0
  0
ARC
  5
DF77
  8
0
 10
4187.7882794201850629
 20
241.5797257837604093
 30
0.0
 40
0.0512492949402101
 50
135.0702273456834916
 51
186.7337029968875015
  0
ARC
  5
DF78
  8
0
 10
4187.8055758015461834
 20
241.5582641842462976
 30
0.0
 40
0.0787080853961828
 50
40.0188362771090382
 51
132.9012516936076906
  0
ARC
  5
DF79
  8
0
 10
4187.8226018903951626
 20
241.578555245024603
 30
0.0
 40
0.0528208965833013
 50
349.76450009839931
 51
35.0324742228671795
  0
ARC
  5
DF7A
  8
0
 10
4187.9957876206699439
 20
242.1820576187290044
 30
0.0
 40
0.0163075007463187
 50
142.4003049456366057
 51
227.5678532144139865
  0
ARC
  5
DF7B
  8
0
 10
4188.0029178672821217
 20
242.1896810972596938
 30
0.0
 40
0.0267453745575686
 50
227.3129593846898899
 51
322.4076685101533144
  0
ARC
  5
DF7C
  8
0
 10
4188.0108266760680635
 20
242.1821144742494027
 30
0.0
 40
0.0159058808929741
 50
326.629246607397306
 51
26.22291215294781
  0
ARC
  5
DF7D
  8
0
 10
4188.0029221474378573
 20
242.1749607611295119
 30
0.0
 40
0.0263208626621462
 50
32.6027063427978305
 51
139.6352736375575887
  0
ARC
  5
DF7E
  8
0
 10
4187.9968250380561585
 20
242.2018131476276892
 30
0.0
 40
0.0638081396161144
 50
194.1296011496237952
 51
242.947617354010589
  0
ARC
  5
DF7F
  8
0
 10
4188.0035011787285839
 20
242.2325812455381993
 30
0.0
 40
0.0945892540384408
 50
247.8283136368771977
 51
300.8081639484582865
  0
ARC
  5
DF80
  8
0
 10
4188.0282910464138695
 20
242.1889805487431033
 30
0.0
 40
0.044456821179572
 50
302.1474333812096233
 51
350.5603784255911819
  0
LINE
  5
DF81
  8
0
 10
4188.0721458769530727
 20
242.18168926710851
 30
0.0
 11
4188.0765249922260409
 21
242.201852780212505
 31
0.0
  0
ARC
  5
DF82
  8
0
 10
4188.0105668183414309
 20
242.2106889342273917
 30
0.0
 40
0.0665474140741958
 50
352.3697425275735782
 51
45.3749252587115208
  0
ARC
  5
DF83
  8
0
 10
4188.0023855628996898
 20
242.2058813709284095
 30
0.0
 40
0.0757555749814085
 50
43.5249300939027108
 51
107.7463210184128997
  0
ARC
  5
DF84
  8
0
 10
4188.0022803444189776
 20
242.1997063879288987
 30
0.0
 40
0.0816287273726788
 50
106.3547475781813034
 51
147.4813251316575133
  0
ARC
  5
DF85
  8
0
 10
4187.9644520866222592
 20
242.2254559314993969
 30
0.0
 40
0.0359154315365556
 50
149.6784733902680955
 51
188.6836147484966091
  0
LINE
  5
DF86
  8
0
 10
4187.9289483499624112
 20
242.2200334868813059
 30
0.0
 11
4187.9349473482880057
 21
242.1862365565293089
 31
0.0
  0
ARC
  5
DF87
  8
0
 10
4187.9858431178381579
 20
242.1922457889137945
 30
0.0
 40
0.0512492949402101
 50
135.0702273456834916
 51
186.7337029968875015
  0
ARC
  5
DF88
  8
0
 10
4188.0031394991992784
 20
242.1707841893997113
 30
0.0
 40
0.0787080853961828
 50
40.0188362771090382
 51
132.9012516936076906
  0
ARC
  5
DF89
  8
0
 10
4188.0201655880482576
 20
242.1910752501781019
 30
0.0
 40
0.0528208965833013
 50
349.76450009839931
 51
35.0324742228671795
  0
ARC
  5
DF8A
  8
0
 10
4188.2664931243052706
 20
241.9586842515728904
 30
0.0
 40
0.0163075007463187
 50
142.4003049456366057
 51
227.5678532144139865
  0
ARC
  5
DF8B
  8
0
 10
4188.2736233709174485
 20
241.9663077301036935
 30
0.0
 40
0.0267453745575686
 50
227.3129593846898899
 51
322.4076685101533144
  0
ARC
  5
DF8C
  8
0
 10
4188.2815321797015713
 20
241.9587411070932887
 30
0.0
 40
0.0159058808929741
 50
326.629246607397306
 51
26.22291215294781
  0
ARC
  5
DF8D
  8
0
 10
4188.2736276510713651
 20
241.9515873939733979
 30
0.0
 40
0.0263208626621462
 50
32.6027063427978305
 51
139.6352736375575887
  0
ARC
  5
DF8E
  8
0
 10
4188.2675305416896663
 20
241.9784397804716036
 30
0.0
 40
0.0638081396161144
 50
194.1296011496237952
 51
242.947617354010589
  0
ARC
  5
DF8F
  8
0
 10
4188.2742066823639107
 20
242.0092078783821137
 30
0.0
 40
0.0945892540384408
 50
247.8283136368771977
 51
300.8081639484582865
  0
ARC
  5
DF90
  8
0
 10
4188.2989965500491962
 20
241.9656071815869041
 30
0.0
 40
0.044456821179572
 50
302.1474333812096233
 51
350.5603784255911819
  0
LINE
  5
DF91
  8
0
 10
4188.342851380585671
 20
241.958315899952396
 30
0.0
 11
4188.3472304958595487
 21
241.978479413056391
 31
0.0
  0
ARC
  5
DF92
  8
0
 10
4188.2812723219749387
 20
241.9873155670713913
 30
0.0
 40
0.0665474140741958
 50
352.3697425275735782
 51
45.3749252587115208
  0
ARC
  5
DF93
  8
0
 10
4188.2730910665341071
 20
241.9825080037722955
 30
0.0
 40
0.0757555749814085
 50
43.5249300939027108
 51
107.7463210184128997
  0
ARC
  5
DF94
  8
0
 10
4188.2729858480543044
 20
241.9763330207728131
 30
0.0
 40
0.0816287273726788
 50
106.3547475781813034
 51
147.4813251316575133
  0
ARC
  5
DF95
  8
0
 10
4188.235157590255767
 20
242.0020825643433113
 30
0.0
 40
0.0359154315365556
 50
149.6784733902680955
 51
188.6836147484966091
  0
LINE
  5
DF96
  8
0
 10
4188.1996538535968284
 20
241.9966601197251919
 30
0.0
 11
4188.205652851922423
 21
241.9628631893731949
 31
0.0
  0
ARC
  5
DF97
  8
0
 10
4188.2565486214707562
 20
241.9688724217577089
 30
0.0
 40
0.0512492949402101
 50
135.0702273456834916
 51
186.7337029968875015
  0
ARC
  5
DF98
  8
0
 10
4188.2738450028318766
 20
241.9474108222435973
 30
0.0
 40
0.0787080853961828
 50
40.0188362771090382
 51
132.9012516936076906
  0
ARC
  5
DF99
  8
0
 10
4188.2908710916808559
 20
241.9677018830219879
 30
0.0
 40
0.0528208965833013
 50
349.76450009839931
 51
35.0324742228671795
  0
ARC
  5
DF9A
  8
0
 10
4188.1278929395202795
 20
241.6778578830181914
 30
0.0
 40
0.0163075007463187
 50
142.4003049456366057
 51
227.5678532144139865
  0
ARC
  5
DF9B
  8
0
 10
4188.1350231861315478
 20
241.6854813615489945
 30
0.0
 40
0.0267453745575686
 50
227.3129593846898899
 51
322.4076685101533144
  0
ARC
  5
DF9C
  8
0
 10
4188.1429319949165802
 20
241.6779147385385897
 30
0.0
 40
0.0159058808929741
 50
326.629246607397306
 51
26.22291215294781
  0
ARC
  5
DF9D
  8
0
 10
4188.135027466286374
 20
241.6707610254186989
 30
0.0
 40
0.0263208626621462
 50
32.6027063427978305
 51
139.6352736375575887
  0
ARC
  5
DF9E
  8
0
 10
4188.1289303569055846
 20
241.6976134119169046
 30
0.0
 40
0.0638081396161144
 50
194.1296011496237952
 51
242.947617354010589
  0
ARC
  5
DF9F
  8
0
 10
4188.135606497579829
 20
241.7283815098273863
 30
0.0
 40
0.0945892540384408
 50
247.8283136368771977
 51
300.8081639484582865
  0
ARC
  5
DFA0
  8
0
 10
4188.1603963652642051
 20
241.6847808130322903
 30
0.0
 40
0.044456821179572
 50
302.1474333812096233
 51
350.5603784255911819
  0
LINE
  5
DFA1
  8
0
 10
4188.2042511958015893
 20
241.677489531397697
 30
0.0
 11
4188.2086303110745575
 21
241.697653044501692
 31
0.0
  0
ARC
  5
DFA2
  8
0
 10
4188.1426721371917665
 20
241.7064891985166923
 30
0.0
 40
0.0665474140741958
 50
352.3697425275735782
 51
45.3749252587115208
  0
ARC
  5
DFA3
  8
0
 10
4188.1344908817500254
 20
241.7016816352175965
 30
0.0
 40
0.0757555749814085
 50
43.5249300939027108
 51
107.7463210184128997
  0
ARC
  5
DFA4
  8
0
 10
4188.1343856632702227
 20
241.6955066522181141
 30
0.0
 40
0.0816287273726788
 50
106.3547475781813034
 51
147.4813251316575133
  0
ARC
  5
DFA5
  8
0
 10
4188.0965574054716853
 20
241.7212561957886976
 30
0.0
 40
0.0359154315365556
 50
149.6784733902680955
 51
188.6836147484966091
  0
LINE
  5
DFA6
  8
0
 10
4188.0610536688127468
 20
241.7158337511704076
 30
0.0
 11
4188.0670526671392508
 21
241.6820368208186096
 31
0.0
  0
ARC
  5
DFA7
  8
0
 10
4188.1179484366866745
 20
241.6880460532030952
 30
0.0
 40
0.0512492949402101
 50
135.0702273456834916
 51
186.7337029968875015
  0
ARC
  5
DFA8
  8
0
 10
4188.135244818047795
 20
241.666584453689012
 30
0.0
 40
0.0787080853961828
 50
40.0188362771090382
 51
132.9012516936076906
  0
ARC
  5
DFA9
  8
0
 10
4188.1522709068967742
 20
241.6868755144672889
 30
0.0
 40
0.0528208965833013
 50
349.76450009839931
 51
35.0324742228671795
  0
ARC
  5
DFAA
  8
0
 10
4188.1222381129955465
 20
239.5825558811121994
 30
0.0
 40
0.0163075007463187
 50
142.4003049456366057
 51
227.5678532144139865
  0
ARC
  5
DFAB
  8
0
 10
4188.1293683596068149
 20
239.5901793596430025
 30
0.0
 40
0.0267453745575686
 50
227.3129593846898899
 51
322.4076685101533144
  0
ARC
  5
DFAC
  8
0
 10
4188.1372771683927567
 20
239.5826127366325977
 30
0.0
 40
0.0159058808929741
 50
326.629246607397306
 51
26.22291215294781
  0
ARC
  5
DFAD
  8
0
 10
4188.1293726397625505
 20
239.5754590235127921
 30
0.0
 40
0.0263208626621462
 50
32.6027063427978305
 51
139.6352736375575887
  0
ARC
  5
DFAE
  8
0
 10
4188.1232755303817612
 20
239.6023114100109979
 30
0.0
 40
0.0638081396161144
 50
194.1296011496237952
 51
242.947617354010589
  0
ARC
  5
DFAF
  8
0
 10
4188.1299516710541866
 20
239.6330795079215079
 30
0.0
 40
0.0945892540384408
 50
247.8283136368771977
 51
300.8081639484582865
  0
ARC
  5
DFB0
  8
0
 10
4188.1547415387403817
 20
239.5894788111262983
 30
0.0
 40
0.044456821179572
 50
302.1474333812096233
 51
350.5603784255911819
  0
LINE
  5
DFB1
  8
0
 10
4188.1985963692777659
 20
239.5821875294917049
 30
0.0
 11
4188.2029754845516436
 21
239.6023510425956999
 31
0.0
  0
ARC
  5
DFB2
  8
0
 10
4188.1528943035509656
 20
239.6048668492570926
 30
0.0
 40
0.0501443314197459
 50
357.1241884974130016
 51
58.5163557363828204
  0
ARC
  5
DFB3
  8
0
 10
4188.115232510075657
 20
239.5572346792671965
 30
0.0
 40
0.1106707662852213
 50
54.7646885167634494
 51
93.8340058378026782
  0
ARC
  5
DFB4
  8
0
 10
4188.1081555194050452
 20
239.6064804126013996
 30
0.0
 40
0.0611782005019706
 50
90.3026267952156303
 51
142.0704473524639013
  0
ARC
  5
DFB5
  8
0
 10
4188.0909025789478619
 20
239.6259541938827056
 30
0.0
 40
0.0359154315365556
 50
149.6784733902680955
 51
188.6836147484966091
  0
LINE
  5
DFB6
  8
0
 10
4188.0553988422880138
 20
239.6205317492645008
 30
0.0
 11
4188.0613978406136084
 21
239.5867348189125892
 31
0.0
  0
ARC
  5
DFB7
  8
0
 10
4188.1122936101628511
 20
239.5927440512971032
 30
0.0
 40
0.0512492949402101
 50
135.0702273456834916
 51
186.7337029968875015
  0
ARC
  5
DFB8
  8
0
 10
4188.1295899915239715
 20
239.5712824517829915
 30
0.0
 40
0.0787080853961828
 50
40.0188362771090382
 51
132.9012516936076906
  0
ARC
  5
DFB9
  8
0
 10
4188.1466160803729508
 20
239.5915735125614106
 30
0.0
 40
0.0528208965833013
 50
349.76450009839931
 51
35.0324742228671795
  0
ARC
  5
DFBA
  8
0
 10
4188.0673529743744439
 20
239.3934726165682036
 30
0.0
 40
0.0163075007463187
 50
142.4003049456366057
 51
227.5678532144139865
  0
ARC
  5
DFBB
  8
0
 10
4188.0744832209848028
 20
239.4010960950988931
 30
0.0
 40
0.0267453745575686
 50
227.3129593846898899
 51
322.4076685101533144
  0
ARC
  5
DFBC
  8
0
 10
4188.0823920297698351
 20
239.3935294720884883
 30
0.0
 40
0.0159058808929741
 50
326.629246607397306
 51
26.22291215294781
  0
ARC
  5
DFBD
  8
0
 10
4188.0744875011387194
 20
239.3863757589687111
 30
0.0
 40
0.0263208626621462
 50
32.6027063427978305
 51
139.6352736375575887
  0
ARC
  5
DFBE
  8
0
 10
4188.0683903917588395
 20
239.4132281454668885
 30
0.0
 40
0.0638081396161144
 50
194.1296011496237952
 51
242.947617354010589
  0
ARC
  5
DFBF
  8
0
 10
4188.0750665324321744
 20
239.4439962433773132
 30
0.0
 40
0.0945892540384408
 50
247.8283136368771977
 51
300.8081639484582865
  0
ARC
  5
DFC0
  8
0
 10
4188.0998564001165505
 20
239.4003955465821889
 30
0.0
 40
0.044456821179572
 50
302.1474333812096233
 51
350.5603784255911819
  0
LINE
  5
DFC1
  8
0
 10
4188.1437112306539348
 20
239.3931042649475955
 30
0.0
 11
4188.1480903459278125
 21
239.4132677780515905
 31
0.0
  0
ARC
  5
DFC2
  8
0
 10
4188.0980091649280439
 20
239.4157835847130116
 30
0.0
 40
0.0501443314197459
 50
357.1241884974130016
 51
58.5163557363828204
  0
ARC
  5
DFC3
  8
0
 10
4188.0603473714527354
 20
239.3681514147230871
 30
0.0
 40
0.1106707662852213
 50
54.7646885167634494
 51
93.8340058378026782
  0
ARC
  5
DFC4
  8
0
 10
4188.0532703807821235
 20
239.4173971480572902
 30
0.0
 40
0.0611782005019706
 50
90.3026267952156303
 51
142.0704473524639013
  0
ARC
  5
DFC5
  8
0
 10
4188.0360174403249403
 20
239.4368709293385962
 30
0.0
 40
0.0359154315365556
 50
149.6784733902680955
 51
188.6836147484966091
  0
LINE
  5
DFC6
  8
0
 10
4188.0005137036650922
 20
239.4314484847203914
 30
0.0
 11
4188.0065127019906868
 21
239.3976515543685082
 31
0.0
  0
ARC
  5
DFC7
  8
0
 10
4188.05740847153902
 20
239.4036607867529938
 30
0.0
 40
0.0512492949402101
 50
135.0702273456834916
 51
186.7337029968875015
  0
ARC
  5
DFC8
  8
0
 10
4188.0747048529001404
 20
239.3821991872389106
 30
0.0
 40
0.0787080853961828
 50
40.0188362771090382
 51
132.9012516936076906
  0
ARC
  5
DFC9
  8
0
 10
4188.0917309417509387
 20
239.4024902480173012
 30
0.0
 40
0.0528208965833013
 50
349.76450009839931
 51
35.0324742228671795
  0
ARC
  5
DFCA
  8
0
 10
4188.2281775148212546
 20
239.1772594008182011
 30
0.0
 40
0.0163075007463187
 50
142.4003049456366057
 51
227.5678532144139865
  0
ARC
  5
DFCB
  8
0
 10
4188.2353077614316135
 20
239.1848828793488906
 30
0.0
 40
0.0267453745575686
 50
227.3129593846898899
 51
322.4076685101533144
  0
ARC
  5
DFCC
  8
0
 10
4188.2432165702166458
 20
239.1773162563385995
 30
0.0
 40
0.0159058808929741
 50
326.629246607397306
 51
26.22291215294781
  0
ARC
  5
DFCD
  8
0
 10
4188.2353120415864396
 20
239.1701625432187086
 30
0.0
 40
0.0263208626621462
 50
32.6027063427978305
 51
139.6352736375575887
  0
ARC
  5
DFCE
  8
0
 10
4188.2292149322056503
 20
239.1970149297168859
 30
0.0
 40
0.0638081396161144
 50
194.1296011496237952
 51
242.947617354010589
  0
ARC
  5
DFCF
  8
0
 10
4188.2358910728798946
 20
239.227783027627396
 30
0.0
 40
0.0945892540384408
 50
247.8283136368771977
 51
300.8081639484582865
  0
ARC
  5
DFD0
  8
0
 10
4188.2606809405642707
 20
239.1841823308323001
 30
0.0
 40
0.044456821179572
 50
302.1474333812096233
 51
350.5603784255911819
  0
LINE
  5
DFD1
  8
0
 10
4188.304535771101655
 20
239.1768910491977067
 30
0.0
 11
4188.3089148863746232
 21
239.1970545623017017
 31
0.0
  0
ARC
  5
DFD2
  8
0
 10
4188.2588337053757641
 20
239.1995703689630943
 30
0.0
 40
0.0501443314197459
 50
357.1241884974130016
 51
58.5163557363828204
  0
ARC
  5
DFD3
  8
0
 10
4188.2211719119013651
 20
239.1519381989731983
 30
0.0
 40
0.1106707662852213
 50
54.7646885167634494
 51
93.8340058378026782
  0
ARC
  5
DFD4
  8
0
 10
4188.2140949212289343
 20
239.2011839323074014
 30
0.0
 40
0.0611782005019706
 50
90.3026267952156303
 51
142.0704473524639013
  0
ARC
  5
DFD5
  8
0
 10
4188.196841980771751
 20
239.2206577135885937
 30
0.0
 40
0.0359154315365556
 50
149.6784733902680955
 51
188.6836147484966091
  0
LINE
  5
DFD6
  8
0
 10
4188.1613382441128124
 20
239.2152352689705026
 30
0.0
 11
4188.1673372424393165
 21
239.1814383386185909
 31
0.0
  0
ARC
  5
DFD7
  8
0
 10
4188.2182330119867402
 20
239.1874475710031049
 30
0.0
 40
0.0512492949402101
 50
135.0702273456834916
 51
186.7337029968875015
  0
ARC
  5
DFD8
  8
0
 10
4188.2355293933478606
 20
239.1659859714889933
 30
0.0
 40
0.0787080853961828
 50
40.0188362771090382
 51
132.9012516936076906
  0
ARC
  5
DFD9
  8
0
 10
4188.2525554821977494
 20
239.1862770322672986
 30
0.0
 40
0.0528208965833013
 50
349.76450009839931
 51
35.0324742228671795
  0
ARC
  5
DFDA
  8
0
 10
4188.4029744625140665
 20
240.5442103672826875
 30
0.0
 40
0.1930069620831833
 50
119.9109298242323973
 51
220.4093686186085961
  0
ARC
  5
DFDB
  8
0
 10
4203.5054620370246994
 20
237.4373901123803137
 30
0.0
 40
15.6521638436268002
 50
174.4650081110208077
 51
179.7390058377255002
  0
ARC
  5
DFDC
  8
0
 10
4204.9323197080939281
 20
237.744744241463593
 30
0.0
 40
17.0804903677279398
 50
180.7918634322213052
 51
187.7536014399807982
  0
ARC
  5
DFDD
  8
0
 10
4186.3650800998866544
 20
235.178625930099912
 30
0.0
 40
1.663627042729938
 50
358.7717381557092722
 51
9.0518154642436564
  0
ARC
  5
DFDE
  8
0
 10
4188.1004417940621352
 20
234.9419424079571002
 30
0.0
 40
0.213567281263567
 50
109.7354476750825967
 51
184.1349976407730935
  0
ARC
  5
DFDF
  8
0
 10
4188.1612113888204476
 20
235.0323870100382067
 30
0.0
 40
0.2935285453481649
 50
201.136596346610105
 51
255.6565581181650089
  0
ARC
  5
DFE0
  8
0
 10
4187.9965116468456472
 20
234.8377827482289035
 30
0.0
 40
0.0961547421731392
 50
153.8244773767451932
 51
179.9122929670488134
  0
LINE
  5
DFE1
  8
0
 10
4187.9003570173317712
 20
234.8379299395913904
 30
0.0
 11
4187.8995658649801044
 21
234.3210996037302039
 31
0.0
  0
ARC
  5
DFE2
  8
0
 10
4188.1262737006863972
 20
234.3936247043982917
 30
0.0
 40
0.2380259082484819
 50
197.7397639059655887
 51
261.6990943284583864
  0
ARC
  5
DFE3
  8
0
 10
4188.1059715803421568
 20
234.1838970584537094
 30
0.0
 40
0.0293874091206042
 50
241.4119793927411024
 51
0.6637847053564532
  0
LINE
  5
DFE4
  8
0
 10
4188.1353570173323533
 20
234.1842375106913892
 30
0.0
 11
4188.135557274533312
 21
234.7014272997913906
 31
0.0
  0
ARC
  5
DFE5
  8
0
 10
4188.1060658562237222
 20
234.6997273652100944
 30
0.0
 40
0.0295403712125814
 50
3.2989739246473762
 51
91.3749785020991965
  0
ARC
  5
DFE6
  8
0
 10
4188.184883720162361
 20
235.0502360578406069
 30
0.0
 40
0.3306820527784764
 50
212.6765842239144888
 51
256.0843634333728005
  0
LINE
  5
DFE7
  8
0
 10
4188.0539383144359817
 20
234.1668562654706989
 30
0.0
 11
4188.0706812916323543
 21
233.7893045923852071
 31
0.0
  0
ARC
  5
DFE8
  8
0
 10
4188.1570505731488083
 20
233.7931347407169085
 30
0.0
 40
0.0864541660422153
 50
182.5391857318712994
 51
236.8903886509054928
  0
ARC
  5
DFE9
  8
0
 10
4188.3814838629978112
 20
234.1372885033086959
 30
0.0
 40
0.4973216798446675
 50
236.8903886509054928
 51
269.1385650185721943
  0
ARC
  5
DFEA
  8
0
 10
4188.4391226689131145
 20
239.2336710740898127
 30
0.0
 40
0.0444683327100375
 50
96.5869502489475877
 51
188.7261225396638054
  0
ARC
  5
DFEB
  8
0
 10
4225.1105800982059009
 20
239.0457495052868069
 30
0.0
 40
36.7158580423379703
 50
179.7172715636529858
 51
180.7603779011571987
  0
ARC
  5
DFEC
  8
0
 10
4188.438116771825662
 20
238.5584933866946926
 30
0.0
 40
0.0401615289116891
 50
179.9847728326826086
 51
269.5756276110475937
  0
ARC
  5
DFED
  8
0
 10
4188.3704535683173162
 20
238.978552124345299
 30
0.0
 40
0.0291021835647095
 50
33.3703876274160578
 51
82.1743831276470331
  0
LINE
  5
DFEE
  8
0
 10
4188.5128947243319999
 20
238.5183329593913868
 30
0.0
 11
4188.4378193103320882
 21
238.5183329593913868
 31
0.0
  0
LINE
  5
DFEF
  8
0
 10
4188.4340216666323613
 20
239.2778458676914113
 30
0.0
 11
4188.5166923680317268
 21
239.2778458676914113
 31
0.0
  0
ARC
  5
DFF0
  8
0
 10
4187.5218413673655959
 20
241.3964305535158132
 30
0.0
 40
0.0163075007463187
 50
142.4003049456366057
 51
227.5678532144139865
  0
ARC
  5
DFF1
  8
0
 10
4187.5289716139777738
 20
241.404054032046588
 30
0.0
 40
0.0267453745575686
 50
227.3129593846898899
 51
322.4076685101533144
  0
ARC
  5
DFF2
  8
0
 10
4187.5368804227637156
 20
241.3964874090362116
 30
0.0
 40
0.0159058808929741
 50
326.629246607397306
 51
26.22291215294781
  0
ARC
  5
DFF3
  8
0
 10
4187.5289758941325999
 20
241.3893336959162923
 30
0.0
 40
0.0263208626621462
 50
32.6027063427978305
 51
139.6352736375575887
  0
ARC
  5
DFF4
  8
0
 10
4187.5228787847518106
 20
241.4161860824146117
 30
0.0
 40
0.0638081396161144
 50
194.1296011496237952
 51
242.947617354010589
  0
ARC
  5
DFF5
  8
0
 10
4187.529554925426055
 20
241.4469541803250081
 30
0.0
 40
0.0945892540384408
 50
247.8283136368771977
 51
300.8081639484582865
  0
ARC
  5
DFF6
  8
0
 10
4187.5543447931104311
 20
241.4033534835299122
 30
0.0
 40
0.044456821179572
 50
302.1474333812096233
 51
350.5603784255911819
  0
LINE
  5
DFF7
  8
0
 10
4187.5981996236487248
 20
241.3960622018952904
 30
0.0
 11
4187.6025787389207835
 21
241.4162257149993138
 31
0.0
  0
ARC
  5
DFF8
  8
0
 10
4187.5524975579219245
 20
241.4187415216607064
 30
0.0
 40
0.0501443314197459
 50
357.1241884974130016
 51
58.5163557363828204
  0
ARC
  5
DFF9
  8
0
 10
4187.5148357644466159
 20
241.3711093516708104
 30
0.0
 40
0.1106707662852213
 50
54.7646885167634494
 51
93.8340058378026782
  0
ARC
  5
DFFA
  8
0
 10
4187.5077587737750946
 20
241.4203550850050135
 30
0.0
 40
0.0611782005019706
 50
90.3026267952156303
 51
142.0704473524639013
  0
ARC
  5
DFFB
  8
0
 10
4187.4905058333188208
 20
241.439828866286291
 30
0.0
 40
0.0359154315365556
 50
149.6784733902680955
 51
188.6836147484966091
  0
LINE
  5
DFFC
  8
0
 10
4187.4550020966571537
 20
241.4344064216680863
 30
0.0
 11
4187.4610010949836578
 21
241.400609491316203
 31
0.0
  0
ARC
  5
DFFD
  8
0
 10
4187.51189686453381
 20
241.4066187237006886
 30
0.0
 40
0.0512492949402101
 50
135.0702273456834916
 51
186.7337029968875015
  0
ARC
  5
DFFE
  8
0
 10
4187.5291932458949304
 20
241.3851571241866054
 30
0.0
 40
0.0787080853961828
 50
40.0188362771090382
 51
132.9012516936076906
  0
ARC
  5
DFFF
  8
0
 10
4187.5462193347439097
 20
241.405448184964996
 30
0.0
 40
0.0528208965833013
 50
349.76450009839931
 51
35.0324742228671795
  0
ARC
  5
E000
  8
0
 10
4188.4753570173306798
 20
240.501479028230392
 30
0.0
 40
2.6443347589563189
 50
77.5404369113079781
 51
102.4595630886919935
  0
ARC
  5
E001
  8
0
 10
4188.4753570173306798
 20
239.8622536937834866
 30
0.0
 40
2.7097114420100881
 50
76.5992278687240571
 51
103.4007721312759003
  0
ARC
  5
E002
  8
0
 10
4188.4753570173306798
 20
239.868161372452505
 30
0.0
 40
2.6882830425562192
 50
77.7131770082865359
 51
102.2868229917133931
  0
ARC
  5
E003
  8
0
 10
4188.4753570173306798
 20
240.1849266240134
 30
0.0
 40
1.3066373637058251
 50
59.0936738247815825
 51
120.9063261752183962
  0
ARC
  5
E004
  8
0
 10
4188.4753570173315893
 20
240.4455740596359021
 30
0.0
 40
0.3148907887273907
 50
57.6217301543953226
 51
122.3782698543048042
  0
ARC
  5
E005
  8
0
 10
4188.4753570173306798
 20
240.6404011178651103
 30
0.0
 40
0.3115902080252302
 50
225.2551265324250096
 51
314.7448734675322157
  0
ARC
  5
E006
  8
0
 10
4188.4753570173306798
 20
241.0156111474242095
 30
0.0
 40
1.302612631127779
 50
237.7548252351012934
 51
302.2451747648977971
  0
ARC
  5
E007
  8
0
 10
4188.4753570173306798
 20
234.815917864343902
 30
0.0
 40
1.1802544170282221
 50
265.0738671120801087
 51
274.9261328879197777
  0
ARC
  5
E008
  8
0
 10
4188.4753570173306798
 20
236.6146459776940958
 30
0.0
 40
1.906305036672618
 50
258.2911574798317247
 51
281.7088425201682753
  0
ARC
  5
E009
  8
0
 10
4188.4753570173306798
 20
234.6427649127678876
 30
0.0
 40
1.2600000000000009
 50
282.9319156434681872
 51
66.0351141109260311
  0
ARC
  5
E00A
  8
0
 10
4188.4753570173306798
 20
234.6427649127678876
 30
0.0
 40
1.2600000000000009
 50
113.9648858890738978
 51
257.5729807390902124
  0
LINE
  5
E00B
  8
0
 10
4179.8646944900729068
 20
213.3093330044679021
 30
0.0
 11
4178.666449910791016
 21
213.3093330044679021
 31
0.0
  0
LINE
  5
E00C
  8
0
 10
4179.8767771842321963
 20
213.5543991054678941
 30
0.0
 11
4178.654367216630817
 21
213.5543991054678941
 31
0.0
  0
LINE
  5
E00D
  8
0
 10
4179.7695092081312396
 20
213.9668133194680024
 30
0.0
 11
4178.7616351927308642
 21
213.9668133194680024
 31
0.0
  0
LINE
  5
E00E
  8
0
 10
4179.7498242267320165
 20
214.0225900737679865
 30
0.0
 11
4178.7813201741319062
 21
214.0225900737679865
 31
0.0
  0
LINE
  5
E00F
  8
0
 10
4179.769509320331963
 20
214.0422751649678901
 30
0.0
 11
4178.7616350805319598
 21
214.0422751649678901
 31
0.0
  0
LINE
  5
E010
  8
0
 10
4179.8398844598323194
 20
214.3060546406680089
 30
0.0
 11
4178.6912599410306939
 21
214.3060546406680089
 31
0.0
  0
LINE
  5
E011
  8
0
 10
4179.7045485782309697
 20
214.0225900737679865
 30
0.0
 11
4179.7045485782309697
 21
213.9668133194680024
 31
0.0
  0
LINE
  5
E012
  8
0
 10
4179.7695092081312396
 20
213.9668133194680024
 30
0.0
 11
4179.7695092081312396
 21
213.6242936343680014
 31
0.0
  0
ARC
  5
E013
  8
0
 10
4179.8088792867720258
 20
213.6242936343680014
 30
0.0
 40
0.0393700786401023
 50
180.0
 51
248.000000123832308
  0
ARC
  5
E014
  8
0
 10
4176.0873694691927085
 20
204.2942597519270009
 30
0.0
 40
10.0054880779398694
 50
67.7447811336622152
 51
68.255218852200457
  0
ARC
  5
E015
  8
0
 10
4179.8620288930951574
 20
213.5178958040262103
 30
0.0
 40
0.039370078836523
 50
0.0000000607409611
 51
67.9999998259611544
  0
LINE
  5
E016
  8
0
 10
4179.9013989719323945
 20
213.5178958040679049
 30
0.0
 11
4179.9013989719323945
 21
213.3487030832679068
 31
0.0
  0
ARC
  5
E017
  8
0
 10
4179.861860941347004
 20
213.3487694250131028
 30
0.0
 40
0.0395380862434773
 50
274.1097001454442079
 51
359.9038622212891028
  0
ARC
  5
E018
  8
0
 10
4179.6937716058309888
 20
213.2896479650680135
 30
0.0
 40
0.0196850393999988
 50
359.9999999999968168
 51
90.0
  0
LINE
  5
E019
  8
0
 10
4179.713456645232327
 20
213.2896479650680135
 30
0.0
 11
4179.6627375546322583
 21
212.1959793193678934
 31
0.0
  0
ARC
  5
E01A
  8
0
 10
4179.5840820028033704
 20
212.199628508438991
 30
0.0
 40
0.0787401575710796
 50
270.0000000207398898
 51
357.3436927587284231
  0
LINE
  5
E01B
  8
0
 10
4179.5840820028315648
 20
212.1208883508678866
 30
0.0
 11
4178.9470623980596429
 21
212.1208883508678866
 31
0.0
  0
LINE
  5
E01C
  8
0
 10
4179.7498242267320165
 20
214.0225900737679865
 30
0.0
 11
4179.769509320331963
 21
214.0422751649678901
 31
0.0
  0
LINE
  5
E01D
  8
0
 10
4179.769509320331963
 20
214.0422751649678901
 30
0.0
 11
4179.769509320331963
 21
214.3060546406680089
 31
0.0
  0
ARC
  5
E01E
  8
0
 10
4182.2183281058323701
 20
215.1328262942678862
 30
0.0
 40
1.1614173227999991
 50
213.0111239548143942
 51
348.3961927366542
  0
ARC
  5
E01F
  8
0
 10
4182.2183281058323701
 20
215.1328262942678862
 30
0.0
 40
1.1614173227999991
 50
11.6038071531638902
 51
147.5706851163214139
  0
ARC
  5
E020
  8
0
 10
4182.2183281058323701
 20
215.1328262942678862
 30
0.0
 40
0.7678190416
 50
184.8115696818570086
 51
340.9479661453801214
  0
ARC
  5
E021
  8
0
 10
4182.2183281058323701
 20
215.1328262942678862
 30
0.0
 40
0.7678190416
 50
19.0520336282353817
 51
175.1884304968299944
  0
ARC
  5
E022
  8
0
 10
4182.2183281058323701
 20
215.1328262942678862
 30
0.0
 40
0.6594488189000001
 50
199.5617223789585921
 51
332.442942532838174
  0
ARC
  5
E023
  8
0
 10
4182.2183281058323701
 20
215.1328262942678862
 30
0.0
 40
0.6594488189000001
 50
27.5570573127955782
 51
160.4382778745288078
  0
ARC
  5
E024
  8
0
 10
4181.6989988975647066
 20
216.0317639895604032
 30
0.0
 40
0.2708526845039331
 50
271.1071430258567716
 51
297.009235032920401
  0
LINE
  5
E025
  8
0
 10
4181.7042323371306338
 20
215.7609618702680052
 30
0.0
 11
4180.3984651519322142
 21
215.7460741638678883
 31
0.0
  0
ARC
  5
E026
  8
0
 10
4180.3974567500836201
 20
215.9822769135047054
 30
0.0
 40
0.2362049021723614
 50
179.9963449814252954
 51
270.2446068855467161
  0
LINE
  5
E027
  8
0
 10
4180.1612518483907479
 20
215.9822919815134128
 30
0.0
 11
4180.1612519759119095
 21
216.5403066091679989
 31
0.0
  0
LINE
  5
E028
  8
0
 10
4180.2445119741660164
 20
216.5403066091679989
 30
0.0
 11
4178.2866324266979063
 21
216.5403066091679989
 31
0.0
  0
ARC
  5
E029
  8
0
 10
4777.9530806564243903
 20
-53.1701071391267135
 30
0.0
 40
655.1968349930840532
 50
155.9023140089354911
 51
155.905811343072088
  0
ARC
  5
E02A
  8
0
 10
4179.9280882234652381
 20
214.3104148065706056
 30
0.0
 40
0.0787378573194536
 50
94.5969749635390968
 51
155.9023140089354911
  0
ARC
  5
E02B
  8
0
 10
4182.738160427740695
 20
188.8082789325580109
 30
0.0
 40
25.7351929062545786
 50
92.3837442201134991
 51
96.2828631126329526
  0
ARC
  5
E02C
  8
0
 10
4181.671294689912429
 20
214.2511059487206069
 30
0.0
 40
0.2701193728305902
 50
60.538474465851138
 51
90.746051890817057
  0
ARC
  5
E02D
  8
0
 10
4180.3079875472758431
 20
214.7333602632602947
 30
0.0
 40
0.5669681469100327
 50
180.8963759286554875
 51
220.1180865261991073
  0
ARC
  5
E02E
  8
0
 10
4179.928499960253248
 20
214.7528142899660963
 30
0.0
 40
0.1895393945978126
 50
166.2141562976449052
 51
188.5941543539701968
  0
ARC
  5
E02F
  8
0
 10
4183.4897456859980593
 20
213.8285817589768953
 30
0.0
 40
3.8687457382518269
 50
159.2357479435582945
 51
165.4886497560189866
  0
ARC
  5
E030
  8
0
 10
4181.3465651200840512
 20
214.7207462692909132
 30
0.0
 40
1.550264350690032
 50
135.5862477779824076
 51
161.9868151865782977
  0
ARC
  5
E031
  8
0
 10
4180.2411321417148429
 20
216.5720102043871123
 30
0.0
 40
0.0318832435177495
 50
276.0851609429820996
 51
352.6017799747672257
  0
LINE
  5
E032
  8
0
 10
4180.2727499624315897
 20
216.5679047652679117
 30
0.0
 11
4180.4228258627481409
 21
217.7977776602573954
 31
0.0
  0
ARC
  5
E033
  8
0
 10
4180.2577150327460913
 20
217.7802378393186871
 30
0.0
 40
0.1660398491394727
 50
6.0638227646033034
 51
22.5224218173382589
  0
LINE
  5
E034
  8
0
 10
4180.4110909735318273
 20
217.8438385648678945
 30
0.0
 11
4180.2743580939331878
 21
218.0660294941378936
 31
0.0
  0
LINE
  5
E035
  8
0
 10
4180.2488083444322911
 20
218.0803065713679132
 30
0.0
 11
4179.8226958021959945
 21
218.0803065713679132
 31
0.0
  0
LINE
  5
E036
  8
0
 10
4178.7084485986661093
 20
218.0803065713679132
 30
0.0
 11
4178.2823360564307222
 21
218.0803065713679132
 31
0.0
  0
LINE
  5
E037
  8
0
 10
4180.0923438539321069
 20
218.1787317681678928
 30
0.0
 11
4179.931741476316347
 21
218.1787317681678928
 31
0.0
  0
LINE
  5
E038
  8
0
 10
4178.5994029245475758
 20
218.1787317681678928
 30
0.0
 11
4178.438800547001847
 21
218.1787317681678928
 31
0.0
  0
ARC
  5
E039
  8
0
 10
4180.0923438538611663
 20
218.1393616892972034
 30
0.0
 40
0.039370078870711
 50
0.0000002484370446
 51
90.0000002196966307
  0
LINE
  5
E03A
  8
0
 10
4180.1317139327320547
 20
218.1393616894679042
 30
0.0
 11
4180.1317139329867132
 21
218.0803065713679132
 31
0.0
  0
ARC
  5
E03B
  8
0
 10
4180.2488083444322911
 20
218.0503065713679121
 30
0.0
 40
0.0299999999999995
 50
31.6075022463064101
 51
90.0
  0
LINE
  5
E03C
  8
0
 10
4180.4186151804306064
 20
217.8212302041847863
 30
0.0
 11
4179.8036783780480619
 21
217.8212302041847863
 31
0.0
  0
LINE
  5
E03D
  8
0
 10
4178.7274660228158609
 20
217.8212302041847863
 30
0.0
 11
4178.1125292204342259
 21
217.8212302041847863
 31
0.0
  0
LINE
  5
E03E
  8
0
 10
4179.8723545625307452
 20
219.6442507057680018
 30
0.0
 11
4179.8817605032236315
 21
218.5758192551425054
 31
0.0
  0
ARC
  5
E03F
  8
0
 10
4179.3940655921405778
 20
218.0120863871314043
 30
0.0
 40
0.7454133569853832
 50
46.1132530793768325
 51
82.0415651177274583
  0
ARC
  5
E040
  8
0
 10
4179.7351541875514158
 20
218.3077574186733898
 30
0.0
 40
0.2986729543095152
 50
28.7259999661728287
 51
53.9756726550997286
  0
ARC
  5
E041
  8
0
 10
4179.8521759792383818
 20
218.3757751954520927
 30
0.0
 40
0.1633978964362952
 50
359.7405655038846817
 51
27.5324642410653517
  0
LINE
  5
E042
  8
0
 10
4180.0155722006320502
 20
218.3750353345679116
 30
0.0
 11
4180.0163608764096352
 21
218.3342332040679992
 31
0.0
  0
ARC
  5
E043
  8
0
 10
4179.8211223059579424
 20
218.3428049959796908
 30
0.0
 40
0.1954266486667906
 50
316.3902536810755919
 51
357.4860894519459862
  0
ARC
  5
E044
  8
0
 10
4179.1155675956297273
 20
219.0704660221057907
 30
0.0
 40
1.20885474030559
 50
305.8439140842551751
 51
314.4838396068159909
  0
ARC
  5
E045
  8
0
 10
4179.8477712719986812
 20
218.3256299882646942
 30
0.0
 40
0.1688089749910102
 50
2.9212995934502128
 51
43.5647670288247681
  0
ARC
  5
E046
  8
0
 10
4179.551991708622154
 20
218.002163083742289
 30
0.0
 40
0.6068235615451791
 50
46.4494664117163865
 51
76.5608338613593844
  0
ARC
  5
E047
  8
0
 10
4179.4554223775867285
 20
217.8617278379772983
 30
0.0
 40
0.824715235405093
 50
56.4834103177897617
 51
79.3308769616525069
  0
ARC
  5
E048
  8
0
 10
4179.4533290076051344
 20
217.8592194970302955
 30
0.0
 40
0.504365562285663
 50
47.9575532668810922
 51
80.6483718754899854
  0
ARC
  5
E049
  8
0
 10
4179.7081805951365823
 20
218.1481036247438112
 30
0.0
 40
0.1192306417268443
 50
357.6110534053299261
 51
45.9412715292410212
  0
LINE
  5
E04A
  8
0
 10
4179.8273076123323335
 20
218.1431337453680044
 30
0.0
 11
4179.7573706239309104
 21
217.1903748046680107
 31
0.0
  0
ARC
  5
E04B
  8
0
 10
4179.5452987047237912
 20
217.2349567094211125
 30
0.0
 40
0.2167072798687129
 50
288.0735419307516167
 51
348.1281109974951278
  0
ARC
  5
E04C
  8
0
 10
4179.3427880401459333
 20
217.6457995749998133
 30
0.0
 40
0.6732560633123899
 50
281.2822158819229799
 51
293.6189439055527259
  0
ARC
  5
E04D
  8
0
 10
4179.5911875583851725
 20
217.1616839106455075
 30
0.0
 40
0.1692893024245794
 50
10.8015927947373704
 51
65.4495416203898799
  0
ARC
  5
E04E
  8
0
 10
4179.3478977498061795
 20
216.7122640444202943
 30
0.0
 40
0.6800441916184342
 50
62.5361728135384922
 51
82.1197235760994886
  0
ARC
  5
E04F
  8
0
 10
4179.3741219793237178
 20
216.8679321850385975
 30
0.0
 40
0.4624540410929784
 50
54.4625600724064327
 51
82.005629143522313
  0
ARC
  5
E050
  8
0
 10
4179.6055032114609276
 20
217.1918687533731998
 30
0.0
 40
0.0643684034597107
 50
321.1075775391112757
 51
54.4625600724054806
  0
ARC
  5
E051
  8
0
 10
4179.4059337874659832
 20
217.3916588694497136
 30
0.0
 40
0.3464575242869738
 50
278.8366855247988951
 51
316.1068415594156136
  0
LINE
  5
E052
  8
0
 10
4178.8265958226320436
 20
214.0225900737679865
 30
0.0
 11
4178.8265958226320436
 21
213.9668133194680024
 31
0.0
  0
LINE
  5
E053
  8
0
 10
4178.7616351927308642
 20
213.9668133194680024
 30
0.0
 11
4178.7616351927308642
 21
213.6242936343680014
 31
0.0
  0
ARC
  5
E054
  8
0
 10
4178.722265114091897
 20
213.6242936343680014
 30
0.0
 40
0.0393700786401023
 50
291.999999876167692
 51
0.0
  0
ARC
  5
E055
  8
0
 10
4182.4437749316703048
 20
204.2942597519270009
 30
0.0
 40
10.0054880779398694
 50
111.7447811477995003
 51
112.2552188663372021
  0
ARC
  5
E056
  8
0
 10
4178.6691155077678559
 20
213.5178958040262103
 30
0.0
 40
0.039370078836523
 50
112.0000001740388029
 51
179.9999999392589984
  0
LINE
  5
E057
  8
0
 10
4178.6297454289306188
 20
213.5178958040679049
 30
0.0
 11
4178.6297454289306188
 21
213.3487030832679068
 31
0.0
  0
ARC
  5
E058
  8
0
 10
4178.6692834595169188
 20
213.3487694250131028
 30
0.0
 40
0.0395380862434773
 50
180.0961377787108972
 51
265.8902998545557921
  0
ARC
  5
E059
  8
0
 10
4178.8373727950320244
 20
213.2896479650680135
 30
0.0
 40
0.0196850393999988
 50
90.0
 51
180.0000000000032117
  0
LINE
  5
E05A
  8
0
 10
4178.8176877556306863
 20
213.2896479650680135
 30
0.0
 11
4178.868406846230755
 21
212.1959793193678934
 31
0.0
  0
ARC
  5
E05B
  8
0
 10
4178.9470623980596429
 20
212.199628508438991
 30
0.0
 40
0.0787401575710796
 50
182.6563072412714916
 51
269.9999999792601102
  0
LINE
  5
E05C
  8
0
 10
4178.7813201741319062
 20
214.0225900737679865
 30
0.0
 11
4178.7616350805319598
 21
214.0422751649678901
 31
0.0
  0
LINE
  5
E05D
  8
0
 10
4178.7616350805319598
 20
214.0422751649678901
 30
0.0
 11
4178.7616350805319598
 21
214.3060546406680089
 31
0.0
  0
ARC
  5
E05E
  8
0
 10
4172.6269365592315808
 20
215.1978262931446864
 30
0.0
 40
0.0650000000000041
 50
36.5300363997060415
 51
119.9264747815013976
  0
ARC
  5
E05F
  8
0
 10
4172.7113095099957718
 20
215.260327468683613
 30
0.0
 40
0.0400009131599009
 50
216.530036399706006
 51
298.0089669088686719
  0
ARC
  5
E060
  8
0
 10
4172.6080024870916532
 20
215.4545463870175865
 30
0.0
 40
0.2599857517740107
 50
298.0089669088686719
 51
337.4858214602339217
  0
ARC
  5
E061
  8
0
 10
4172.8823532779606467
 20
215.3408270206541886
 30
0.0
 40
0.0369998551777461
 50
359.9988734220124229
 51
157.485821460230909
  0
LINE
  5
E062
  8
0
 10
4172.9193531331311533
 20
215.340826293144687
 30
0.0
 11
4172.9193531331393388
 21
214.9248255656353024
 31
0.0
  0
LINE
  5
E063
  8
0
 10
4172.6791681780014187
 20
215.2365155424444936
 30
0.0
 11
4172.6791681780014187
 21
215.0291370438449121
 31
0.0
  0
ARC
  5
E064
  8
0
 10
4172.9393531331134
 20
215.326054855763914
 30
0.0
 40
0.0199999999742673
 50
118.8623028004442972
 51
180.0000000548378125
  0
ARC
  5
E065
  8
0
 10
4173.851667994383206
 20
213.6708262912653993
 30
0.0
 40
1.9100000017800689
 50
76.5485420256699456
 51
118.8623028004442972
  0
ARC
  5
E066
  8
0
 10
4176.2752268963113238
 20
223.8034862431329941
 30
0.0
 40
8.5084660777968502
 50
256.5485420256699172
 51
264.1742218437154861
  0
ARC
  5
E067
  8
0
 10
4175.4303045775277496
 20
215.6333706164878947
 30
0.0
 40
0.2950000000428005
 50
266.3616721670604761
 51
303.4177776348632847
  0
ARC
  5
E068
  8
0
 10
4175.6153531331319755
 20
215.3529191374447009
 30
0.0
 40
0.040999999999996
 50
0.0
 51
123.4177776492828968
  0
LINE
  5
E069
  8
0
 10
4175.6563531331321428
 20
215.4038262931495922
 30
0.0
 11
4175.6563531331321428
 21
214.8618262931398135
 31
0.0
  0
ARC
  5
E06A
  8
0
 10
4175.7003531331256454
 20
215.4038262931495922
 30
0.0
 40
0.0439999999942331
 50
18.7174693083937598
 51
180.0
  0
ARC
  5
E06B
  8
0
 10
4175.926713016132453
 20
215.4805218180144095
 30
0.0
 40
0.1950000003585784
 50
198.7174693083921966
 51
275.2949134787452863
  0
LINE
  5
E06C
  8
0
 10
4175.9447080432310031
 20
215.3156303274409993
 30
0.0
 11
4175.9447080432310031
 21
214.9500222588484917
 31
0.0
  0
ARC
  5
E06D
  8
0
 10
4176.3128162950306432
 20
215.1328262926261914
 30
0.0
 40
0.411000000228489
 50
26.4091792166766695
 51
153.590820783323295
  0
ARC
  5
E06E
  8
0
 10
4177.0671162656308297
 20
215.1328262931446886
 30
0.0
 40
0.0599999999999925
 50
300.9122232947809721
 51
59.0877767052206266
  0
ARC
  5
E06F
  8
0
 10
4177.2777432279472123
 20
215.4845879782845088
 30
0.0
 40
0.3500000004712205
 50
208.2221041022231134
 51
239.087776658341312
  0
ARC
  5
E070
  8
0
 10
4176.8962177992407305
 20
215.2798262930471935
 30
0.0
 40
0.0830000000948744
 50
28.22210417726982
 51
133.8425992304917997
  0
ARC
  5
E071
  8
0
 10
4176.7010842342024262
 20
215.4868139559866052
 30
0.0
 40
0.2014712032874832
 50
264.2572376043625013
 51
313.0926656937792245
  0
LINE
  5
E072
  8
0
 10
4176.6809245468321024
 20
215.3156303274409993
 30
0.0
 11
4176.6809245468321024
 21
214.9500222610948867
 31
0.0
  0
ARC
  5
E073
  8
0
 10
4172.6269365592315808
 20
215.0678262931446909
 30
0.0
 40
0.0650000000000041
 50
240.0735252184985882
 51
323.4699636002940224
  0
ARC
  5
E074
  8
0
 10
4172.7113095099957718
 20
215.0053251176057927
 30
0.0
 40
0.0400009131599009
 50
61.9910330911313565
 51
143.4699636002939087
  0
ARC
  5
E075
  8
0
 10
4172.6080024870916532
 20
214.8111061992717907
 30
0.0
 40
0.2599857517740107
 50
22.5141785397676202
 51
61.9910330911313565
  0
ARC
  5
E076
  8
0
 10
4172.8823532779606467
 20
214.9248255656353024
 30
0.0
 40
0.0369998551777461
 50
202.514178539769091
 51
0.0011265779859649
  0
ARC
  5
E077
  8
0
 10
4172.9393531331134
 20
214.9395977305256054
 30
0.0
 40
0.0199999999742673
 50
179.9999999451621022
 51
241.1376971995557881
  0
ARC
  5
E078
  8
0
 10
4173.851667994383206
 20
216.5948262950240917
 30
0.0
 40
1.9100000017800689
 50
241.1376971995557881
 51
283.4514579743300828
  0
ARC
  5
E079
  8
0
 10
4176.2752268963113238
 20
206.4621663431564969
 30
0.0
 40
8.5084660777968502
 50
95.8257781562844855
 51
103.4514579743299976
  0
ARC
  5
E07A
  8
0
 10
4175.4303045775277496
 20
214.6322819698015962
 30
0.0
 40
0.2950000000428005
 50
56.5822223651366372
 51
93.6383278329394244
  0
ARC
  5
E07B
  8
0
 10
4175.6153531331319755
 20
214.9127334488447048
 30
0.0
 40
0.040999999999996
 50
236.5822223507171032
 51
0.0
  0
ARC
  5
E07C
  8
0
 10
4175.7003531331256454
 20
214.8618262931398135
 30
0.0
 40
0.0439999999942331
 50
180.0
 51
341.2825306916078034
  0
ARC
  5
E07D
  8
0
 10
4175.926713016132453
 20
214.7851307682751099
 30
0.0
 40
0.1950000003585784
 50
84.7050865212547137
 51
161.2825306916062118
  0
ARC
  5
E07E
  8
0
 10
4176.3128162944740325
 20
215.1328262927634967
 30
0.0
 40
0.4109999993286873
 50
206.4091791389095931
 51
333.5908212107623854
  0
ARC
  5
E07F
  8
0
 10
4177.2777432279472123
 20
214.7810646080050105
 30
0.0
 40
0.3500000004712205
 50
120.9122233416586027
 51
151.7778958977768866
  0
ARC
  5
E080
  8
0
 10
4176.8962177992407305
 20
214.9858262932422122
 30
0.0
 40
0.0830000000948744
 50
226.1574007695082003
 51
331.7778958227302155
  0
ARC
  5
E081
  8
0
 10
4176.7010842342024262
 20
214.7788386303028005
 30
0.0
 40
0.2014712032874832
 50
46.9073343062207968
 51
95.7427623956374134
  0
ARC
  5
E082
  8
0
 10
4172.6643531331628765
 20
215.1328262931446886
 30
0.0
 40
0.1400000000320963
 50
119.9264534213291995
 51
240.0735465786715963
  0
ARC
  5
E083
  8
0
 10
4176.3128162950306432
 20
215.1328262942678862
 30
0.0
 40
1.1614173227999991
 50
191.6038072633459137
 51
326.9888760451855774
  0
ARC
  5
E084
  8
0
 10
4176.3128162950306432
 20
215.1328262942678862
 30
0.0
 40
1.1614173227999991
 50
32.429314883678579
 51
168.3961928468361009
  0
ARC
  5
E085
  8
0
 10
4176.3128162950306432
 20
215.1328262942678862
 30
0.0
 40
0.7678190416
 50
199.0520338546197934
 51
355.1884303181429914
  0
ARC
  5
E086
  8
0
 10
4176.3128162950306432
 20
215.1328262942678862
 30
0.0
 40
0.7678190416
 50
4.811569503170011
 51
160.9479663717646076
  0
ARC
  5
E087
  8
0
 10
4176.3128162950306432
 20
215.1328262942678862
 30
0.0
 40
0.6594488189000001
 50
207.5570574671617976
 51
340.4382776210413795
  0
ARC
  5
E088
  8
0
 10
4176.3128162950306432
 20
215.1328262942678862
 30
0.0
 40
0.6594488189000001
 50
19.5617221254711495
 51
152.4429426872044075
  0
ARC
  5
E089
  8
0
 10
4176.8321455032983067
 20
216.0317639895604032
 30
0.0
 40
0.2708526845039331
 50
242.990764967079599
 51
268.8928569741432284
  0
LINE
  5
E08A
  8
0
 10
4176.826912063733289
 20
215.7609618702680052
 30
0.0
 11
4178.1326792489307991
 21
215.7460741638678883
 31
0.0
  0
ARC
  5
E08B
  8
0
 10
4178.1336876507803026
 20
215.9822769135047054
 30
0.0
 40
0.2362049021723614
 50
269.7553931144532271
 51
0.0036550185747034
  0
LINE
  5
E08C
  8
0
 10
4178.3698925524722654
 20
215.9822919815134128
 30
0.0
 11
4178.3698924249520132
 21
216.5403066091679989
 31
0.0
  0
ARC
  5
E08D
  8
0
 10
3580.5781460845250876
 20
-53.1700703137870718
 30
0.0
 40
655.1967447933311632
 50
24.0941886567163799
 51
24.0976859913166805
  0
ARC
  5
E08E
  8
0
 10
4178.6030561773995942
 20
214.3104148065706056
 30
0.0
 40
0.0787378573194536
 50
24.0976859910645302
 51
85.4030250364609174
  0
ARC
  5
E08F
  8
0
 10
4175.7929839731223183
 20
188.8082789325580109
 30
0.0
 40
25.7351929062545786
 50
83.7171368873670332
 51
87.6162557798865151
  0
ARC
  5
E090
  8
0
 10
4176.8598497109505843
 20
214.2511059487206069
 30
0.0
 40
0.2701193728305902
 50
89.2539481091829572
 51
119.4615255341488051
  0
ARC
  5
E091
  8
0
 10
4178.2231568535871702
 20
214.7333602632602947
 30
0.0
 40
0.5669681469100327
 50
319.8819134738008074
 51
359.1036240713444272
  0
ARC
  5
E092
  8
0
 10
4178.6026444406088558
 20
214.7528142899660963
 30
0.0
 40
0.1895393945978126
 50
351.4058456460297748
 51
13.7858437023551001
  0
ARC
  5
E093
  8
0
 10
4175.0413987148658634
 20
213.8285817589768953
 30
0.0
 40
3.8687457382518269
 50
14.5113502439809192
 51
20.7642520564417303
  0
ARC
  5
E094
  8
0
 10
4177.1845792807798716
 20
214.7207462692909132
 30
0.0
 40
1.550264350690032
 50
18.013184813421649
 51
44.4137522220175285
  0
ARC
  5
E095
  8
0
 10
4178.2900122591481704
 20
216.5720102043871123
 30
0.0
 40
0.0318832435177495
 50
187.3982200252328028
 51
263.9148390570177867
  0
LINE
  5
E096
  8
0
 10
4178.2583944384323331
 20
216.5679047652679117
 30
0.0
 11
4178.1083185381166913
 21
217.7977776602573954
 31
0.0
  0
ARC
  5
E097
  8
0
 10
4178.273429368116922
 20
217.7802378393186871
 30
0.0
 40
0.1660398491394727
 50
157.4775781826616878
 51
173.9361772353967126
  0
LINE
  5
E098
  8
0
 10
4178.1200534273320955
 20
217.8438385648678945
 30
0.0
 11
4178.2567863069298255
 21
218.0660294941378936
 31
0.0
  0
ARC
  5
E099
  8
0
 10
4178.438800547001847
 20
218.1393616892972034
 30
0.0
 40
0.039370078870711
 50
89.9999997803033551
 51
179.9999997515612904
  0
LINE
  5
E09A
  8
0
 10
4178.3994304681318681
 20
218.1393616894679042
 30
0.0
 11
4178.3994304678763001
 21
218.0803065713679132
 31
0.0
  0
ARC
  5
E09B
  8
0
 10
4178.2823360564307222
 20
218.0503065713679121
 30
0.0
 40
0.0299999999999995
 50
90.0
 51
148.3924977536935899
  0
LINE
  5
E09C
  8
0
 10
4178.6587898383322681
 20
219.6442507057680018
 30
0.0
 11
4178.6493838976393818
 21
218.5758192551425054
 31
0.0
  0
ARC
  5
E09D
  8
0
 10
4179.1370788087224355
 20
218.0120863871314043
 30
0.0
 40
0.7454133569853832
 50
97.9584348822725559
 51
133.8867469206232101
  0
ARC
  5
E09E
  8
0
 10
4178.7959902133115975
 20
218.3077574186733898
 30
0.0
 40
0.2986729543095152
 50
126.0243273449002004
 51
151.2740000338272068
  0
ARC
  5
E09F
  8
0
 10
4178.6789684216264504
 20
218.3757751954520927
 30
0.0
 40
0.1633978964362952
 50
152.4675357589345879
 51
180.259434496113613
  0
LINE
  5
E0A0
  8
0
 10
4178.5155722002318726
 20
218.3750353345679116
 30
0.0
 11
4178.5147835244542875
 21
218.3342332040679992
 31
0.0
  0
ARC
  5
E0A1
  8
0
 10
4178.7100220949059803
 20
218.3428049959796908
 30
0.0
 40
0.1954266486667906
 50
182.5139105480539001
 51
223.6097463189242944
  0
ARC
  5
E0A2
  8
0
 10
4179.415576805233286
 20
219.0704660221057907
 30
0.0
 40
1.20885474030559
 50
225.5161603931838954
 51
234.1560859157447112
  0
ARC
  5
E0A3
  8
0
 10
4178.6833731288652416
 20
218.3256299882646942
 30
0.0
 40
0.1688089749910102
 50
136.4352329711751963
 51
177.0787004065498138
  0
ARC
  5
E0A4
  8
0
 10
4178.9791526922408593
 20
218.002163083742289
 30
0.0
 40
0.6068235615451791
 50
103.4391661386406014
 51
133.5505335882835993
  0
ARC
  5
E0A5
  8
0
 10
4179.0757220232762847
 20
217.8617278379772983
 30
0.0
 40
0.824715235405093
 50
100.6691230383474931
 51
123.5165896822101956
  0
ARC
  5
E0A6
  8
0
 10
4179.0778153932587884
 20
217.8592194970302955
 30
0.0
 40
0.504365562285663
 50
99.351628124510043
 51
132.0424467331189078
  0
ARC
  5
E0A7
  8
0
 10
4178.8229638057273405
 20
218.1481036247438112
 30
0.0
 40
0.1192306417268443
 50
134.0587284707590072
 51
182.3889465946701023
  0
LINE
  5
E0A8
  8
0
 10
4178.7038367885306798
 20
218.1431337453680044
 30
0.0
 11
4178.7737737769311934
 21
217.1903748046680107
 31
0.0
  0
ARC
  5
E0A9
  8
0
 10
4178.9858456961401316
 20
217.2349567094211125
 30
0.0
 40
0.2167072798687129
 50
191.8718890025049006
 51
251.9264580692484117
  0
ARC
  5
E0AA
  8
0
 10
4179.18835636071708
 20
217.6457995749998133
 30
0.0
 40
0.6732560633123899
 50
246.3810560944473025
 51
258.717784118077077
  0
ARC
  5
E0AB
  8
0
 10
4178.9399568424769313
 20
217.1616839106455075
 30
0.0
 40
0.1692893024245794
 50
114.5504583796101059
 51
169.1984072052626118
  0
ARC
  5
E0AC
  8
0
 10
4179.1832466510568338
 20
216.7122640444202943
 30
0.0
 40
0.6800441916184342
 50
97.880276423900483
 51
117.4638271864615007
  0
ARC
  5
E0AD
  8
0
 10
4179.1570224215392955
 20
216.8679321850385975
 30
0.0
 40
0.4624540410929784
 50
97.9943708564776728
 51
125.5374399275935957
  0
ARC
  5
E0AE
  8
0
 10
4178.9256411894020857
 20
217.1918687533731998
 30
0.0
 40
0.0643684034597107
 50
125.5374399275945052
 51
218.8924224608886959
  0
ARC
  5
E0AF
  8
0
 10
4179.1252106133970301
 20
217.3916588694497136
 30
0.0
 40
0.3464575242869738
 50
223.8931584405845001
 51
261.1633144752011049
  0
ARC
  5
E0B0
  8
0
 10
4179.2655722004310519
 20
219.6427481000899888
 30
0.0
 40
0.6067842225861491
 50
0.1418841301447131
 51
179.8581158698553111
  0
ARC
  5
E0B1
  8
0
 10
4179.2655722004310519
 20
218.0334353051617882
 30
0.0
 40
1.0685075490827209
 50
258.7239002581230238
 51
281.2760997418769762
  0
ARC
  5
E0B2
  8
0
 10
4179.2655722004310519
 20
217.9499422837471911
 30
0.0
 40
0.9211984235657897
 50
257.8692363174830007
 51
282.1307636825169993
  0
ARC
  5
E0B3
  8
0
 10
4179.2655722004310519
 20
216.3494190962807124
 30
0.0
 40
0.9916561509295168
 50
79.9608849229811369
 51
100.0391150770188062
  0
ARC
  5
E0B4
  8
0
 10
4179.2655994814786027
 20
216.2565982467274068
 30
0.0
 40
1.142857520136048
 50
81.1392997058206475
 51
98.8379638897492327
  0
ARC
  5
E0B5
  8
0
 10
4179.2655722004310519
 20
217.1119287023770141
 30
0.0
 40
1.27383411932218
 50
77.7760721526866234
 51
102.2239278473642941
  0
ARC
  5
E0B6
  8
0
 10
4179.2655722004310519
 20
216.9894998186960038
 30
0.0
 40
1.6588879995698009
 50
75.067882101544086
 51
104.9321178984558998
  0
ARC
  5
E0B7
  8
0
 10
4179.2655722004310519
 20
217.024336725078598
 30
0.0
 40
1.683073902483992
 50
78.2572528016149533
 51
101.7427471983340013
  0
ARC
  5
E0B8
  8
0
 10
4179.2655722004310519
 20
217.3816214929709929
 30
0.0
 40
1.388172019822989
 50
80.3918099507340145
 51
99.6081900492659997
  0
ARC
  5
E0B9
  8
0
 10
4311.9772004878295775
 20
235.1768068294501006
 30
0.0
 40
123.2324627646210047
 50
180.6980275721055875
 51
181.7641795494598966
  0
ARC
  5
E0BA
  8
0
 10
4160.7429305324121742
 20
230.5187193248187896
 30
0.0
 40
28.0735258417427289
 50
350.49812915088728
 51
1.7641795494599311
  0
ARC
  5
E0BB
  8
0
 10
4107.6486948979563749
 20
240.190848813549195
 30
0.0
 40
82.0396504038331216
 50
336.7600843772498251
 51
342.0927162619437922
  0
ARC
  5
E0BC
  8
0
 10
4107.6486948979563749
 20
240.190848813549195
 30
0.0
 40
82.0396504038331216
 50
342.2843392005328838
 51
349.9571167705644825
  0
ARC
  5
E0BD
  8
0
 10
4112.8269700758692125
 20
230.6518760056636097
 30
0.0
 40
75.4277680396924808
 50
359.670091263920483
 51
2.298255946622723
  0
ARC
  5
E0BE
  8
0
 10
4163.0341860441567405
 20
230.362779978693311
 30
0.0
 40
25.2197197625571583
 50
351.7673318319256168
 51
359.670091263920483
  0
ARC
  5
E0BF
  8
0
 10
4109.7663556462421184
 20
239.5142618193262933
 30
0.0
 40
79.2619352448585062
 50
336.1889113684064228
 51
341.7720691225583778
  0
ARC
  5
E0C0
  8
0
 10
4109.7663556462421184
 20
239.5142618193262933
 30
0.0
 40
79.2619352448585062
 50
342.3474530448439168
 51
350.7338807450535114
  0
ARC
  5
E0C1
  8
0
 10
4166.0671927003040764
 20
214.5120561262573062
 30
0.0
 40
17.6599768383498699
 50
324.4659823970100092
 51
336.6565938509414764
  0
ARC
  5
E0C2
  8
0
 10
4179.3241033625490672
 20
204.9945934466516917
 30
0.0
 40
1.341080214150032
 50
290.6464241112576019
 51
326.1879030124060819
  0
ARC
  5
E0C3
  8
0
 10
4181.4321814929044194
 20
204.8152273881667043
 30
0.0
 40
1.9572428024888311
 50
183.6952965493292993
 51
213.3354231389712083
  0
ARC
  5
E0C4
  8
0
 10
4234.8893396763669443
 20
207.1873412208464913
 30
0.0
 40
55.4666220112588633
 50
176.9849772562766077
 51
182.5815188822683126
  0
ARC
  5
E0C5
  8
0
 10
4096.7330858507611993
 20
212.9764320020412924
 30
0.0
 40
82.8162127520386662
 50
358.0128588826439113
 51
359.4080879731722007
  0
ARC
  5
E0C6
  8
0
 10
4166.8791559645460438
 20
214.2578284319990019
 30
0.0
 40
17.3884233853142582
 50
322.481292808763726
 51
338.2679119881179872
  0
ARC
  5
E0C7
  8
0
 10
4179.6634284176652727
 20
204.4434839286350893
 30
0.0
 40
1.2713844030153401
 50
276.1063052892729957
 51
322.4095834091797883
  0
ARC
  5
E0C8
  8
0
 10
4179.8954095407543718
 20
203.9983549433119094
 30
0.0
 40
0.8247352040384539
 50
191.0036031141449087
 51
263.2638309045120195
  0
ARC
  5
E0C9
  8
0
 10
4193.6794205389160197
 20
206.5734037094723874
 30
0.0
 40
14.8471901631424803
 50
176.4310280639990083
 51
190.605127003190006
  0
ARC
  5
E0CA
  8
0
 10
3369.2481786538119195
 20
233.1259114024342125
 30
0.0
 40
810.0183760493176806
 50
358.1869093090261913
 51
358.5140656965826906
  0
ARC
  5
E0CB
  8
0
 10
4185.904207841632342
 20
215.1978262931446864
 30
0.0
 40
0.0650000000000041
 50
60.0735252184985669
 51
143.4699636002939087
  0
ARC
  5
E0CC
  8
0
 10
4185.8198348908672415
 20
215.260327468683613
 30
0.0
 40
0.0400009131599009
 50
241.9910330911312997
 51
323.4699636002940224
  0
ARC
  5
E0CD
  8
0
 10
4185.9231419137713601
 20
215.4545463870175865
 30
0.0
 40
0.2599857517740107
 50
202.5141785397661067
 51
241.9910330911312997
  0
ARC
  5
E0CE
  8
0
 10
4185.6487911229023666
 20
215.3408270206541886
 30
0.0
 40
0.0369998551777484
 50
22.5141785397706187
 51
179.9999999999967031
  0
LINE
  5
E0CF
  8
0
 10
4185.6117912677236745
 20
215.3408270206541886
 30
0.0
 11
4185.6117912677236745
 21
214.9248255656353024
 31
0.0
  0
LINE
  5
E0D0
  8
0
 10
4185.8519762228615946
 20
215.2365155424444936
 30
0.0
 11
4185.8519762228615946
 21
215.0291370438449121
 31
0.0
  0
ARC
  5
E0D1
  8
0
 10
4185.5917912677496133
 20
215.326054855763914
 30
0.0
 40
0.0199999999742673
 50
359.9999999451620738
 51
61.137697199555717
  0
ARC
  5
E0D2
  8
0
 10
4184.6794764064807168
 20
213.6708262912653993
 30
0.0
 40
1.9100000017800689
 50
61.137697199555717
 51
103.4514579743299976
  0
ARC
  5
E0D3
  8
0
 10
4182.2559175045516895
 20
223.8034862431329941
 30
0.0
 40
8.5084660777968502
 50
275.8257781562845139
 51
283.4514579743300828
  0
ARC
  5
E0D4
  8
0
 10
4183.1008398233361731
 20
215.6333706164878947
 30
0.0
 40
0.2950000000428005
 50
236.5822223651366869
 51
273.6383278329394102
  0
ARC
  5
E0D5
  8
0
 10
4182.9157912677310378
 20
215.3529191374447009
 30
0.0
 40
0.040999999999996
 50
56.5822223507171103
 51
180.0
  0
LINE
  5
E0D6
  8
0
 10
4182.87479126773178
 20
215.4038262931495922
 30
0.0
 11
4182.87479126773178
 21
214.8618262931398135
 31
0.0
  0
ARC
  5
E0D7
  8
0
 10
4182.8307912677373679
 20
215.4038262931495922
 30
0.0
 40
0.0439999999942331
 50
0.0
 51
161.2825306916062118
  0
ARC
  5
E0D8
  8
0
 10
4182.6044313847305602
 20
215.4805218180144095
 30
0.0
 40
0.1950000003585784
 50
264.7050865212547137
 51
341.2825306916078034
  0
LINE
  5
E0D9
  8
0
 10
4182.5864363576320102
 20
215.3156303274409993
 30
0.0
 11
4182.5864363576320102
 21
214.9500222588484917
 31
0.0
  0
ARC
  5
E0DA
  8
0
 10
4182.2183281058323701
 20
215.1328262926261914
 30
0.0
 40
0.4110000002284894
 50
26.4091792166781296
 51
153.590820783323295
  0
ARC
  5
E0DB
  8
0
 10
4181.4640281352321836
 20
215.1328262931446886
 30
0.0
 40
0.0599999999999925
 50
120.9122232947792952
 51
239.0877767052188858
  0
ARC
  5
E0DC
  8
0
 10
4181.253401172915801
 20
215.4845879782845088
 30
0.0
 40
0.3500000004712205
 50
300.9122233416587164
 51
331.7778958977768866
  0
ARC
  5
E0DD
  8
0
 10
4181.6349266016222828
 20
215.2798262930471935
 30
0.0
 40
0.0830000000948744
 50
46.1574007695082216
 51
151.7778958227301018
  0
ARC
  5
E0DE
  8
0
 10
4181.8300601666633156
 20
215.4868139559866052
 30
0.0
 40
0.2014712032874832
 50
226.9073343062208039
 51
275.742762395637385
  0
LINE
  5
E0DF
  8
0
 10
4181.8502198540318204
 20
215.3156303274409993
 30
0.0
 11
4181.8502198540318204
 21
214.9500222610948867
 31
0.0
  0
ARC
  5
E0E0
  8
0
 10
4185.904207841632342
 20
215.0678262931446909
 30
0.0
 40
0.0650000000000041
 50
216.5300363997046986
 51
299.9264747815014971
  0
ARC
  5
E0E1
  8
0
 10
4185.8198348908672415
 20
215.0053251176057927
 30
0.0
 40
0.0400009131599009
 50
36.5300363997060415
 51
118.0089669088686009
  0
ARC
  5
E0E2
  8
0
 10
4185.9231419137713601
 20
214.8111061992717907
 30
0.0
 40
0.2599857517740107
 50
118.0089669088686009
 51
157.4858214602323869
  0
ARC
  5
E0E3
  8
0
 10
4185.6487911229023666
 20
214.9248255656353024
 30
0.0
 40
0.0369998551777461
 50
179.9988734220123945
 51
337.4858214602307953
  0
ARC
  5
E0E4
  8
0
 10
4185.5917912677496133
 20
214.9395977305256054
 30
0.0
 40
0.0199999999742673
 50
298.8623028004442972
 51
0.0000000548378516
  0
ARC
  5
E0E5
  8
0
 10
4184.6794764064807168
 20
216.5948262950240917
 30
0.0
 40
1.9100000017800689
 50
256.5485420256699172
 51
298.8623028004442972
  0
ARC
  5
E0E6
  8
0
 10
4182.2559175045516895
 20
206.4621663431564969
 30
0.0
 40
8.5084660777968502
 50
76.5485420256699456
 51
84.1742218437155145
  0
ARC
  5
E0E7
  8
0
 10
4183.1008398233361731
 20
214.6322819698015962
 30
0.0
 40
0.2950000000428005
 50
86.361672167060604
 51
123.4177776348632989
  0
ARC
  5
E0E8
  8
0
 10
4182.9157912677310378
 20
214.9127334488447048
 30
0.0
 40
0.040999999999996
 50
180.0
 51
303.4177776492829253
  0
ARC
  5
E0E9
  8
0
 10
4182.8307912677373679
 20
214.8618262931398135
 30
0.0
 40
0.0439999999942331
 50
198.7174693083921966
 51
0.0
  0
ARC
  5
E0EA
  8
0
 10
4182.6044313847305602
 20
214.7851307682751099
 30
0.0
 40
0.1950000003585784
 50
18.7174693083937598
 51
95.2949134787452721
  0
ARC
  5
E0EB
  8
0
 10
4182.2183281063889808
 20
215.1328262927634967
 30
0.0
 40
0.4109999993286873
 50
206.4091787892376999
 51
333.5908208610903216
  0
ARC
  5
E0EC
  8
0
 10
4181.253401172915801
 20
214.7810646080050105
 30
0.0
 40
0.3500000004712205
 50
28.2221041022231205
 51
59.0877766583413617
  0
ARC
  5
E0ED
  8
0
 10
4181.6349266016222828
 20
214.9858262932422122
 30
0.0
 40
0.0830000000948744
 50
208.2221041772698129
 51
313.8425992304918282
  0
ARC
  5
E0EE
  8
0
 10
4181.8300601666633156
 20
214.7788386303028005
 30
0.0
 40
0.2014712032874832
 50
84.2572376043625866
 51
133.0926656937791961
  0
ARC
  5
E0EF
  8
0
 10
4185.8667912677001368
 20
215.1328262931446886
 30
0.0
 40
0.1400000000320963
 50
299.92645342132829
 51
60.0735465786708218
  0
ARC
  5
E0F1
  8
0
 10
4188.4830705753911388
 20
241.7140702884962025
 30
0.0
 40
0.0163075007463187
 50
312.4321467855859282
 51
37.5996950543634014
  0
ARC
  5
E0F2
  8
0
 10
4188.4759403287798705
 20
241.7216937670268919
 30
0.0
 40
0.0267453745575686
 50
217.5923314898466003
 51
312.6870406153090016
  0
ARC
  5
E0F3
  8
0
 10
4188.4680315199939287
 20
241.7141271440164871
 30
0.0
 40
0.0159058808929741
 50
153.7770878470522007
 51
213.370753392602694
  0
ARC
  5
E0F4
  8
0
 10
4188.4759360486241349
 20
241.7069734308967099
 30
0.0
 40
0.0263208626621462
 50
40.3647263624424113
 51
147.3972936572021979
  0
ARC
  5
E0F5
  8
0
 10
4188.4820331580049242
 20
241.733825817394802
 30
0.0
 40
0.0638081396161144
 50
297.0523826459893826
 51
345.8703988503760911
  0
ARC
  5
E0F6
  8
0
 10
4188.4753570173306798
 20
241.7645939153053121
 30
0.0
 40
0.0945892540384408
 50
239.1918360515415998
 51
292.1716863631227739
  0
ARC
  5
E0F7
  8
0
 10
4188.4505671496463037
 20
241.7209932185101877
 30
0.0
 40
0.044456821179572
 50
189.4396215744087897
 51
237.8525666187902914
  0
LINE
  5
E0F8
  8
0
 10
4188.4067123191089195
 20
241.7137019368755944
 30
0.0
 11
4188.4023332038359513
 21
241.733865449979703
 31
0.0
  0
ARC
  5
E0F9
  8
0
 10
4188.4682913777196518
 20
241.7427016039945897
 30
0.0
 40
0.0665474140741958
 50
134.6250747412883868
 51
187.6302574724263934
  0
ARC
  5
E0FA
  8
0
 10
4188.4764726331613929
 20
241.7378940406954939
 30
0.0
 40
0.0757555749814085
 50
72.2536789815870861
 51
136.4750699060973034
  0
ARC
  5
E0FB
  8
0
 10
4188.4765778516421051
 20
241.7317190576960968
 30
0.0
 40
0.0816287273726788
 50
32.5186748683424582
 51
73.645252421818725
  0
ARC
  5
E0FC
  8
0
 10
4188.5144061094388235
 20
241.757468601266595
 30
0.0
 40
0.0359154315365556
 50
351.3163852515032772
 51
30.3215266097318512
  0
LINE
  5
E0FD
  8
0
 10
4188.5499098460977621
 20
241.7520461566483903
 30
0.0
 11
4188.543910847773077
 21
241.7182492262963933
 31
0.0
  0
ARC
  5
E0FE
  8
0
 10
4188.4930150782238343
 20
241.7242584586809926
 30
0.0
 40
0.0512492949402101
 50
353.2662970031108216
 51
44.9297726543164728
  0
ARC
  5
E0FF
  8
0
 10
4188.4757186968627138
 20
241.7027968591669094
 30
0.0
 40
0.0787080853961828
 50
47.0987483063922525
 51
139.9811637228908978
  0
ARC
  5
E100
  8
0
 10
4188.4586926080137346
 20
241.7230879199451863
 30
0.0
 40
0.0528208965833013
 50
144.9675257771328063
 51
190.23549990160069
  0
ARC
  5
E101
  8
0
 10
4188.4830705753911388
 20
242.2296411007745007
 30
0.0
 40
0.0163075007463187
 50
312.4321467855859282
 51
37.5996950543634014
  0
ARC
  5
E102
  8
0
 10
4188.4759403287798705
 20
242.2372645793053039
 30
0.0
 40
0.0267453745575686
 50
217.5923314898466003
 51
312.6870406153090016
  0
ARC
  5
E103
  8
0
 10
4188.4680315199939287
 20
242.2296979562948991
 30
0.0
 40
0.0159058808929741
 50
153.7770878470522007
 51
213.370753392602694
  0
ARC
  5
E104
  8
0
 10
4188.4759360486241349
 20
242.2225442431750082
 30
0.0
 40
0.0263208626621462
 50
40.3647263624424113
 51
147.3972936572021979
  0
ARC
  5
E105
  8
0
 10
4188.4820331580049242
 20
242.2493966296732992
 30
0.0
 40
0.0638081396161144
 50
297.0523826459893826
 51
345.8703988503760911
  0
ARC
  5
E106
  8
0
 10
4188.4753570173306798
 20
242.2801647275836956
 30
0.0
 40
0.0945892540384408
 50
239.1918360515415998
 51
292.1716863631227739
  0
ARC
  5
E107
  8
0
 10
4188.4505671496463037
 20
242.2365640307885997
 30
0.0
 40
0.044456821179572
 50
189.4396215744087897
 51
237.8525666187902914
  0
LINE
  5
E108
  8
0
 10
4188.4067123191089195
 20
242.2292727491540063
 30
0.0
 11
4188.4023332038359513
 21
242.2494362622580013
 31
0.0
  0
ARC
  5
E109
  8
0
 10
4188.4682913777196518
 20
242.2582724162730017
 30
0.0
 40
0.0665474140741958
 50
134.6250747412883868
 51
187.6302574724263934
  0
ARC
  5
E10A
  8
0
 10
4188.4764726331613929
 20
242.2534648529739059
 30
0.0
 40
0.0757555749814085
 50
72.2536789815870861
 51
136.4750699060973034
  0
ARC
  5
E10B
  8
0
 10
4188.4765778516421051
 20
242.2472898699743951
 30
0.0
 40
0.0816287273726788
 50
32.5186748683424582
 51
73.645252421818725
  0
ARC
  5
E10C
  8
0
 10
4188.5144061094388235
 20
242.2730394135450069
 30
0.0
 40
0.0359154315365556
 50
351.3163852515032772
 51
30.3215266097318512
  0
LINE
  5
E10D
  8
0
 10
4188.5499098460977621
 20
242.2676169689268022
 30
0.0
 11
4188.543910847773077
 21
242.2338200385748053
 31
0.0
  0
ARC
  5
E10E
  8
0
 10
4188.4930150782238343
 20
242.2398292709594045
 30
0.0
 40
0.0512492949402101
 50
353.2662970031108216
 51
44.9297726543164728
  0
ARC
  5
E10F
  8
0
 10
4188.4757186968627138
 20
242.2183676714452929
 30
0.0
 40
0.0787080853961828
 50
47.0987483063922525
 51
139.9811637228908978
  0
ARC
  5
E110
  8
0
 10
4188.4586926080137346
 20
242.2386587322235982
 30
0.0
 40
0.0528208965833013
 50
144.9675257771328063
 51
190.23549990160069
  0
ENDSEC
  0
EOF
