  0
SECTION
  2
HEADER
  9
$ACADVER
  1
AC1009
  9
$INSBASE
 10
4170.7710135995857854
 20
214.7268610286280932
 30
0.0
  9
$EXTMIN
 10
4159.4470965556938609
 20
202.7733477849189114
 30
0.0
  9
$EXTMAX
 10
4170.7710135995857854
 20
242.7398485215468895
 30
0.0
  9
$LIMMIN
 10
0.0
 20
0.0
  9
$LIMMAX
 10
11.6929133858000007
 20
8.2677165353999982
  9
$ORTHOMODE
 70
     0
  9
$REGENMODE
 70
     1
  9
$FILLMODE
 70
     1
  9
$QTEXTMODE
 70
     0
  9
$MIRRTEXT
 70
     0
  9
$DRAGMODE
 70
     2
  9
$LTSCALE
 40
0.6431102362
  9
$OSMODE
 70
  3839
  9
$ATTMODE
 70
     1
  9
$TEXTSIZE
 40
0.2
  9
$TRACEWID
 40
0.05
  9
$TEXTSTYLE
  7
STANDARD
  9
$CLAYER
  8
0
  9
$CELTYPE
  6
BYLAYER
  9
$CECOLOR
 62
   256
  9
$DIMSCALE
 40
1.0
  9
$DIMASZ
 40
0.1875
  9
$DIMEXO
 40
0.0625
  9
$DIMDLI
 40
0.4443307087
  9
$DIMRND
 40
0.0
  9
$DIMDLE
 40
0.0
  9
$DIMEXE
 40
0.125
  9
$DIMTP
 40
0.01
  9
$DIMTM
 40
0.01
  9
$DIMTXT
 40
2.0
  9
$DIMCEN
 40
0.1052362205
  9
$DIMTSZ
 40
0.0
  9
$DIMTOL
 70
     1
  9
$DIMLIM
 70
     0
  9
$DIMTIH
 70
     1
  9
$DIMTOH
 70
     1
  9
$DIMSE1
 70
     0
  9
$DIMSE2
 70
     0
  9
$DIMTAD
 70
     0
  9
$DIMZIN
 70
     0
  9
$DIMBLK
  1

  9
$DIMASO
 70
     1
  9
$DIMSHO
 70
     1
  9
$DIMPOST
  1
\X
  9
$DIMAPOST
  1

  9
$DIMALT
 70
     1
  9
$DIMALTD
 70
     2
  9
$DIMALTF
 40
25.3999999999999986
  9
$DIMLFAC
 40
1.0
  9
$DIMTOFL
 70
     0
  9
$DIMTVP
 40
0.0
  9
$DIMTIX
 70
     0
  9
$DIMSOXD
 70
     0
  9
$DIMSAH
 70
     0
  9
$DIMBLK1
  1

  9
$DIMBLK2
  1

  9
$DIMSTYLE
  2
STANDARD
  9
$DIMCLRD
 70
     0
  9
$DIMCLRE
 70
     0
  9
$DIMCLRT
 70
     0
  9
$DIMTFAC
 40
1.0
  9
$DIMGAP
 40
0.09
  9
$LUNITS
 70
     2
  9
$LUPREC
 70
     4
  9
$SKETCHINC
 40
0.1
  9
$FILLETRAD
 40
0.0
  9
$AUNITS
 70
     0
  9
$AUPREC
 70
     0
  9
$MENU
  1
.
  9
$ELEVATION
 40
0.0
  9
$PELEVATION
 40
0.0
  9
$THICKNESS
 40
0.0
  9
$LIMCHECK
 70
     0
  9
$BLIPMODE
 70
     0
  9
$CHAMFERA
 40
0.0
  9
$CHAMFERB
 40
0.0
  9
$SKPOLY
 70
     0
  9
$TDCREATE
 40
2458060.468368056230247
  9
$TDUPDATE
 40
2459118.7530671302229166
  9
$TDINDWG
 40
0.601546412
  9
$TDUSRTIMER
 40
0.601546412
  9
$USRTIMER
 70
     1
  9
$ANGBASE
 50
0.0
  9
$ANGDIR
 70
     0
  9
$PDMODE
 70
     0
  9
$PDSIZE
 40
0.3125
  9
$PLINEWID
 40
0.0
  9
$COORDS
 70
     1
  9
$SPLFRAME
 70
     0
  9
$SPLINETYPE
 70
     6
  9
$SPLINESEGS
 70
     8
  9
$ATTDIA
 70
     1
  9
$ATTREQ
 70
     1
  9
$HANDLING
 70
     1
  9
$HANDSEED
  5
DDBE
  9
$SURFTAB1
 70
     6
  9
$SURFTAB2
 70
     6
  9
$SURFTYPE
 70
     6
  9
$SURFU
 70
     6
  9
$SURFV
 70
     6
  9
$UCSNAME
  2

  9
$UCSORG
 10
0.0
 20
0.0
 30
0.0
  9
$UCSXDIR
 10
1.0
 20
0.0
 30
0.0
  9
$UCSYDIR
 10
0.0
 20
1.0
 30
0.0
  9
$PUCSNAME
  2

  9
$PUCSORG
 10
0.0
 20
0.0
 30
0.0
  9
$PUCSXDIR
 10
1.0
 20
0.0
 30
0.0
  9
$PUCSYDIR
 10
0.0
 20
1.0
 30
0.0
  9
$USERI1
 70
     0
  9
$USERI2
 70
     0
  9
$USERI3
 70
     0
  9
$USERI4
 70
     0
  9
$USERI5
 70
     0
  9
$USERR1
 40
0.0
  9
$USERR2
 40
0.0
  9
$USERR3
 40
0.0
  9
$USERR4
 40
0.0
  9
$USERR5
 40
0.0
  9
$WORLDVIEW
 70
     1
  9
$SHADEDGE
 70
     3
  9
$SHADEDIF
 70
    70
  9
$TILEMODE
 70
     1
  9
$MAXACTVP
 70
    64
  9
$PLIMCHECK
 70
     0
  9
$PEXTMIN
 10
1.0000000000000000E+20
 20
1.0000000000000000E+20
 30
1.0000000000000000E+20
  9
$PEXTMAX
 10
-1.0000000000000000E+20
 20
-1.0000000000000000E+20
 30
-1.0000000000000000E+20
  9
$PLIMMIN
 10
0.0
 20
0.0
  9
$PLIMMAX
 10
12.0
 20
9.0
  9
$UNITMODE
 70
     0
  9
$VISRETAIN
 70
     1
  9
$PLINEGEN
 70
     0
  9
$PSLTSCALE
 70
     1
  0
ENDSEC
  0
SECTION
  2
TABLES
  0
TABLE
  2
VPORT
 70
     1
  0
VPORT
  2
*ACTIVE
 70
     0
 10
0.0
 20
0.0
 11
1.0
 21
1.0
 12
0.0
 22
0.0
 13
0.0
 23
0.0
 14
1.0
 24
1.0
 15
0.0
 25
0.0
 16
0.0
 26
0.0
 36
172.4505444868260042
 17
4165.109130859375
 27
222.7563018798828125
 37
0.0
 40
41.5388563851360431
 41
3.314341846758349
 42
50.0
 43
0.0
 44
0.0
 50
0.0
 51
0.0
 71
     0
 72
   100
 73
     1
 74
     1
 75
     0
 76
     0
 77
     0
 78
     0
  0
ENDTAB
  0
TABLE
  2
LTYPE
 70
     2
  0
LTYPE
  2
CONTINUOUS
 70
     0
  3
Solid line
 72
    65
 73
     0
 40
0.0
  0
LTYPE
  2
PHANTOM2
 70
     0
  3
___ _ _ ___ _ _ ___ _ _ ___ _ _
 72
    65
 73
     6
 40
1.25
 49
0.625
 49
-0.125
 49
0.125
 49
-0.125
 49
0.125
 49
-0.125
  0
ENDTAB
  0
TABLE
  2
LAYER
 70
     2
  0
LAYER
  2
0
 70
     0
 62
   255
  6
CONTINUOUS
  0
LAYER
  2
DEFPOINTS
 70
     0
 62
     7
  6
CONTINUOUS
  0
ENDTAB
  0
TABLE
  2
STYLE
 70
     1
  0
STYLE
  2
STANDARD
 70
     0
 40
0.0
 41
0.8
 50
0.0
 71
     0
 42
0.2
  3
txt
  4

  0
ENDTAB
  0
TABLE
  2
VIEW
 70
     0
  0
ENDTAB
  0
TABLE
  2
UCS
 70
     0
  0
ENDTAB
  0
TABLE
  2
APPID
 70
     9
  0
APPID
  2
ACAD
 70
     0
  0
APPID
  2
ACAD_MLEADERVER
 70
     0
  0
APPID
  2
ACAD_EXEMPT_FROM_CAD_STANDARDS
 70
     0
  0
APPID
  2
ACAD_NAV_VCDISPLAY
 70
     0
  0
APPID
  2
ACAECLAYERSTANDARD
 70
     0
  0
APPID
  2
ACCMTRANSPARENCY
 70
     0
  0
APPID
  2
ACAD_DSTYLE_DIMJAG
 70
     0
  0
APPID
  2
ACAD_DSTYLE_DIMTALN
 70
     0
  0
APPID
  2
ACDBATTR
 70
     0
  0
ENDTAB
  0
TABLE
  2
DIMSTYLE
 70
     1
  0
DIMSTYLE
  2
STANDARD
 70
     0
  3

  4

  5

  6

  7

 40
1.0
 41
0.1875
 42
0.0625
 43
0.38
 44
0.125
 45
0.0
 46
0.0
 47
0.01
 48
0.01
140
0.15625
141
0.09
142
0.0
143
25.3999999999999986
144
1.0
145
0.0
146
1.0
147
0.09
 71
     1
 72
     0
 73
     1
 74
     1
 75
     0
 76
     0
 77
     0
 78
     4
170
     0
171
     2
172
     0
173
     0
174
     0
175
     0
176
     0
177
     0
178
     0
  0
ENDTAB
  0
ENDSEC
  0
SECTION
  2
BLOCKS
  0
BLOCK
  8
0
  2
$MODEL_SPACE
 70
     0
 10
0.0
 20
0.0
 30
0.0
  3
$MODEL_SPACE
  1

  0
ENDBLK
  5
21
  8
0
  0
BLOCK
 67
     1
  8
0
  2
$PAPER_SPACE
 70
     0
 10
0.0
 20
0.0
 30
0.0
  3
$PAPER_SPACE
  1

  0
ENDBLK
  5
1D
 67
     1
  8
0
  0
BLOCK
  8
0
  2
_FILLED
 70
     0
 10
0.0
 20
0.0
 30
0.0
  3
_FILLED
  1

  0
SOLID
  5
6F59
  8
0
  6
BYBLOCK
 62
     0
 10
0.0
 20
0.0
 30
0.0
 11
-1.0
 21
0.1666666667
 31
0.0
 12
-1.0
 22
-0.1666666667
 32
0.0
 13
-1.0
 23
-0.1666666667
 33
0.0
  0
ENDBLK
  5
6F5A
  8
0
  6
BYBLOCK
 62
     0
  0
ENDSEC
  0
SECTION
  2
ENTITIES
  0
ATTDEF
  5
3930
  8
DEFPOINTS
 10
4170.759044449528119
 20
214.7257296845473888
 30
0.0
 40
0.001
  1
K-72654T-4M
  3

  2
MODELNUMBER
 70
     0
1001
ACDBATTR
1070
     0
1070
     1
  0
ATTDEF
  5
3931
  8
DEFPOINTS
 10
4170.759044449528119
 20
214.7240630178806953
 30
0.0
 40
0.001
  1
FINIAL
  3

  2
TRADENAME
 70
     0
1001
ACDBATTR
1070
     0
1070
     1
  0
ATTDEF
  5
3932
  8
DEFPOINTS
 10
4170.759044449528119
 20
214.722396351214087
 30
0.0
 40
0.001
  1
BATH AND SHOWER FAUCET
  3

  2
PRODUCT
 70
     0
1001
ACDBATTR
1070
     0
1070
     1
  0
LINE
  5
D938
  8
0
 10
4164.1914564663602505
 20
238.5707006131065953
 30
0.0
 11
4161.5807955897898864
 21
242.1639859819725018
 31
0.0
  0
LINE
  5
D939
  8
0
 10
4161.598473009808913
 20
242.1396549724233012
 30
0.0
 11
4161.5921522611915861
 21
242.1350112718864978
 31
0.0
  0
ARC
  5
D93A
  8
0
 10
4161.599145796765697
 20
242.1254920576380982
 30
0.0
 40
0.0118120692403003
 50
126.3038214362591987
 51
200.2936818069885021
  0
LINE
  5
D93B
  8
0
 10
4161.5880669358957675
 20
242.1213952513770948
 30
0.0
 11
4161.6909400228960294
 21
241.8546141800489977
 31
0.0
  0
LINE
  5
D93C
  8
0
 10
4161.6679801113159556
 20
241.9141528659054075
 30
0.0
 11
4161.6276314771575926
 21
241.8751883976318027
 31
0.0
  0
ARC
  5
D93D
  8
0
 10
4161.6440416489740528
 20
241.8581952741936902
 30
0.0
 40
0.0236232932339083
 50
134.0001801609489007
 51
215.9656882324848084
  0
LINE
  5
D93E
  8
0
 10
4161.6249216913793134
 20
241.8443212983816863
 30
0.0
 11
4161.7133388739166548
 21
241.7224721036328106
 31
0.0
  0
ARC
  5
D93F
  8
0
 10
4161.7324282947720349
 20
241.7363239211343
 30
0.0
 40
0.0235855641595388
 50
215.9656882324781861
 51
294.3549279492227129
  0
LINE
  5
D940
  8
0
 10
4161.7421546962259526
 20
241.7148372752467935
 30
0.0
 11
4161.7621906814392787
 21
241.7237850083124897
 31
0.0
  0
ARC
  5
D941
  8
0
 10
4161.7620397423979739
 20
241.7241148708984895
 30
0.0
 40
0.0003636475115623
 50
294.5833264334199271
 51
331.6718293737820886
  0
ARC
  5
D942
  8
0
 10
4161.7421443225039184
 20
241.7239919717860914
 30
0.0
 40
0.0202155794830901
 50
359.8592535755527138
 51
18.5426841525782002
  0
ARC
  5
D943
  8
0
 10
4160.9777356738341041
 20
241.4728247528396992
 30
0.0
 40
0.8248303634521391
 50
18.1980017550223003
 51
28.4362980386050417
  0
ARC
  5
D944
  8
0
 10
4161.7026663030710552
 20
241.8652242296871009
 30
0.0
 40
0.0005310589661018
 50
44.0730261193277428
 51
135.2123459216138031
  0
LINE
  5
D945
  8
0
 10
4161.7022893985458722
 20
241.8655983507966027
 30
0.0
 11
4161.6625287262841084
 21
241.8271104296028113
 31
0.0
  0
ARC
  5
D946
  8
0
 10
4161.6791361378664078
 20
241.8100509033322965
 30
0.0
 40
0.0238082665483258
 50
134.2306188763799923
 51
212.0418772123775
  0
LINE
  5
D947
  8
0
 10
4164.1737787050196857
 20
238.5950320924440007
 30
0.0
 11
4164.1100846573499439
 21
238.5492632760658012
 31
0.0
  0
ARC
  5
D948
  8
0
 10
4161.6283422363176214
 20
236.7205483822988015
 30
0.0
 40
3.082733139120398
 50
33.6441355473853321
 51
36.3852882403841917
  0
ARC
  5
D949
  8
0
 10
4163.8399569500006692
 20
238.1756506747215099
 30
0.0
 40
0.43562409008121
 50
24.2539982701297916
 51
35.4782539984618595
  0
ARC
  5
D94A
  8
0
 10
4163.9766433645381767
 20
238.2321702772576941
 30
0.0
 40
0.2878223036051024
 50
357.8877061311753778
 51
25.1732423498992084
  0
ARC
  5
D94B
  8
0
 10
4164.1783599685868467
 20
238.218726619604098
 30
0.0
 40
0.0859568930145334
 50
292.802675495888991
 51
1.890095441271687
  0
ARC
  5
D94C
  8
0
 10
4164.0546029418828766
 20
238.5782190827877969
 30
0.0
 40
0.4660003649674967
 50
271.4488189808719198
 51
289.6978907917961124
  0
ARC
  5
D94D
  8
0
 10
4164.0776234037357426
 20
238.3743756110181096
 30
0.0
 40
0.2622488210530172
 50
201.2053323913644078
 51
267.5439572482487733
  0
ARC
  5
D94E
  8
0
 10
4164.4341125234896026
 20
238.4799348093623053
 30
0.0
 40
0.6335183480832867
 50
168.5098457310535878
 51
198.4427165504968968
  0
ARC
  5
D94F
  8
0
 10
4162.0414356583460176
 20
238.8002158436954971
 30
0.0
 40
1.782452954079222
 50
353.7488880219249268
 51
357.4216437514101017
  0
ARC
  5
D950
  8
0
 10
4187.1463535526672786
 20
239.1180564389597976
 30
0.0
 40
23.3276653097213185
 50
180.7084722619073034
 51
180.9776494460379013
  0
LINE
  5
D951
  8
0
 10
4161.8035422402663244
 20
241.7234407452899063
 30
0.0
 11
4161.7650210679394149
 21
241.6859084693039961
 31
0.0
  0
ARC
  5
D952
  8
0
 10
4161.7815103738757898
 20
241.6689847049217121
 30
0.0
 40
0.0236286057800747
 50
134.2550450346907098
 51
217.280013916328187
  0
LINE
  5
D953
  8
0
 10
4161.7627094510526149
 20
241.6546726012273041
 30
0.0
 11
4161.8145201103288855
 21
241.5833612405874078
 31
0.0
  0
ARC
  5
D954
  8
0
 10
4161.835132193267782
 20
241.5957838140082004
 30
0.0
 40
0.0240661233578888
 50
211.0766992422628903
 51
293.5976458344470075
  0
LINE
  5
D955
  8
0
 10
4161.8447661363388761
 20
241.573730119660496
 30
0.0
 11
4161.8652713505298379
 21
241.5829652340761982
 31
0.0
  0
ARC
  5
D956
  8
0
 10
4161.8605732347559751
 20
241.594536775035408
 30
0.0
 40
0.012488909159518
 50
292.097450618792891
 51
296.734105119236915
  0
ARC
  5
D957
  8
0
 10
4161.8655346785481015
 20
241.5844668619795925
 30
0.0
 40
0.0012673854712654
 50
301.2084974659903196
 51
333.4163547788853066
  0
ARC
  5
D958
  8
0
 10
4161.8190772323678175
 20
241.585885093841398
 30
0.0
 40
0.0476322414240848
 50
357.6111237329503751
 51
20.4019325234535707
  0
ARC
  5
D959
  8
0
 10
4161.3197137209408538
 20
241.4249670557722993
 30
0.0
 40
0.5722401838258684
 50
18.0727485060955502
 51
29.6617129736729197
  0
ARC
  5
D95A
  8
0
 10
4161.7587740693361411
 20
241.6763230994770879
 30
0.0
 40
0.0663324005626309
 50
28.6790451796562493
 51
44.8485780425594527
  0
ARC
  5
D95B
  8
0
 10
4161.8044780925338273
 20
241.7219744287224898
 30
0.0
 40
0.0017396652781199
 50
40.4487572925923402
 51
122.5164051746323963
  0
LINE
  5
D95C
  8
0
 10
4161.8436543596362753
 20
241.5573429570308974
 30
0.0
 11
4161.8051331873075469
 21
241.5198106810447882
 31
0.0
  0
ARC
  5
D95D
  8
0
 10
4161.8216224932448313
 20
241.5028869166625896
 30
0.0
 40
0.0236286057800747
 50
134.2550450346907098
 51
217.280013916328187
  0
LINE
  5
D95E
  8
0
 10
4161.8028215704225659
 20
241.4885748129682099
 30
0.0
 11
4161.854632229697927
 21
241.4172634523283136
 31
0.0
  0
ARC
  5
D95F
  8
0
 10
4161.8752443126368235
 20
241.4296860257491062
 30
0.0
 40
0.0240661233578888
 50
211.0766992422628903
 51
293.5976458344470075
  0
LINE
  5
D960
  8
0
 10
4161.8848782557079176
 20
241.4076323314014019
 30
0.0
 11
4161.9053834698988794
 21
241.416867445817104
 31
0.0
  0
ARC
  5
D961
  8
0
 10
4161.9006853541250166
 20
241.4284389867763139
 30
0.0
 40
0.012488909159518
 50
292.097450618792891
 51
296.734105119236915
  0
ARC
  5
D962
  8
0
 10
4161.9056467979180525
 20
241.4183690737204984
 30
0.0
 40
0.0012673854712654
 50
301.2084974659903196
 51
333.4163547788853066
  0
ARC
  5
D963
  8
0
 10
4161.859189351736859
 20
241.4197873055823891
 30
0.0
 40
0.0476322414240848
 50
357.6111237329503751
 51
20.4019325234535707
  0
ARC
  5
D964
  8
0
 10
4161.3598258403089858
 20
241.2588692675132052
 30
0.0
 40
0.5722401838258684
 50
18.0727485060955502
 51
29.6617129736729197
  0
ARC
  5
D965
  8
0
 10
4161.7988861887042731
 20
241.5102253112179085
 30
0.0
 40
0.0663324005626309
 50
28.6790451796562493
 51
44.8485780425594527
  0
ARC
  5
D966
  8
0
 10
4161.8445902119037783
 20
241.5558766404633957
 30
0.0
 40
0.0017396652781199
 50
40.4487572925923402
 51
122.5164051746323963
  0
LINE
  5
D967
  8
0
 10
4161.9706955917490632
 20
241.4995602786300992
 30
0.0
 11
4161.9321744194221537
 21
241.462028002644189
 31
0.0
  0
ARC
  5
D968
  8
0
 10
4161.9486637253567096
 20
241.445104238261905
 30
0.0
 40
0.0236286057800747
 50
134.2550450346907098
 51
217.280013916328187
  0
LINE
  5
D969
  8
0
 10
4161.9298628025353537
 20
241.430792134567497
 30
0.0
 11
4161.9816734618116243
 21
241.3594807739276007
 31
0.0
  0
ARC
  5
D96A
  8
0
 10
4162.0022855447496113
 20
241.3719033473483933
 30
0.0
 40
0.0240661233578888
 50
211.0766992422628903
 51
293.5976458344470075
  0
LINE
  5
D96B
  8
0
 10
4162.0119194878207054
 20
241.3498496530006889
 30
0.0
 11
4162.0324247020107578
 21
241.3590847674163911
 31
0.0
  0
ARC
  5
D96C
  8
0
 10
4162.0277265862368949
 20
241.3706563083756009
 30
0.0
 40
0.012488909159518
 50
292.097450618792891
 51
296.734105119236915
  0
ARC
  5
D96D
  8
0
 10
4162.0326880300299308
 20
241.3605863953198138
 30
0.0
 40
0.0012673854712654
 50
301.2084974659903196
 51
333.4163547788853066
  0
ARC
  5
D96E
  8
0
 10
4161.9862305838505563
 20
241.3620046271815909
 30
0.0
 40
0.0476322414240848
 50
357.6111237329503751
 51
20.4019325234535707
  0
ARC
  5
D96F
  8
0
 10
4161.4868670724217736
 20
241.2010865891124922
 30
0.0
 40
0.5722401838258684
 50
18.0727485060955502
 51
29.6617129736729197
  0
ARC
  5
D970
  8
0
 10
4161.9259274208179704
 20
241.4524426328171955
 30
0.0
 40
0.0663324005626309
 50
28.6790451796562493
 51
44.8485780425594527
  0
ARC
  5
D971
  8
0
 10
4161.9716314440165661
 20
241.4980939620627112
 30
0.0
 40
0.0017396652781199
 50
40.4487572925923402
 51
122.5164051746323963
  0
LINE
  5
D972
  8
0
 10
4161.9488112217859452
 20
241.3929386701099133
 30
0.0
 11
4161.9102900494581263
 21
241.3554063941238041
 31
0.0
  0
ARC
  5
D973
  8
0
 10
4161.9267793553935917
 20
241.3384826297416055
 30
0.0
 40
0.0236286057800747
 50
134.2550450346907098
 51
217.280013916328187
  0
LINE
  5
D974
  8
0
 10
4161.9079784325731453
 20
241.3241705260471974
 30
0.0
 11
4161.9597890918475969
 21
241.2528591654073011
 31
0.0
  0
ARC
  5
D975
  8
0
 10
4161.9804011747874029
 20
241.2652817388280937
 30
0.0
 40
0.0240661233578888
 50
211.0766992422628903
 51
293.5976458344470075
  0
LINE
  5
D976
  8
0
 10
4161.9900351178594065
 20
241.2432280444803894
 30
0.0
 11
4162.0105403320476398
 21
241.2524631588960915
 31
0.0
  0
ARC
  5
D977
  8
0
 10
4162.0058422162746865
 20
241.2640346998553014
 30
0.0
 40
0.012488909159518
 50
292.097450618792891
 51
296.734105119236915
  0
ARC
  5
D978
  8
0
 10
4162.0108036600668129
 20
241.2539647867994859
 30
0.0
 40
0.0012673854712654
 50
301.2084974659903196
 51
333.4163547788853066
  0
ARC
  5
D979
  8
0
 10
4161.9643462138874384
 20
241.255383018661405
 30
0.0
 40
0.0476322414240848
 50
357.6111237329503751
 51
20.4019325234535707
  0
ARC
  5
D97A
  8
0
 10
4161.4649827024595652
 20
241.0944649805923063
 30
0.0
 40
0.5722401838258684
 50
18.0727485060955502
 51
29.6617129736729197
  0
ARC
  5
D97B
  8
0
 10
4161.904043050855762
 20
241.3458210242970097
 30
0.0
 40
0.0663324005626309
 50
28.6790451796562493
 51
44.8485780425594527
  0
ARC
  5
D97C
  8
0
 10
4161.9497470740534482
 20
241.3914723535424116
 30
0.0
 40
0.0017396652781199
 50
40.4487572925923402
 51
122.5164051746323963
  0
LINE
  5
D97D
  8
0
 10
4161.993332614098108
 20
241.2447131669854059
 30
0.0
 11
4161.9637616574746062
 21
241.2159013412257025
 31
0.0
  0
ARC
  5
D97E
  8
0
 10
4161.9802509634109811
 20
241.1989775768433901
 30
0.0
 40
0.0236286057800747
 50
134.2550450346907098
 51
217.280013916328187
  0
LINE
  5
D97F
  8
0
 10
4161.9614500405887156
 20
241.1846654731490105
 30
0.0
 11
4162.0132606998649862
 21
241.1133541125091142
 31
0.0
  0
ARC
  5
D980
  8
0
 10
4162.0338727828038827
 20
241.125776685929992
 30
0.0
 40
0.0240661233578888
 50
211.0766992422628903
 51
293.5976458344470075
  0
LINE
  5
D981
  8
0
 10
4162.0435067258749768
 20
241.1037229915822877
 30
0.0
 11
4162.0640119400650292
 21
241.1129581059979046
 31
0.0
  0
ARC
  5
D982
  8
0
 10
4162.0593138242920759
 20
241.1245296469571997
 30
0.0
 40
0.012488909159518
 50
292.097450618792891
 51
296.734105119236915
  0
ARC
  5
D983
  8
0
 10
4162.0642752680842023
 20
241.1144597339012989
 30
0.0
 40
0.0012673854712654
 50
301.2084974659903196
 51
333.4163547788853066
  0
ARC
  5
D984
  8
0
 10
4162.0178178219039182
 20
241.1158779657631896
 30
0.0
 40
0.0476322414240848
 50
357.6111237329503751
 51
20.4019325234535707
  0
ARC
  5
D985
  8
0
 10
4161.5184543104760451
 20
240.954959927694091
 30
0.0
 40
0.5722401838258684
 50
18.0727485060955502
 51
29.6617129736729197
  0
ARC
  5
D986
  8
0
 10
4161.9575146588722419
 20
241.2063159713987943
 30
0.0
 40
0.0663324005626309
 50
28.6790451796562493
 51
42.0676109807044227
  0
LINE
  5
D987
  8
0
 10
4162.1821500134728922
 20
241.2013632788851112
 30
0.0
 11
4162.1436288411450732
 21
241.1638310028990873
 31
0.0
  0
ARC
  5
D988
  8
0
 10
4162.1601181470814481
 20
241.1469072385168033
 30
0.0
 40
0.0236286057800747
 50
134.2550450346907098
 51
217.280013916328187
  0
LINE
  5
D989
  8
0
 10
4162.1413172242591827
 20
241.1325951348223953
 30
0.0
 11
4162.1931278835363628
 21
241.061283774182499
 31
0.0
  0
ARC
  5
D98A
  8
0
 10
4162.2137399664743498
 20
241.0737063476032915
 30
0.0
 40
0.0240661233578888
 50
211.0766992422628903
 51
293.5976458344470075
  0
LINE
  5
D98B
  8
0
 10
4162.2233739095454439
 20
241.0516526532555872
 30
0.0
 11
4162.2438791237345868
 21
241.0608877676712893
 31
0.0
  0
ARC
  5
D98C
  8
0
 10
4162.2391810079607239
 20
241.0724593086304992
 30
0.0
 40
0.012488909159518
 50
292.097450618792891
 51
296.734105119236915
  0
ARC
  5
D98D
  8
0
 10
4162.2441424517537598
 20
241.0623893955747121
 30
0.0
 40
0.0012673854712654
 50
301.2084974659903196
 51
333.4163547788853066
  0
ARC
  5
D98E
  8
0
 10
4162.1976850055743853
 20
241.0638076274366028
 30
0.0
 40
0.0476322414240848
 50
357.6111237329503751
 51
20.4019325234535707
  0
ARC
  5
D98F
  8
0
 10
4161.6983214941456026
 20
240.9028895893673905
 30
0.0
 40
0.5722401838258684
 50
18.0727485060955502
 51
29.6617129736729197
  0
ARC
  5
D990
  8
0
 10
4162.1373818425417994
 20
241.1542456330720938
 30
0.0
 40
0.0663324005626309
 50
28.6790451796562493
 51
44.8485780425594527
  0
ARC
  5
D991
  8
0
 10
4162.1830858657403951
 20
241.1998969623176095
 30
0.0
 40
0.0017396652781199
 50
40.4487572925923402
 51
122.5164051746323963
  0
LINE
  5
D992
  8
0
 10
4162.1296549419503208
 20
241.0825164619132011
 30
0.0
 11
4162.0911337696234114
 21
241.0449841859270919
 31
0.0
  0
ARC
  5
D993
  8
0
 10
4162.1076230755579672
 20
241.0280604215448932
 30
0.0
 40
0.0236286057800747
 50
134.2550450346907098
 51
217.280013916328187
  0
LINE
  5
D994
  8
0
 10
4162.0888221527357018
 20
241.0137483178505136
 30
0.0
 11
4162.1406328120128819
 21
240.9424369572105036
 31
0.0
  0
ARC
  5
D995
  8
0
 10
4162.1612448949517784
 20
240.9548595306314098
 30
0.0
 40
0.0240661233578888
 50
211.0766992422628903
 51
293.5976458344470075
  0
LINE
  5
D996
  8
0
 10
4162.1708788380228725
 20
240.9328058362837055
 30
0.0
 11
4162.1913840522129249
 21
240.9420409506994076
 31
0.0
  0
ARC
  5
D997
  8
0
 10
4162.1866859364390621
 20
240.9536124916585891
 30
0.0
 40
0.012488909159518
 50
292.097450618792891
 51
296.734105119236915
  0
ARC
  5
D998
  8
0
 10
4162.1916473802320979
 20
240.943542578602802
 30
0.0
 40
0.0012673854712654
 50
301.2084974659903196
 51
333.4163547788853066
  0
ARC
  5
D999
  8
0
 10
4162.1451899340518139
 20
240.9449608104646927
 30
0.0
 40
0.0476322414240848
 50
357.6111237329503751
 51
20.4019325234535707
  0
ARC
  5
D99A
  8
0
 10
4161.6458264226230312
 20
240.7840427723955088
 30
0.0
 40
0.5722401838258684
 50
18.0727485060955502
 51
29.6617129736729197
  0
ARC
  5
D99B
  8
0
 10
4162.084886771019228
 20
241.0353988161002121
 30
0.0
 40
0.0663324005626309
 50
28.6790451796562493
 51
44.8485780425594527
  0
ARC
  5
D99C
  8
0
 10
4162.1305907942178237
 20
241.0810501453456993
 30
0.0
 40
0.0017396652781199
 50
40.4487572925923402
 51
122.5164051746323963
  0
LINE
  5
D99D
  8
0
 10
4162.436156631324593
 20
240.8524021880826069
 30
0.0
 11
4162.3976354589958646
 21
240.8148699120966114
 31
0.0
  0
ARC
  5
D99E
  8
0
 10
4162.4141247649322395
 20
240.7979461477142991
 30
0.0
 40
0.0236286057800747
 50
134.2550450346907098
 51
217.280013916328187
  0
LINE
  5
D99F
  8
0
 10
4162.3953238421108836
 20
240.7836340440200047
 30
0.0
 11
4162.4471345013871542
 21
240.7123226833799947
 31
0.0
  0
ARC
  5
D9A0
  8
0
 10
4162.4677465843260507
 20
240.7247452568007873
 30
0.0
 40
0.0240661233578888
 50
211.0766992422628903
 51
293.5976458344470075
  0
LINE
  5
D9A1
  8
0
 10
4162.4773805273962353
 20
240.7026915624531114
 30
0.0
 11
4162.4978857415871971
 21
240.7119266768688135
 31
0.0
  0
ARC
  5
D9A2
  8
0
 10
4162.4931876258133343
 20
240.7234982178279949
 30
0.0
 40
0.012488909159518
 50
292.097450618792891
 51
296.734105119236915
  0
ARC
  5
D9A3
  8
0
 10
4162.4981490696045512
 20
240.7134283047722079
 30
0.0
 40
0.0012673854712654
 50
301.2084974659903196
 51
333.4163547788853066
  0
ARC
  5
D9A4
  8
0
 10
4162.4516916234251767
 20
240.7148465366340986
 30
0.0
 40
0.0476322414240848
 50
357.6111237329503751
 51
20.4019325234535707
  0
ARC
  5
D9A5
  8
0
 10
4161.9523281119973035
 20
240.5539284985649999
 30
0.0
 40
0.5722401838258684
 50
18.0727485060955502
 51
29.6617129736729197
  0
ARC
  5
D9A6
  8
0
 10
4162.3913884603944098
 20
240.8052845422697033
 30
0.0
 40
0.0663324005626309
 50
28.6790451796562493
 51
44.8485780425594527
  0
ARC
  5
D9A7
  8
0
 10
4162.437092483592096
 20
240.8509358715151052
 30
0.0
 40
0.0017396652781199
 50
40.4487572925923402
 51
122.5164051746323963
  0
LINE
  5
D9A8
  8
0
 10
4162.324975646495659
 20
240.9106921415892941
 30
0.0
 11
4162.2864544741687496
 21
240.8731598656032986
 31
0.0
  0
ARC
  5
D9A9
  8
0
 10
4162.302943780104215
 20
240.8562361012210999
 30
0.0
 40
0.0236286057800747
 50
134.2550450346907098
 51
217.280013916328187
  0
LINE
  5
D9AA
  8
0
 10
4162.2841428572819495
 20
240.8419239975266066
 30
0.0
 11
4162.3359535165582201
 21
240.7706126368867103
 31
0.0
  0
ARC
  5
D9AB
  8
0
 10
4162.3565655994971166
 20
240.7830352103075882
 30
0.0
 40
0.0240661233578888
 50
211.0766992422628903
 51
293.5976458344470075
  0
LINE
  5
D9AC
  8
0
 10
4162.3661995425682107
 20
240.7609815159597986
 30
0.0
 11
4162.3867047567582631
 21
240.7702166303755007
 31
0.0
  0
ARC
  5
D9AD
  8
0
 10
4162.3820066409844003
 20
240.7817881713347106
 30
0.0
 40
0.012488909159518
 50
292.097450618792891
 51
296.734105119236915
  0
ARC
  5
D9AE
  8
0
 10
4162.3869680847774362
 20
240.7717182582788951
 30
0.0
 40
0.0012673854712654
 50
301.2084974659903196
 51
333.4163547788853066
  0
ARC
  5
D9AF
  8
0
 10
4162.3405106385971521
 20
240.7731364901408142
 30
0.0
 40
0.0476322414240848
 50
357.6111237329503751
 51
20.4019325234535707
  0
ARC
  5
D9B0
  8
0
 10
4161.841147127169279
 20
240.6122184520716871
 30
0.0
 40
0.5722401838258684
 50
18.0727485060955502
 51
29.6617129736729197
  0
ARC
  5
D9B1
  8
0
 10
4162.2802074755645663
 20
240.8635744957763904
 30
0.0
 40
0.0663324005626309
 50
28.6790451796562493
 51
44.8485780425594527
  0
ARC
  5
D9B2
  8
0
 10
4162.3259114987631619
 20
240.9092258250217924
 30
0.0
 40
0.0017396652781199
 50
40.4487572925923402
 51
122.5164051746323963
  0
LINE
  5
D9B3
  8
0
 10
4162.7125489005511554
 20
240.4888096334107104
 30
0.0
 11
4162.6740277282233365
 21
240.4512773574246864
 31
0.0
  0
ARC
  5
D9B4
  8
0
 10
4162.6905170341588018
 20
240.4343535930424878
 30
0.0
 40
0.0236286057800747
 50
134.2550450346907098
 51
217.280013916328187
  0
LINE
  5
D9B5
  8
0
 10
4162.6717161113374459
 20
240.4200414893481081
 30
0.0
 11
4162.7235267706137165
 21
240.3487301287080982
 31
0.0
  0
ARC
  5
D9B6
  8
0
 10
4162.744138853552613
 20
240.3611527021290044
 30
0.0
 40
0.0240661233578888
 50
211.0766992422628903
 51
293.5976458344470075
  0
LINE
  5
D9B7
  8
0
 10
4162.7537727966227976
 20
240.3390990077813001
 30
0.0
 11
4162.7742780108137595
 21
240.3483341221968885
 31
0.0
  0
ARC
  5
D9B8
  8
0
 10
4162.7695798950398967
 20
240.3599056631560984
 30
0.0
 40
0.012488909159518
 50
292.097450618792891
 51
296.734105119236915
  0
ARC
  5
D9B9
  8
0
 10
4162.7745413388329325
 20
240.3498357501003966
 30
0.0
 40
0.0012673854712654
 50
301.2084974659903196
 51
333.4163547788853066
  0
ARC
  5
D9BA
  8
0
 10
4162.7280838926526485
 20
240.351253981962202
 30
0.0
 40
0.0476322414240848
 50
357.6111237329503751
 51
20.4019325234535707
  0
ARC
  5
D9BB
  8
0
 10
4162.2287203812238658
 20
240.1903359438931034
 30
0.0
 40
0.5722401838258684
 50
18.0727485060955502
 51
29.6617129736729197
  0
ARC
  5
D9BC
  8
0
 10
4162.6677807296200626
 20
240.4416919875978067
 30
0.0
 40
0.0663324005626309
 50
28.6790451796562493
 51
44.8485780425594527
  0
ARC
  5
D9BD
  8
0
 10
4162.7134847528186583
 20
240.4873433168432086
 30
0.0
 40
0.0017396652781199
 50
40.4487572925923402
 51
122.5164051746323963
  0
LINE
  5
D9BE
  8
0
 10
4162.5548048675691462
 20
240.5957312198707996
 30
0.0
 11
4162.5162836952413272
 21
240.5581989438848041
 31
0.0
  0
ARC
  5
D9BF
  8
0
 10
4162.5327730011767926
 20
240.5412751795024917
 30
0.0
 40
0.0236286057800747
 50
134.2550450346907098
 51
217.280013916328187
  0
LINE
  5
D9C0
  8
0
 10
4162.5139720783563462
 20
240.5269630758081973
 30
0.0
 11
4162.5657827376307978
 21
240.4556517151681874
 31
0.0
  0
ARC
  5
D9C1
  8
0
 10
4162.5863948205696943
 20
240.4680742885890083
 30
0.0
 40
0.0240661233578888
 50
211.0766992422628903
 51
293.5976458344470075
  0
LINE
  5
D9C2
  8
0
 10
4162.5960287636398789
 20
240.4460205942413893
 30
0.0
 11
4162.6165339778308407
 21
240.4552557086570062
 31
0.0
  0
ARC
  5
D9C3
  8
0
 10
4162.6118358620569779
 20
240.4668272496161876
 30
0.0
 40
0.012488909159518
 50
292.097450618792891
 51
296.734105119236915
  0
ARC
  5
D9C4
  8
0
 10
4162.6167973058500138
 20
240.4567573365604005
 30
0.0
 40
0.0012673854712654
 50
301.2084974659903196
 51
333.4163547788853066
  0
ARC
  5
D9C5
  8
0
 10
4162.5703398596688203
 20
240.4581755684222912
 30
0.0
 40
0.0476322414240848
 50
357.6111237329503751
 51
20.4019325234535707
  0
ARC
  5
D9C6
  8
0
 10
4162.0709763482418566
 20
240.2972575303531926
 30
0.0
 40
0.5722401838258684
 50
18.0727485060955502
 51
29.6617129736729197
  0
ARC
  5
D9C7
  8
0
 10
4162.5100366966371439
 20
240.5486135740578959
 30
0.0
 40
0.0663324005626309
 50
28.6790451796562493
 51
44.8485780425594527
  0
ARC
  5
D9C8
  8
0
 10
4162.5557407198348301
 20
240.5942649033032978
 30
0.0
 40
0.0017396652781199
 50
40.4487572925923402
 51
122.5164051746323963
  0
LINE
  5
D9C9
  8
0
 10
4162.4658368226328093
 20
240.5944730873212052
 30
0.0
 11
4162.4273156503068094
 21
240.556940811335096
 31
0.0
  0
ARC
  5
D9CA
  8
0
 10
4162.4438049562422748
 20
240.5400170469528973
 30
0.0
 40
0.0236286057800747
 50
134.2550450346907098
 51
217.280013916328187
  0
LINE
  5
D9CB
  8
0
 10
4162.4250040334200094
 20
240.5257049432584893
 30
0.0
 11
4162.47681469269628
 21
240.4543935826185077
 31
0.0
  0
ARC
  5
D9CC
  8
0
 10
4162.4974267756351765
 20
240.466816156039414
 30
0.0
 40
0.0240661233578888
 50
211.0766992422628903
 51
293.5976458344470075
  0
LINE
  5
D9CD
  8
0
 10
4162.5070607187062706
 20
240.4447624616917096
 30
0.0
 11
4162.5275659328963229
 21
240.4539975761074118
 31
0.0
  0
ARC
  5
D9CE
  8
0
 10
4162.5228678171233696
 20
240.4655691170665932
 30
0.0
 40
0.012488909159518
 50
292.097450618792891
 51
296.734105119236915
  0
ARC
  5
D9CF
  8
0
 10
4162.5278292609145865
 20
240.4554992040108061
 30
0.0
 40
0.0012673854712654
 50
301.2084974659903196
 51
333.4163547788853066
  0
ARC
  5
D9D0
  8
0
 10
4162.481371814735212
 20
240.4569174358726116
 30
0.0
 40
0.0476322414240848
 50
357.6111237329503751
 51
20.4019325234535707
  0
ARC
  5
D9D1
  8
0
 10
4161.9820083033073388
 20
240.2959993978035129
 30
0.0
 40
0.5722401838258684
 50
18.0727485060955502
 51
29.6617129736729197
  0
ARC
  5
D9D2
  8
0
 10
4162.4210686517017166
 20
240.5473554415081878
 30
0.0
 40
0.0663324005626309
 50
28.6790451796562493
 51
44.8485780425594527
  0
ARC
  5
D9D3
  8
0
 10
4162.4667726749012218
 20
240.5930067707537034
 30
0.0
 40
0.0017396652781199
 50
40.4487572925923402
 51
122.5164051746323963
  0
LINE
  5
D9D4
  8
0
 10
4162.6749216979233097
 20
240.304507774551297
 30
0.0
 11
4162.6474865931286331
 21
240.2780140019123962
 31
0.0
  0
ARC
  5
D9D5
  8
0
 10
4162.6649662296422321
 20
240.259913308362286
 30
0.0
 40
0.0251629251010809
 50
133.9999998952027056
 51
212.9370879561718937
  0
LINE
  5
D9D6
  8
0
 10
4162.6438477896026598
 20
240.2462317773830023
 30
0.0
 11
4162.6959994276203361
 21
240.174451205614389
 31
0.0
  0
ARC
  5
D9D7
  8
0
 10
4162.7151846721726542
 20
240.1882332089546139
 30
0.0
 40
0.0236220472000039
 50
216.0000000014605064
 51
290.0000000014345005
  0
ARC
  5
D9D8
  8
0
 10
4162.1017109582353442
 20
241.3919071588038037
 30
0.0
 40
1.3744412561477499
 50
296.8863514278738762
 51
298.376847640540575
  0
ARC
  5
D9D9
  8
0
 10
4162.6765979985448212
 20
240.3025647935048141
 30
0.0
 40
0.0025650286230612
 50
81.2972627899949742
 51
130.7928711029198041
  0
ARC
  5
D9DA
  8
0
 10
4162.6041401736692933
 20
240.1872547613371012
 30
0.0
 40
0.1385427688276366
 50
34.7776587158130965
 51
58.2778142909835424
  0
ARC
  5
D9DB
  8
0
 10
4162.3942742889948931
 20
240.0101864883442033
 30
0.0
 40
0.4127222122109688
 50
31.3330306936071494
 51
38.3523044312869672
  0
LINE
  5
D9DC
  8
0
 10
4162.7746998044231077
 20
240.2528521252058056
 30
0.0
 11
4162.7480277482227393
 21
240.2260599160944139
 31
0.0
  0
ARC
  5
D9DD
  8
0
 10
4162.7648262589118531
 20
240.2093367403649893
 30
0.0
 40
0.0237034716405323
 50
135.1287634478013899
 51
215.7629064690611074
  0
LINE
  5
D9DE
  8
0
 10
4162.7455922581066261
 20
240.195483661974805
 30
0.0
 11
4162.7981351504777194
 21
240.1225316432511931
 31
0.0
  0
ARC
  5
D9DF
  8
0
 10
4162.8171147146949806
 20
240.1362014664769049
 30
0.0
 40
0.0233899107499436
 50
215.7629064690584926
 51
298.511137568530728
  0
LINE
  5
D9E0
  8
0
 10
4162.8282794110182294
 20
240.1156481825323965
 30
0.0
 11
4162.8635294863543095
 21
240.1335856451941027
 31
0.0
  0
ARC
  5
D9E1
  8
0
 10
4162.8609151102791657
 20
240.1376810704134073
 30
0.0
 40
0.0048587518965045
 50
302.5527357096344758
 51
7.5096575648581849
  0
ARC
  5
D9E2
  8
0
 10
4162.7223170894912982
 20
240.1011074677934971
 30
0.0
 40
0.1481633255455278
 50
14.5445308669533908
 51
37.6279552066103875
  0
ARC
  5
D9E3
  8
0
 10
4162.6105447771933541
 20
240.038753655297711
 30
0.0
 40
0.2754013876353667
 50
33.7018225103093414
 51
49.2153859656775978
  0
ARC
  5
D9E4
  8
0
 10
4162.7708720751152214
 20
240.2246221510206112
 30
0.0
 40
0.0299386870670495
 50
49.1820530302694365
 51
77.4419816031631854
  0
ARC
  5
D9E5
  8
0
 10
4162.7772727095243681
 20
240.250019298577314
 30
0.0
 40
0.0038268456155674
 50
88.3696546662011428
 51
132.247191236881207
  0
LINE
  5
D9E6
  8
0
 10
4162.9774128934668624
 20
240.0828102462949971
 30
0.0
 11
4162.9507408372655846
 21
240.0560180371834917
 31
0.0
  0
ARC
  5
D9E7
  8
0
 10
4162.9675393479537888
 20
240.0392948614540956
 30
0.0
 40
0.0237034716405323
 50
135.1287634478013899
 51
215.7629064690611074
  0
LINE
  5
D9E8
  8
0
 10
4162.9483053471503808
 20
240.0254417830639113
 30
0.0
 11
4163.0008482395223837
 21
239.9524897643404131
 31
0.0
  0
ARC
  5
D9E9
  8
0
 10
4163.0198278037387354
 20
239.9661595875660112
 30
0.0
 40
0.0233899107499436
 50
215.7629064690584926
 51
298.511137568530728
  0
LINE
  5
D9EA
  8
0
 10
4163.0309925000601652
 20
239.9456063036215028
 30
0.0
 11
4163.0662425753980642
 21
239.9635437662832942
 31
0.0
  0
ARC
  5
D9EB
  8
0
 10
4163.0636281993220109
 20
239.9676391915025988
 30
0.0
 40
0.0048587518965045
 50
302.5527357096344758
 51
7.5096575648581849
  0
ARC
  5
D9EC
  8
0
 10
4162.925030178533234
 20
239.9310655888826034
 30
0.0
 40
0.1481633255455278
 50
14.5445308669533908
 51
37.6279552066103875
  0
ARC
  5
D9ED
  8
0
 10
4162.8132578662371088
 20
239.8687117763869026
 30
0.0
 40
0.2754013876353667
 50
33.7018225103093414
 51
49.2153859656775978
  0
ARC
  5
D9EE
  8
0
 10
4162.9735851641580666
 20
240.0545802721098028
 30
0.0
 40
0.0299386870670495
 50
49.1820530302694365
 51
77.4419816031631854
  0
ARC
  5
D9EF
  8
0
 10
4162.9799857985672134
 20
240.0799774196665055
 30
0.0
 40
0.0038268456155674
 50
88.3696546662011428
 51
132.247191236881207
  0
LINE
  5
D9F0
  8
0
 10
4162.873420818363229
 20
240.0231210856925088
 30
0.0
 11
4162.8467487621637702
 21
239.9963288765810887
 31
0.0
  0
ARC
  5
D9F1
  8
0
 10
4162.8635472728510649
 20
239.9796057008516925
 30
0.0
 40
0.0237034716405323
 50
135.1287634478013899
 51
215.7629064690611074
  0
LINE
  5
D9F2
  8
0
 10
4162.8443132720476569
 20
239.9657526224615083
 30
0.0
 11
4162.8968561644178408
 21
239.8928006037380101
 31
0.0
  0
ARC
  5
D9F3
  8
0
 10
4162.915835728635102
 20
239.9064704269636081
 30
0.0
 40
0.0233899107499436
 50
215.7629064690584926
 51
298.511137568530728
  0
LINE
  5
D9F4
  8
0
 10
4162.9270004249583508
 20
239.8859171430190997
 30
0.0
 11
4162.9622505002944308
 21
239.9038546056808059
 31
0.0
  0
ARC
  5
D9F5
  8
0
 10
4162.959636124219287
 20
239.9079500309001958
 30
0.0
 40
0.0048587518965045
 50
302.5527357096344758
 51
7.5096575648581849
  0
ARC
  5
D9F6
  8
0
 10
4162.8210381034286911
 20
239.871376428280314
 30
0.0
 40
0.1481633255455278
 50
14.5445308669533908
 51
37.6279552066103875
  0
ARC
  5
D9F7
  8
0
 10
4162.7092657911325659
 20
239.8090226157843858
 30
0.0
 40
0.2754013876353667
 50
33.7018225103093414
 51
49.2153859656775978
  0
ARC
  5
D9F8
  8
0
 10
4162.8695930890544332
 20
239.994891111507286
 30
0.0
 40
0.0299386870670495
 50
49.1820530302694365
 51
77.4419816031631854
  0
ARC
  5
D9F9
  8
0
 10
4162.87599372346358
 20
240.0202882590639888
 30
0.0
 40
0.0038268456155674
 50
88.3696546662011428
 51
132.247191236881207
  0
LINE
  5
D9FA
  8
0
 10
4163.0091681296207753
 20
239.928382311926697
 30
0.0
 11
4162.9824960734222259
 21
239.9015901028151916
 31
0.0
  0
ARC
  5
D9FB
  8
0
 10
4162.9992945841104302
 20
239.8848669270857954
 30
0.0
 40
0.0237034716405323
 50
135.1287634478013899
 51
215.7629064690611074
  0
LINE
  5
D9FC
  8
0
 10
4162.9800605833061127
 20
239.8710138486956964
 30
0.0
 11
4163.0326034756762965
 21
239.7980618299721982
 31
0.0
  0
ARC
  5
D9FD
  8
0
 10
4163.0515830398926482
 20
239.811731653197711
 30
0.0
 40
0.0233899107499436
 50
215.7629064690584926
 51
298.511137568530728
  0
LINE
  5
D9FE
  8
0
 10
4163.062747736215897
 20
239.7911783692532026
 30
0.0
 11
4163.0979978115519771
 21
239.809115831914994
 31
0.0
  0
ARC
  5
D9FF
  8
0
 10
4163.0953834354777428
 20
239.8132112571342986
 30
0.0
 40
0.0048587518965045
 50
302.5527357096344758
 51
7.5096575648581849
  0
ARC
  5
DA00
  8
0
 10
4162.9567854146889658
 20
239.7766376545143885
 30
0.0
 40
0.1481633255455278
 50
14.5445308669533908
 51
37.6279552066103875
  0
ARC
  5
DA01
  8
0
 10
4162.8450131023910217
 20
239.7142838420186024
 30
0.0
 40
0.2754013876353667
 50
33.7018225103093414
 51
49.2153859656775978
  0
ARC
  5
DA02
  8
0
 10
4163.005340400312889
 20
239.9001523377415026
 30
0.0
 40
0.0299386870670495
 50
49.1820530302694365
 51
77.4419816031631854
  0
ARC
  5
DA03
  8
0
 10
4163.0117410347229452
 20
239.9255494852982054
 30
0.0
 40
0.0038268456155674
 50
88.3696546662011428
 51
132.247191236881207
  0
LINE
  5
DA04
  8
0
 10
4163.2325035717185528
 20
239.7261831995703005
 30
0.0
 11
4163.2058315155200034
 21
239.6993909904587952
 31
0.0
  0
ARC
  5
DA05
  8
0
 10
4163.2226300262082077
 20
239.682667814729399
 30
0.0
 40
0.0237034716405323
 50
135.1287634478013899
 51
215.7629064690611074
  0
LINE
  5
DA06
  8
0
 10
4163.2033960254038902
 20
239.6688147363391863
 30
0.0
 11
4163.2376704558009806
 21
239.6212271602605881
 31
0.0
  0
ARC
  5
DA07
  8
0
 10
4163.2749184819913353
 20
239.6095325408412009
 30
0.0
 40
0.0233899107499436
 50
257.13702201875941
 51
298.511137568530728
  0
LINE
  5
DA08
  8
0
 10
4163.2860831783145841
 20
239.5889792568968062
 30
0.0
 11
4163.3213332536506641
 21
239.6069167195585976
 31
0.0
  0
ARC
  5
DA09
  8
0
 10
4163.3187188775746108
 20
239.6110121447779022
 30
0.0
 40
0.0048587518965045
 50
302.5527357096344758
 51
7.5096575648581849
  0
ARC
  5
DA0A
  8
0
 10
4163.1801208567867434
 20
239.5744385421579921
 30
0.0
 40
0.1481633255455278
 50
14.5445308669533908
 51
37.6279552066103875
  0
ARC
  5
DA0B
  8
0
 10
4163.0683485444906182
 20
239.512084729662206
 30
0.0
 40
0.2754013876353667
 50
33.7018225103093414
 51
49.2153859656775978
  0
ARC
  5
DA0C
  8
0
 10
4163.2286758424106665
 20
239.6979532253851062
 30
0.0
 40
0.0299386870670495
 50
49.1820530302694365
 51
77.4419816031631854
  0
ARC
  5
DA0D
  8
0
 10
4163.2350764768198133
 20
239.7233503729418089
 30
0.0
 40
0.0038268456155674
 50
88.3696546662011428
 51
132.247191236881207
  0
LINE
  5
DA0E
  8
0
 10
4163.2167940620583977
 20
239.6313420583688014
 30
0.0
 11
4163.1901220058580293
 21
239.604549849257296
 31
0.0
  0
ARC
  5
DA0F
  8
0
 10
4163.2069205165462336
 20
239.5878266735280135
 30
0.0
 40
0.0237034716405323
 50
135.1287634478013899
 51
215.7629064690611074
  0
LINE
  5
DA10
  8
0
 10
4163.1876865157419161
 20
239.5739735951376872
 30
0.0
 11
4163.2402294081130094
 21
239.501021576414189
 31
0.0
  0
ARC
  5
DA11
  8
0
 10
4163.2592089723302706
 20
239.5146913996397871
 30
0.0
 40
0.0233899107499436
 50
215.7629064690584926
 51
298.511137568530728
  0
LINE
  5
DA12
  8
0
 10
4163.2703736686526099
 20
239.4941381156953071
 30
0.0
 11
4163.30562374398869
 21
239.5120755783570132
 31
0.0
  0
ARC
  5
DA13
  8
0
 10
4163.3030093679135462
 20
239.5161710035764031
 30
0.0
 40
0.0048587518965045
 50
302.5527357096344758
 51
7.5096575648581849
  0
ARC
  5
DA14
  8
0
 10
4163.1644113471238597
 20
239.4795974009564929
 30
0.0
 40
0.1481633255455278
 50
14.5445308669533908
 51
37.6279552066103875
  0
ARC
  5
DA15
  8
0
 10
4163.0526390348286441
 20
239.4172435884607069
 30
0.0
 40
0.2754013876353667
 50
33.7018225103093414
 51
49.2153859656775978
  0
ARC
  5
DA16
  8
0
 10
4163.2129663327486924
 20
239.6031120841836071
 30
0.0
 40
0.0299386870670495
 50
49.1820530302694365
 51
77.4419816031631854
  0
ARC
  5
DA17
  8
0
 10
4163.2193669671578391
 20
239.6285092317401961
 30
0.0
 40
0.0038268456155674
 50
88.3696546662011428
 51
132.247191236881207
  0
LINE
  5
DA18
  8
0
 10
4163.471016366324875
 20
239.3948836836740952
 30
0.0
 11
4163.4443443101235971
 21
239.3680914745625898
 31
0.0
  0
ARC
  5
DA19
  8
0
 10
4163.4611428208118014
 20
239.3513682988333073
 30
0.0
 40
0.0237034716405323
 50
135.1287634478013899
 51
215.7629064690611074
  0
LINE
  5
DA1A
  8
0
 10
4163.4419088200083934
 20
239.3375152204430947
 30
0.0
 11
4163.4944517123803962
 21
239.2645632017195112
 31
0.0
  0
ARC
  5
DA1B
  8
0
 10
4163.5134312765949289
 20
239.2782330249451093
 30
0.0
 40
0.0233899107499436
 50
215.7629064690584926
 51
298.511137568530728
  0
LINE
  5
DA1C
  8
0
 10
4163.5245959729181777
 20
239.2576797410006009
 30
0.0
 11
4163.5598460482560768
 21
239.275617203662307
 31
0.0
  0
ARC
  5
DA1D
  8
0
 10
4163.5572316721800235
 20
239.2797126288816969
 30
0.0
 40
0.0048587518965045
 50
302.5527357096344758
 51
7.5096575648581849
  0
ARC
  5
DA1E
  8
0
 10
4163.4186336513912465
 20
239.2431390262617015
 30
0.0
 40
0.1481633255455278
 50
14.5445308669533908
 51
37.6279552066103875
  0
ARC
  5
DA1F
  8
0
 10
4163.3068613390951214
 20
239.1807852137660007
 30
0.0
 40
0.2754013876353667
 50
33.7018225103093414
 51
49.2153859656775978
  0
ARC
  5
DA20
  8
0
 10
4163.4671886370160792
 20
239.3666537094889009
 30
0.0
 40
0.0299386870670495
 50
49.1820530302694365
 51
77.4419816031631854
  0
ARC
  5
DA21
  8
0
 10
4163.4735892714252259
 20
239.3920508570456036
 30
0.0
 40
0.0038268456155674
 50
88.3696546662011428
 51
132.247191236881207
  0
LINE
  5
DA22
  8
0
 10
4163.398156738066973
 20
239.3694023666660087
 30
0.0
 11
4163.3714846818684236
 21
239.3426101575545033
 31
0.0
  0
ARC
  5
DA23
  8
0
 10
4163.3882831925557184
 20
239.3258869818251071
 30
0.0
 40
0.0237034716405323
 50
135.1287634478013899
 51
215.7629064690611074
  0
LINE
  5
DA24
  8
0
 10
4163.3690491917532199
 20
239.3120339034350081
 30
0.0
 11
4163.4215920841215848
 21
239.2390818847113962
 31
0.0
  0
ARC
  5
DA25
  8
0
 10
4163.440571648338846
 20
239.2527517079369943
 30
0.0
 40
0.0233899107499436
 50
215.7629064690584926
 51
298.511137568530728
  0
LINE
  5
DA26
  8
0
 10
4163.4517363446630043
 20
239.2321984239924859
 30
0.0
 11
4163.4869864199990843
 21
239.2501358866541921
 31
0.0
  0
ARC
  5
DA27
  8
0
 10
4163.4843720439239405
 20
239.2542313118736104
 30
0.0
 40
0.0048587518965045
 50
302.5527357096344758
 51
7.5096575648581849
  0
ARC
  5
DA28
  8
0
 10
4163.3457740231342541
 20
239.2176577092537002
 30
0.0
 40
0.1481633255455278
 50
14.5445308669533908
 51
37.6279552066103875
  0
ARC
  5
DA29
  8
0
 10
4163.2340017108381289
 20
239.1553038967579141
 30
0.0
 40
0.2754013876353667
 50
37.9820443603576408
 51
49.2153859656775978
  0
ARC
  5
DA2A
  8
0
 10
4163.3943290087590867
 20
239.3411723924807859
 30
0.0
 40
0.0299386870670495
 50
49.1820530302694365
 51
77.4419816031631854
  0
ARC
  5
DA2B
  8
0
 10
4163.4007296431691429
 20
239.3665695400374034
 30
0.0
 40
0.0038268456155674
 50
88.3696546662011428
 51
132.247191236881207
  0
LINE
  5
DA2C
  8
0
 10
4163.4599250078972545
 20
239.2128380401028949
 30
0.0
 11
4163.4332529516968862
 21
239.1860458309915032
 31
0.0
  0
ARC
  5
DA2D
  8
0
 10
4163.4500514623850904
 20
239.1693226552621923
 30
0.0
 40
0.0237034716405323
 50
135.1287634478013899
 51
215.7629064690611074
  0
LINE
  5
DA2E
  8
0
 10
4163.4308174615807729
 20
239.1554695768718943
 30
0.0
 11
4163.4833603539518663
 21
239.0825175581483961
 31
0.0
  0
ARC
  5
DA2F
  8
0
 10
4163.502339918168218
 20
239.0961873813739942
 30
0.0
 40
0.0233899107499436
 50
215.7629064690584926
 51
298.511137568530728
  0
LINE
  5
DA30
  8
0
 10
4163.5135046144905573
 20
239.0756340974294858
 30
0.0
 11
4163.5487546898275468
 21
239.0935715600911919
 31
0.0
  0
ARC
  5
DA31
  8
0
 10
4163.546140313752403
 20
239.0976669853106102
 30
0.0
 40
0.0048587518965045
 50
302.5527357096344758
 51
7.5096575648581849
  0
ARC
  5
DA32
  8
0
 10
4163.4075422929627166
 20
239.0610933826907001
 30
0.0
 40
0.1481633255455278
 50
14.5445308669533908
 51
37.6279552066103875
  0
ARC
  5
DA33
  8
0
 10
4163.2957699806665914
 20
238.998739570194914
 30
0.0
 40
0.2754013876353667
 50
33.7018225103093414
 51
49.2153859656775978
  0
ARC
  5
DA34
  8
0
 10
4163.4560972785875492
 20
239.1846080659178142
 30
0.0
 40
0.0299386870670495
 50
49.1820530302694365
 51
77.4419816031631854
  0
ARC
  5
DA35
  8
0
 10
4163.462497912996696
 20
239.2100052134744033
 30
0.0
 40
0.0038268456155674
 50
88.3696546662011428
 51
132.247191236881207
  0
LINE
  5
DA36
  8
0
 10
4163.6620950703918425
 20
239.1271551537043081
 30
0.0
 11
4163.6354230141923836
 21
239.1003629445928027
 31
0.0
  0
ARC
  5
DA37
  8
0
 10
4163.6522215248805878
 20
239.0836397688634918
 30
0.0
 40
0.0237034716405323
 50
135.1287634478013899
 51
215.7629064690611074
  0
LINE
  5
DA38
  8
0
 10
4163.6329875240771798
 20
239.0697866904733075
 30
0.0
 11
4163.6855304164473637
 21
238.9968346717496956
 31
0.0
  0
ARC
  5
DA39
  8
0
 10
4163.7045099806637154
 20
239.0105044949752937
 30
0.0
 40
0.0233899107499436
 50
215.7629064690584926
 51
298.511137568530728
  0
LINE
  5
DA3A
  8
0
 10
4163.7156746769878737
 20
238.9899512110308137
 30
0.0
 11
4163.7509247523230442
 21
239.0078886736926052
 31
0.0
  0
ARC
  5
DA3B
  8
0
 10
4163.7483103762479004
 20
239.0119840989119098
 30
0.0
 40
0.0048587518965045
 50
302.5527357096344758
 51
7.5096575648581849
  0
ARC
  5
DA3C
  8
0
 10
4163.6097123554591235
 20
238.9754104962919996
 30
0.0
 40
0.1481633255455278
 50
14.5445308669533908
 51
37.6279552066103875
  0
ARC
  5
DA3D
  8
0
 10
4163.4979400431629983
 20
238.9130566837962135
 30
0.0
 40
0.2754013876353667
 50
33.7018225103093414
 51
49.2153859656775978
  0
ARC
  5
DA3E
  8
0
 10
4163.6582673410839561
 20
239.0989251795191137
 30
0.0
 40
0.0299386870670495
 50
49.1820530302694365
 51
77.4419816031631854
  0
ARC
  5
DA3F
  8
0
 10
4163.6646679754940124
 20
239.1243223270757881
 30
0.0
 40
0.0038268456155674
 50
88.3696546662011428
 51
132.247191236881207
  0
LINE
  5
DA40
  8
0
 10
4163.6235114309365599
 20
239.062142369670994
 30
0.0
 11
4163.5968393747361915
 21
239.0353501605596023
 31
0.0
  0
ARC
  5
DA41
  8
0
 10
4163.6136378854253053
 20
239.0186269848302061
 30
0.0
 40
0.0237034716405323
 50
135.1287634478013899
 51
215.7629064690611074
  0
LINE
  5
DA42
  8
0
 10
4163.5944038846209878
 20
239.0047739064399934
 30
0.0
 11
4163.6469467769911716
 21
238.9318218877164952
 31
0.0
  0
ARC
  5
DA43
  8
0
 10
4163.6659263412093424
 20
238.9454917109420933
 30
0.0
 40
0.0233899107499436
 50
215.7629064690584926
 51
298.511137568530728
  0
LINE
  5
DA44
  8
0
 10
4163.6770910375316816
 20
238.9249384269976133
 30
0.0
 11
4163.7123411128677617
 21
238.942875889659291
 31
0.0
  0
ARC
  5
DA45
  8
0
 10
4163.7097267367926179
 20
238.9469713148785956
 30
0.0
 40
0.0048587518965045
 50
302.5527357096344758
 51
7.5096575648581849
  0
ARC
  5
DA46
  8
0
 10
4163.571128716003841
 20
238.9103977122587139
 30
0.0
 40
0.1481633255455278
 50
14.5445308669533908
 51
31.7210843833040883
  0
ARC
  5
DA47
  8
0
 10
4163.4593564037068063
 20
238.8480438997628994
 30
0.0
 40
0.2754013876353667
 50
46.6049504888730368
 51
49.2153859656775978
  0
ARC
  5
DA48
  8
0
 10
4163.6196837016277641
 20
239.0339123954857996
 30
0.0
 40
0.0299386870670495
 50
49.1820530302694365
 51
77.4419816031631854
  0
ARC
  5
DA49
  8
0
 10
4163.6260843360378203
 20
239.0593095430425024
 30
0.0
 40
0.0038268456155674
 50
88.3696546662011428
 51
132.247191236881207
  0
LINE
  5
DA4A
  8
0
 10
4163.801070944091407
 20
238.9543317509723863
 30
0.0
 11
4163.7743988878910386
 21
238.9275395418609094
 31
0.0
  0
ARC
  5
DA4B
  8
0
 10
4163.7911973985792429
 20
238.9108163661315132
 30
0.0
 40
0.0237034716405323
 50
135.1287634478013899
 51
215.7629064690611074
  0
LINE
  5
DA4C
  8
0
 10
4163.7719633977758349
 20
238.8969632877413005
 30
0.0
 11
4163.8245062901460187
 21
238.8240112690178023
 31
0.0
  0
ARC
  5
DA4D
  8
0
 10
4163.8434858543632799
 20
238.8376810922434004
 30
0.0
 40
0.0233899107499436
 50
215.7629064690584926
 51
298.511137568530728
  0
LINE
  5
DA4E
  8
0
 10
4163.8546505506856192
 20
238.817127808298892
 30
0.0
 11
4163.8899006260216993
 21
238.8350652709605981
 31
0.0
  0
ARC
  5
DA4F
  8
0
 10
4163.8872862499483745
 20
238.839160696179988
 30
0.0
 40
0.0048587518965045
 50
302.5527357096344758
 51
7.5096575648581849
  0
ARC
  5
DA50
  8
0
 10
4163.748688229158688
 20
238.8025870935599926
 30
0.0
 40
0.1481633255455278
 50
14.5445308669533908
 51
37.6279552066103875
  0
ARC
  5
DA51
  8
0
 10
4163.6369159168616534
 20
238.7402332810642918
 30
0.0
 40
0.2754013876353667
 50
33.7018225103093414
 51
49.2153859656775978
  0
ARC
  5
DA52
  8
0
 10
4163.7972432147826112
 20
238.9261017767871067
 30
0.0
 40
0.0299386870670495
 50
49.1820530302694365
 51
77.4419816031631854
  0
ARC
  5
DA53
  8
0
 10
4163.8036438491926674
 20
238.9514989243438947
 30
0.0
 40
0.0038268456155674
 50
88.3696546662011428
 51
132.247191236881207
  0
LINE
  5
DA54
  8
0
 10
4161.7496696793859883
 20
241.7181929736786969
 30
0.0
 11
4161.7641213392771533
 21
241.6849825949956028
 31
0.0
  0
LINE
  5
DA55
  8
0
 10
4161.8149952984485935
 20
241.5826049005275138
 30
0.0
 11
4161.8318484189649098
 21
241.5458400925863032
 31
0.0
  0
LINE
  5
DA56
  8
0
 10
4161.890602351578309
 20
241.4102103430128068
 30
0.0
 11
4161.9152537995187231
 21
241.3602427172669138
 31
0.0
  0
LINE
  5
DA57
  8
0
 10
4161.7777481313660246
 20
241.6339735276108911
 30
0.0
 11
4161.7471050086078321
 21
241.6043736359810907
 31
0.0
  0
ARC
  5
DA58
  8
0
 10
4161.7635168818278544
 20
241.5873833357443061
 30
0.0
 40
0.0236224445120433
 50
134.007905439529992
 51
216.0594193034955879
  0
LINE
  5
DA59
  8
0
 10
4161.7444203325767376
 20
241.5734785994484923
 30
0.0
 11
4161.7982732921382194
 21
241.4995177797212023
 31
0.0
  0
LINE
  5
DA5A
  8
0
 10
4161.8974012112003038
 20
241.3964292915347869
 30
0.0
 11
4161.859744165290067
 21
241.3600392276341893
 31
0.0
  0
ARC
  5
DA5B
  8
0
 10
4161.8761592705977819
 20
241.3430526024947085
 30
0.0
 40
0.0236220472431485
 50
134.0197370422665983
 51
215.9999997983651099
  0
LINE
  5
DA5C
  8
0
 10
4161.8570486328881088
 20
241.3291679115633883
 30
0.0
 11
4161.8838581638810865
 21
241.2922677575346881
 31
0.0
  0
LINE
  5
DA5D
  8
0
 10
4161.9031609399271474
 20
241.3391765043213013
 30
0.0
 11
4161.8865595488286999
 21
241.3231447273070955
 31
0.0
  0
ARC
  5
DA5E
  8
0
 10
4161.9029688020773392
 20
241.3061524481271931
 30
0.0
 40
0.0236220478335929
 50
133.9999999730790137
 51
216.0122167608990935
  0
LINE
  5
DA5F
  8
0
 10
4161.8838611249029782
 20
241.2922636822754043
 30
0.0
 11
4161.9360997341473194
 21
241.2203956349553948
 31
0.0
  0
ARC
  5
DA60
  8
0
 10
4161.9552244634633098
 20
241.2342967954693904
 30
0.0
 40
0.0236431287062091
 50
216.0122167608886059
 51
281.6348081591418122
  0
ARC
  5
DA61
  8
0
 10
4162.0619743461429607
 20
241.1036361347115076
 30
0.0
 40
0.0931334732684238
 50
34.6669646312264135
 51
49.0697954154680005
  0
ARC
  5
DA62
  8
0
 10
4162.1199582982007996
 20
241.170503378331091
 30
0.0
 40
0.0046271629534667
 50
49.0697954154530791
 51
111.7227949269530995
  0
LINE
  5
DA63
  8
0
 10
4162.1182457093991616
 20
241.1748019451376877
 30
0.0
 11
4162.0836262592292769
 21
241.1409437190476126
 31
0.0
  0
ARC
  5
DA64
  8
0
 10
4162.1001430271162462
 20
241.1240546643049925
 30
0.0
 40
0.0236209487298125
 50
134.3612172739732955
 51
215.9938795038954993
  0
LINE
  5
DA65
  8
0
 10
4162.081031795146373
 20
241.1101726604327098
 30
0.0
 11
4162.1129455870095626
 21
241.0662372253933086
 31
0.0
  0
LINE
  5
DA66
  8
0
 10
4162.0466422780018547
 20
241.1051351778870071
 30
0.0
 11
4162.0906743729747177
 21
241.0445240934280093
 31
0.0
  0
LINE
  5
DA67
  8
0
 10
4162.1715370867495949
 20
240.9331022975765109
 30
0.0
 11
4162.2541936188854379
 21
240.8193353411402882
 31
0.0
  0
LINE
  5
DA68
  8
0
 10
4162.2819154660774075
 20
240.8454601548446021
 30
0.0
 11
4162.2531495960065513
 21
240.8185768142240875
 31
0.0
  0
ARC
  5
DA69
  8
0
 10
4162.2689827904196136
 20
240.8016348865172063
 30
0.0
 40
0.0231887679656734
 50
133.0625084343112974
 51
216.9468355230362988
  0
LINE
  5
DA6A
  8
0
 10
4162.250450475760772
 20
240.787696727629509
 30
0.0
 11
4162.302632342497418
 21
240.7158745496464007
 31
0.0
  0
ARC
  5
DA6B
  8
0
 10
4162.3217850938890479
 20
240.7297012760562041
 30
0.0
 40
0.0236220471999922
 50
216.0000000014777015
 51
298.0000000015139108
  0
LINE
  5
DA6C
  8
0
 10
4162.3328749733045697
 20
240.7088442463428919
 30
0.0
 11
4162.362258489800297
 21
240.7244677391996106
 31
0.0
  0
ARC
  5
DA6D
  8
0
 10
4162.3579081086518272
 20
240.7279871451582949
 30
0.0
 40
0.0055957157212276
 50
321.0275582300133124
 51
17.0747116990699404
  0
ARC
  5
DA6E
  8
0
 10
4161.7696135630521894
 20
240.5497288966635949
 30
0.0
 40
0.6203041233734502
 50
16.8592163226804104
 51
19.7329468330610283
  0
LINE
  5
DA6F
  8
0
 10
4162.3302186099526807
 20
240.7076359883687076
 30
0.0
 11
4162.4345697864200702
 21
240.5640087228817094
 31
0.0
  0
LINE
  5
DA70
  8
0
 10
4162.5173133258012967
 20
240.4493800188994896
 30
0.0
 11
4162.6446695103322782
 21
240.2747866396948098
 31
0.0
  0
LINE
  5
DA71
  8
0
 10
4162.7236182982787795
 20
240.1661679633268989
 30
0.0
 11
4162.8467487621637702
 21
239.9963288765810887
 31
0.0
  0
LINE
  5
DA72
  8
0
 10
4162.9271503727732124
 20
239.8859934459291878
 30
0.0
 11
4163.0379788685550011
 21
239.733487823030714
 31
0.0
  0
LINE
  5
DA73
  8
0
 10
4163.0638869483227609
 20
239.7587565471172866
 30
0.0
 11
4163.0379788685550011
 21
239.733487823030714
 31
0.0
  0
ARC
  5
DA74
  8
0
 10
4163.0523525991584393
 20
239.7187504046414119
 30
0.0
 40
0.0205862971954535
 50
134.2842367282842133
 51
222.7981555060873973
  0
LINE
  5
DA75
  8
0
 10
4163.037247367830787
 20
239.7047637102926956
 30
0.0
 11
4163.0891064268516857
 21
239.6333858390734122
 31
0.0
  0
ARC
  5
DA76
  8
0
 10
4163.1085826039843596
 20
239.6467823151255914
 30
0.0
 40
0.0236386769159605
 50
214.5217138687631859
 51
290.9068225039658842
  0
LINE
  5
DA77
  8
0
 10
4163.1170180478147813
 20
239.624699961678914
 30
0.0
 11
4163.1597492132214029
 21
239.6472164119080048
 31
0.0
  0
ARC
  5
DA78
  8
0
 10
4163.1483566027991401
 20
239.6516017767685867
 30
0.0
 40
0.0122074975806387
 50
338.9467553393982939
 51
44.9548296416440678
  0
ARC
  5
DA79
  8
0
 10
4162.8615296972247961
 20
239.4816951923997124
 30
0.0
 40
0.3452152719320099
 50
31.141990612454439
 51
53.4015190734602214
  0
ARC
  5
DA7A
  8
0
 10
4163.0656986881704142
 20
239.7556463882629885
 30
0.0
 40
0.0035993734691628
 50
62.7225258885712122
 51
120.2217945919142039
  0
LINE
  5
DA7B
  8
0
 10
4163.1169869357836433
 20
239.6247427836877932
 30
0.0
 11
4163.2009615422903153
 21
239.5091617305394891
 31
0.0
  0
LINE
  5
DA7C
  8
0
 10
4163.2205260134987839
 20
239.5283783195980902
 30
0.0
 11
4163.2009615422903153
 21
239.5091617305394891
 31
0.0
  0
ARC
  5
DA7D
  8
0
 10
4163.2191711224832034
 20
239.4943266098659933
 30
0.0
 40
0.0234876481634366
 50
140.8307200219863944
 51
216.1328267687374023
  0
LINE
  5
DA7E
  8
0
 10
4163.2002012722423387
 20
239.480476902357907
 30
0.0
 11
4163.2508729625951673
 21
239.4107333039418961
 31
0.0
  0
ARC
  5
DA7F
  8
0
 10
4163.2720888175981599
 20
239.4234622155526893
 30
0.0
 40
0.0247414165787765
 50
210.9625623081329024
 51
246.5336918071606078
  0
ARC
  5
DA80
  8
0
 10
4163.2715910856195478
 20
239.4223156671158961
 30
0.0
 40
0.023491492404998
 50
246.5336918071618868
 51
301.4295844922506831
  0
LINE
  5
DA81
  8
0
 10
4163.2838407311601259
 20
239.4022708074373043
 30
0.0
 11
4163.3254222449941153
 21
239.4243825624820943
 31
0.0
  0
ARC
  5
DA82
  8
0
 10
4163.3248147261247141
 20
239.4253498746402045
 30
0.0
 40
0.0011422661628202
 50
302.1308103410345893
 51
350.4305580655329777
  0
ARC
  5
DA83
  8
0
 10
4163.3104954123600692
 20
239.423874728247597
 30
0.0
 40
0.015499066532141
 50
4.7566877858985599
 51
34.6413157217664107
  0
ARC
  5
DA84
  8
0
 10
4162.961275777703122
 20
239.1858958009026139
 30
0.0
 40
0.438095874101779
 50
34.2858693174160578
 51
44.85408481579951
  0
LINE
  5
DA85
  8
0
 10
4163.3289262436037461
 20
239.3402136218687133
 30
0.0
 11
4163.2838407311819537
 21
239.4022708074483035
 31
0.0
  0
LINE
  5
DA86
  8
0
 10
4163.3486964917256046
 20
239.359305528637492
 30
0.0
 11
4163.3279372316756053
 21
239.3392585441254141
 31
0.0
  0
ARC
  5
DA87
  8
0
 10
4163.3443974613783212
 20
239.3222134773880896
 30
0.0
 40
0.0236954312463012
 50
134.0000001543963037
 51
220.184661590159493
  0
LINE
  5
DA88
  8
0
 10
4163.3262948913461514
 20
239.3069239247404028
 30
0.0
 11
4163.3774620919666631
 21
239.2364983150862088
 31
0.0
  0
ARC
  5
DA89
  8
0
 10
4163.396572729611762
 20
239.2503830061411918
 30
0.0
 40
0.0236220472628135
 50
216.0000001348977037
 51
297.9999997014156179
  0
LINE
  5
DA8A
  8
0
 10
4163.4076626089481579
 20
239.2295259763143065
 30
0.0
 11
4163.4227823238434212
 21
239.2375652712271119
 31
0.0
  0
ARC
  5
DA8B
  8
0
 10
4163.4229480526719271
 20
239.2140804881566964
 30
0.0
 40
0.023622047199985
 50
144.2317717242804918
 51
216.0000000014960904
  0
LINE
  5
DA8C
  8
0
 10
4163.4038374150468371
 20
239.2001957971831985
 30
0.0
 11
4163.4263482476981153
 21
239.1692122941084051
 31
0.0
  0
LINE
  5
DA8D
  8
0
 10
4163.5468736885186445
 20
239.0926143879310075
 30
0.0
 11
4163.5705260533832188
 21
239.0600597880927012
 31
0.0
  0
ARC
  5
DA8E
  8
0
 10
4163.5896379217747381
 20
239.0739454106075925
 30
0.0
 40
0.023623590457207
 50
216.0000732626911031
 51
297.8716986340518247
  0
LINE
  5
DA8F
  8
0
 10
4163.6006817901316026
 20
239.0530622356137087
 30
0.0
 11
4163.6328399292942777
 21
239.0700687614695141
 31
0.0
  0
ARC
  5
DA90
  8
0
 10
4163.0054374101518988
 20
238.4639258602304039
 30
0.0
 40
0.8955076904469894
 50
45.2918767959048623
 51
53.2393195766294269
  0
ARC
  5
DA91
  8
0
 10
4163.5394311718118843
 20
239.1787522477272887
 30
0.0
 40
0.0032487023987422
 50
53.2393195766333207
 51
128.6377982433905913
  0
LINE
  5
DA92
  8
0
 10
4163.5374026981698989
 20
239.1812898375212058
 30
0.0
 11
4163.5181045751924103
 21
239.161261114578906
 31
0.0
  0
LINE
  5
DA93
  8
0
 10
4163.6704390515669729
 20
238.92254125625999
 30
0.0
 11
4163.6843655702632532
 21
238.9033730477401889
 31
0.0
  0
ARC
  5
DA94
  8
0
 10
4163.7098330129183523
 20
238.9218762279373038
 30
0.0
 40
0.0314794903526417
 50
216.0000000408238918
 51
285.2653062511017765
  0
LINE
  5
DA95
  8
0
 10
4163.7181212146506368
 20
238.8915074277481949
 30
0.0
 11
4163.7658844523257358
 21
238.9169035916310122
 31
0.0
  0
LINE
  5
DA96
  8
0
 10
4163.7658844523257358
 20
238.9169035916310122
 30
0.0
 11
4163.7265464415986571
 21
238.9528535639163067
 31
0.0
  0
LINE
  5
DA97
  8
0
 10
4163.7145615431081751
 20
238.9464895287374873
 30
0.0
 11
4163.7356312713482112
 21
238.9576776495069907
 31
0.0
  0
ARC
  5
DA98
  8
0
 10
4163.734413845668314
 20
238.9580171560365045
 30
0.0
 40
0.001263878938507
 50
344.4176761337456014
 51
40.0089541832076918
  0
LINE
  5
DA99
  8
0
 10
4163.7353819061308968
 20
238.9588297130567014
 30
0.0
 11
4163.7099742759182845
 21
238.9877618169828111
 31
0.0
  0
ARC
  5
DA9A
  8
0
 10
4163.8555942229304492
 20
238.8103291063322899
 30
0.0
 40
0.02128138083175
 50
164.9168748885838056
 51
213.3800439746349866
  0
LINE
  5
DA9B
  8
0
 10
4163.8378234283818529
 20
238.7986203048899938
 30
0.0
 11
4163.8922534197690766
 21
238.7236066779962869
 31
0.0
  0
ARC
  5
DA9C
  8
0
 10
4163.911423355271836
 20
238.7374188770189107
 30
0.0
 40
0.0236275954978673
 50
215.7732624485267081
 51
297.9715009629047131
  0
LINE
  5
DA9D
  8
0
 10
4163.9225054613170869
 20
238.7165514336057868
 30
0.0
 11
4163.9719142000030843
 21
238.7427910102931037
 31
0.0
  0
LINE
  5
DA9E
  8
0
 10
4163.9719142000030843
 20
238.7427910102931037
 30
0.0
 11
4163.8753926961289835
 21
238.8276827207598956
 31
0.0
  0
LINE
  5
DA9F
  8
0
 10
4163.9508208812003431
 20
238.7315182580217083
 30
0.0
 11
4164.144522189862073
 21
238.5740091535803913
 31
0.0
  0
ARC
  5
DAA0
  8
0
 10
4162.0601870179816615
 20
241.0924158543151918
 30
0.0
 40
0.007874015596134
 50
152.8694885253484017
 51
204.2027949853340942
  0
LINE
  5
DAA1
  8
0
 10
4162.0530051274263315
 20
241.0891877636049117
 30
0.0
 11
4162.0831126109742399
 21
241.023419356484311
 31
0.0
  0
ARC
  5
DAA2
  8
0
 10
4162.1062886049603549
 20
241.0259953935064061
 30
0.0
 40
0.0232805254521727
 50
152.281978078702906
 51
186.6229952774934873
  0
ARC
  5
DAA3
  8
0
 10
4162.1094307673110961
 20
241.0263602321226983
 30
0.0
 40
0.0264437977237574
 50
186.6229952774951926
 51
223.5462645550620948
  0
LINE
  5
DAA4
  8
0
 10
4162.0902638185425531
 20
241.0081420403099912
 30
0.0
 11
4162.1031751881992022
 21
240.9808780823852885
 31
0.0
  0
ARC
  5
DAA5
  8
0
 10
4162.0996300041979339
 20
240.9791651184598891
 30
0.0
 40
0.0039373309490733
 50
308.5017058618482224
 51
25.7889295731095984
  0
LINE
  5
DAA6
  8
0
 10
4162.1020811420848986
 20
240.9760838041190993
 30
0.0
 11
4162.068222816999878
 21
240.9491525073954961
 31
0.0
  0
ARC
  5
DAA7
  8
0
 10
4162.0780262050247984
 20
240.9368279740880041
 30
0.0
 40
0.0157480328337694
 50
128.4976866325986862
 51
216.0182436435846114
  0
LINE
  5
DAA8
  8
0
 10
4162.06528872684612
 20
240.9275674564050007
 30
0.0
 11
4162.3071527286929268
 21
240.5948930259498866
 31
0.0
  0
ARC
  5
DAA9
  8
0
 10
4162.3198998395700983
 20
240.604160546884799
 30
0.0
 40
0.0157599422585956
 50
216.0182436435898978
 51
302.9818329711957858
  0
LINE
  5
DAAA
  8
0
 10
4162.3284791279829733
 20
240.5909404262220903
 30
0.0
 11
4162.3341189829270661
 21
240.5946004489559868
 31
0.0
  0
ARC
  5
DAAB
  8
0
 10
4162.3285402710389462
 20
240.5979735430960034
 30
0.0
 40
0.0065191863304762
 50
328.8413008471067087
 51
13.0600633549141705
  0
ARC
  5
DAAC
  8
0
 10
4162.0613362630419942
 20
240.5272291145400061
 30
0.0
 40
0.2829266349034961
 50
14.7885168170007102
 51
27.1128327711458113
  0
ARC
  5
DAAD
  8
0
 10
4161.3198215268948843
 20
240.1822249424739937
 30
0.0
 40
1.100622970619199
 50
25.5066886199402099
 51
32.9594563441839412
  0
ARC
  5
DAAE
  8
0
 10
4162.0806710577016929
 20
240.6804016145798073
 30
0.0
 40
0.1912401754891543
 50
31.7425984047349594
 51
44.8567710439208369
  0
ARC
  5
DAAF
  8
0
 10
4162.2130510023389434
 20
240.8123502955205026
 30
0.0
 40
0.0043344727702268
 50
42.7110428102278874
 51
105.0497085168142064
  0
LINE
  5
DAB0
  8
0
 10
4162.211925526304185
 20
240.8165360998505946
 30
0.0
 11
4162.1819325526348621
 21
240.7926786112741979
 31
0.0
  0
ARC
  5
DAB1
  8
0
 10
4162.1917452564321138
 20
240.7803222771105141
 30
0.0
 40
0.0157787245929043
 50
128.4546214119496881
 51
210.1251818318023084
  0
LINE
  5
DAB2
  8
0
 10
4162.2392904919106513
 20
240.6882348659862032
 30
0.0
 11
4162.2230935151110316
 21
240.6750694469104133
 31
0.0
  0
ARC
  5
DAB3
  8
0
 10
4162.228060032830399
 20
240.6689593055019998
 30
0.0
 40
0.0078740158923089
 50
129.1053109047522014
 51
174.8070825457213004
  0
LINE
  5
DAB4
  8
0
 10
4162.2202183350900668
 20
240.6696719785427092
 30
0.0
 11
4162.2169271641578234
 21
240.633458503088292
 31
0.0
  0
ARC
  5
DAB5
  8
0
 10
4162.2365658717662882
 20
240.6316736883792089
 30
0.0
 40
0.0197196450289507
 50
174.8070825457213004
 51
210.8940577711705942
  0
LINE
  5
DAB6
  8
0
 10
4162.2196440862344389
 20
240.621548592109491
 30
0.0
 11
4162.2216231971433444
 21
240.6182409603146084
 31
0.0
  0
LINE
  5
DAB7
  8
0
 10
4162.2219328452538321
 20
240.6185028132844081
 30
0.0
 11
4162.2164292823190408
 21
240.6141629725985922
 31
0.0
  0
ARC
  5
DAB8
  8
0
 10
4162.220086340897069
 20
240.6095252788445862
 30
0.0
 40
0.0059061223152415
 50
128.2575850522335088
 51
209.711944383782793
  0
LINE
  5
DAB9
  8
0
 10
4162.2149567070664489
 20
240.6065979699143043
 30
0.0
 11
4162.3066814426028941
 21
240.4532716564455939
 31
0.0
  0
LINE
  5
DABA
  8
0
 10
4162.254792810887011
 20
240.5382268897967037
 30
0.0
 11
4162.2318849282355586
 21
240.5187843158770988
 31
0.0
  0
ARC
  5
DABB
  8
0
 10
4162.2395276699808164
 20
240.5097793851658139
 30
0.0
 40
0.0118110235999955
 50
130.32221743980719
 51
216.0000000014908039
  0
LINE
  5
DABC
  8
0
 10
4162.2299723511659977
 20
240.5028370396788944
 30
0.0
 11
4162.3670382397249341
 21
240.3141820287642929
 31
0.0
  0
ARC
  5
DABD
  8
0
 10
4162.3765935585843181
 20
240.3211243742842953
 30
0.0
 40
0.0118110236565034
 50
216.0000000014987904
 51
301.9996924439752206
  0
LINE
  5
DABE
  8
0
 10
4162.3828523937836508
 20
240.311108024562003
 30
0.0
 11
4162.3955074136556505
 21
240.3190156641736905
 31
0.0
  0
LINE
  5
DABF
  8
0
 10
4162.2202183350900668
 20
240.6696719785427092
 30
0.0
 11
4162.9678808964581549
 21
239.6406027465374109
 31
0.0
  0
LINE
  5
DAC0
  8
0
 10
4163.249019792474428
 20
239.4132873117239058
 30
0.0
 11
4163.188872607117446
 21
239.4708472495254057
 31
0.0
  0
LINE
  5
DAC1
  8
0
 10
4163.1924277959524261
 20
239.4732004180868046
 30
0.0
 11
4163.1574062571808099
 21
239.4500201268683952
 31
0.0
  0
ARC
  5
DAC2
  8
0
 10
4163.1487143329068203
 20
239.4631521690899092
 30
0.0
 40
0.015748018304024
 50
215.9999542059267128
 51
303.5000459315060084
  0
LINE
  5
DAC3
  8
0
 10
4163.1359739110730516
 20
239.4538957263607983
 30
0.0
 11
4163.0079070631709328
 21
239.6301649166929053
 31
0.0
  0
ARC
  5
DAC4
  8
0
 10
4163.0206485166481798
 20
239.6394221089531129
 30
0.0
 40
0.0157492934838549
 50
129.4742509329036011
 51
215.9999542059665885
  0
ARC
  5
DAC5
  8
0
 10
4163.0673043115912151
 20
239.5827722525106935
 30
0.0
 40
0.0891384577840235
 50
127.2994934086379999
 51
129.4742509329024927
  0
ARC
  5
DAC6
  8
0
 10
4163.0112900766398525
 20
239.6563027948774049
 30
0.0
 40
0.0032971153346884
 50
307.2994934086536887
 51
2.7176361527952899
  0
ARC
  5
DAC7
  8
0
 10
4163.0199345648788949
 20
239.6600967166228031
 30
0.0
 40
0.0064704055973307
 50
188.483669841178596
 51
214.2073359421343071
  0
ARC
  5
DAC8
  8
0
 10
4163.0140078753156558
 20
239.6590839201745951
 30
0.0
 40
0.0004764884056148
 50
76.3910848235400408
 51
172.9801041139822075
  0
ARC
  5
DAC9
  8
0
 10
4162.9899114587797158
 20
239.6114833643894997
 30
0.0
 40
0.0538160665063634
 50
47.7558508859303075
 51
63.2666862432308577
  0
ARC
  5
DACA
  8
0
 10
4162.4963729334522213
 20
239.0304326715971115
 30
0.0
 40
0.8161532946383292
 50
45.9361569365180102
 51
49.5305119842789665
  0
ARC
  5
DACB
  8
0
 10
4161.7537353617180997
 20
238.2397587017649982
 30
0.0
 40
1.900847968397025
 50
41.0048123829887103
 51
46.4259168982712822
  0
ARC
  5
DACC
  8
0
 10
4163.1273142283116613
 20
239.4342542675456116
 30
0.0
 40
0.0805354521046878
 50
29.6399674664546993
 51
40.8656995772768497
  0
ARC
  5
DACD
  8
0
 10
4163.1957709558810166
 20
239.4732981901321125
 30
0.0
 40
0.0017290176741689
 50
345.2602441552148207
 51
26.9921417193879911
  0
ARC
  5
DACE
  8
0
 10
4163.1970377577017643
 20
239.4731537914153989
 30
0.0
 40
0.0005016070686655
 50
266.4323942030459875
 51
323.9044479164488735
  0
ARC
  5
DACF
  8
0
 10
4163.1943701565687661
 20
239.4700234439258963
 30
0.0
 40
0.0037236983741564
 50
44.9273697104238821
 51
121.4410721936861961
  0
ARC
  5
DAD0
  8
0
 10
4162.9928991577016859
 20
239.6378147576542972
 30
0.0
 40
0.0224513049079065
 50
37.8123742184387268
 51
61.8803073424018493
  0
ARC
  5
DAD1
  8
0
 10
4163.0012759447818098
 20
239.6500570027309891
 30
0.0
 40
0.0078740158447604
 50
73.7388387460940464
 51
122.9999974983603011
  0
LINE
  5
DAD2
  8
0
 10
4162.9969874486778281
 20
239.6566607082588121
 30
0.0
 11
4162.9744072348967165
 21
239.6419969459913091
 31
0.0
  0
ARC
  5
DAD3
  8
0
 10
4162.9696289552657618
 20
239.6483921767697893
 30
0.0
 40
0.0079831655966697
 50
257.3515667041011739
 51
306.7657240485947909
  0
LINE
  5
DAD4
  8
0
 10
4162.9678808964581549
 20
239.6406027465374109
 30
0.0
 11
4162.9324226624376024
 21
239.6486632291563126
 31
0.0
  0
ARC
  5
DAD5
  8
0
 10
4162.936925314196742
 20
239.6682973227325988
 30
0.0
 40
0.0201437703053035
 50
218.1140101387530024
 51
257.0845894784279722
  0
LINE
  5
DAD6
  8
0
 10
4162.9210765156249181
 20
239.6558640180255111
 30
0.0
 11
4162.9154591618153063
 21
239.6520750650117861
 31
0.0
  0
ARC
  5
DAD7
  8
0
 10
4162.9121117069062166
 20
239.6571573127696979
 30
0.0
 40
0.006085613919236
 50
212.7169837441998936
 51
303.3711532475564923
  0
LINE
  5
DAD8
  8
0
 10
4162.9069915719492201
 20
239.6538681008892979
 30
0.0
 11
4162.8969242411767482
 21
239.6649073965257912
 31
0.0
  0
ARC
  5
DAD9
  8
0
 10
4162.8949610047266106
 20
239.6593831582326004
 30
0.0
 40
0.005862721729902
 50
70.4355037312820542
 51
122.1800291993686045
  0
LINE
  5
DADA
  8
0
 10
4162.8918386287778048
 20
239.6643452419203015
 30
0.0
 11
4162.8649557318467487
 21
239.6475497063397881
 31
0.0
  0
ARC
  5
DADB
  8
0
 10
4162.8586957594952764
 20
239.6575602040419994
 30
0.0
 40
0.0118066641390946
 50
215.9916663280469038
 51
302.0194213231117146
  0
LINE
  5
DADC
  8
0
 10
4162.8491429582672936
 20
239.6506218103639867
 30
0.0
 11
4162.7188231448189981
 21
239.8300465203832914
 31
0.0
  0
ARC
  5
DADD
  8
0
 10
4162.7295089280969478
 20
239.8355175350588979
 30
0.0
 40
0.0120049142375981
 50
130.3279444042676118
 51
207.1119945725370997
  0
LINE
  5
DADE
  8
0
 10
4162.7217398077200414
 20
239.8446695148674053
 30
0.0
 11
4162.7632926684191261
 21
239.8795365052924922
 31
0.0
  0
ARC
  5
DADF
  8
0
 10
4162.776823050456187
 20
239.8927131590862984
 30
0.0
 40
0.0584072397685339
 50
198.8410685550302048
 51
221.4204124181572979
  0
ARC
  5
DAE0
  8
0
 10
4162.7294713654937368
 20
239.8750052498022001
 30
0.0
 40
0.0080096013408094
 50
120.7378278066011035
 51
188.2864939106270867
  0
LINE
  5
DAE1
  8
0
 10
4162.7253774611290282
 20
239.8818895340961035
 30
0.0
 11
4162.6104461816566982
 21
240.032716371940694
 31
0.0
  0
LINE
  5
DAE2
  8
0
 10
4162.6120717377280016
 20
240.0337425430599865
 30
0.0
 11
4162.5930249198800084
 21
240.0218303593445057
 31
0.0
  0
ARC
  5
DAE3
  8
0
 10
4162.5867647687809949
 20
240.0318399394973881
 30
0.0
 40
0.0118059809685094
 50
215.9771749374856995
 51
302.0225178310689103
  0
LINE
  5
DAE4
  8
0
 10
4162.5772107658413006
 20
240.0249043634968018
 30
0.0
 11
4162.5045810372448614
 21
240.1249544012216859
 31
0.0
  0
ARC
  5
DAE5
  8
0
 10
4162.5141537474228244
 20
240.1319035574441898
 30
0.0
 40
0.0118290976989699
 50
130.3211437860819046
 51
215.977174937526911
  0
LINE
  5
DAE6
  8
0
 10
4162.5064994791946447
 20
240.1409224115976997
 30
0.0
 11
4162.5228618535338683
 21
240.1546520739555888
 31
0.0
  0
ARC
  5
DAE7
  8
0
 10
4162.5213716051794108
 20
240.1574049755720068
 30
0.0
 40
0.003130384556517
 50
298.428336615471494
 51
31.0286061423298811
  0
ARC
  5
DAE8
  8
0
 10
4162.5275831542321612
 20
240.161141472951698
 30
0.0
 40
0.0041183914999408
 50
166.1383529359501097
 51
211.0286061423452111
  0
ARC
  5
DAE9
  8
0
 10
4162.5245064351183828
 20
240.1619006986742875
 30
0.0
 40
0.0009493815284798
 50
49.7946779321173665
 51
166.1383529360639102
  0
ARC
  5
DAEA
  8
0
 10
4162.3831172214167964
 20
239.9946206787280119
 30
0.0
 40
0.2199779523230794
 50
36.0304667520748225
 51
49.7946779321184181
  0
ARC
  5
DAEB
  8
0
 10
4160.9430593396209588
 20
238.9471869801537878
 30
0.0
 40
2.0006755841048509
 50
33.3138904463121008
 51
36.0304667520748225
  0
ARC
  5
DAEC
  8
0
 10
4162.5905644524882518
 20
240.0299674060084953
 30
0.0
 40
0.0292074642665514
 50
4.3881321989391919
 51
33.3138904463121008
  0
ARC
  5
DAED
  8
0
 10
4162.6196647589831628
 20
240.036411835897411
 30
0.0
 40
0.0042097487459807
 50
227.7808333808910959
 51
270.2931615201246132
  0
ARC
  5
DAEE
  8
0
 10
4162.6142492220869826
 20
240.031344141696195
 30
0.0
 40
0.0032394084692387
 50
37.0113935752332779
 51
132.2359904982361911
  0
LINE
  5
DAEF
  8
0
 10
4162.3892467839386882
 20
240.3280752783051071
 30
0.0
 11
4162.3968150772770969
 21
240.3171438110358054
 31
0.0
  0
LINE
  5
DAF0
  8
0
 10
4162.4252396412948656
 20
240.3409999249047075
 30
0.0
 11
4162.3854156763527499
 21
240.3075785779101921
 31
0.0
  0
ARC
  5
DAF1
  8
0
 10
4162.393008334294791
 20
240.2985313739254991
 30
0.0
 40
0.0118110268210463
 50
130.0042825063493126
 51
216.0412393558264057
  0
LINE
  5
DAF2
  8
0
 10
4162.3834580121920226
 20
240.2915821507820908
 30
0.0
 11
4162.4803060965959958
 21
240.1584837623688884
 31
0.0
  0
ARC
  5
DAF3
  8
0
 10
4162.488862274364692
 20
240.1665739556746075
 30
0.0
 40
0.0117753728495616
 50
223.3965290494988096
 51
302.0618008408682726
  0
LINE
  5
DAF4
  8
0
 10
4162.4951130389199534
 20
240.1565946095921902
 30
0.0
 11
4162.5398501444569774
 21
240.1845494556899894
 31
0.0
  0
LINE
  5
DAF5
  8
0
 10
4162.2193920446179618
 20
240.6219947045962897
 30
0.0
 11
4162.9324229340882084
 21
239.6486631674038961
 31
0.0
  0
ARC
  5
DAF6
  8
0
 10
4162.2975535282703277
 20
240.430033115760807
 30
0.0
 40
0.0119872152824748
 50
130.2779362757223964
 51
208.3759686167678069
  0
LINE
  5
DAF7
  8
0
 10
4162.2898038410630761
 20
240.4391783701815086
 30
0.0
 11
4162.3107938970870237
 21
240.4567056750846064
 31
0.0
  0
ARC
  5
DAF8
  8
0
 10
4162.3081846142113136
 20
240.46002790220831
 30
0.0
 40
0.004224399387568
 50
308.146151787970723
 51
29.4768627448301004
  0
ARC
  5
DAF9
  8
0
 10
4162.3134436522223041
 20
240.4630005198854974
 30
0.0
 40
0.0018166217722856
 50
134.7894255726452002
 51
209.4768627450004885
  0
ARC
  5
DAFA
  8
0
 10
4162.3111565982480897
 20
240.4609798879241964
 30
0.0
 40
0.0034597542099515
 50
47.9719170281049401
 51
73.0743837957072486
  0
ARC
  5
DAFB
  8
0
 10
4162.2399427360169284
 20
240.3897641029213048
 30
0.0
 40
0.1041682272652865
 50
35.4316194600041499
 51
45.0994103239312096
  0
ARC
  5
DAFC
  8
0
 10
4161.8629645819701182
 20
240.1057709019449931
 30
0.0
 40
0.5761160934157599
 50
33.1389638494642327
 51
36.7100824088184012
  0
ARC
  5
DAFD
  8
0
 10
4161.7743337747178884
 20
240.0231977655832907
 30
0.0
 40
0.6957789341143399
 50
26.6657641905324496
 51
34.8430248973353685
  0
ARC
  5
DAFE
  8
0
 10
4162.3656844339930103
 20
240.3201735653096875
 30
0.0
 40
0.0340461875716027
 50
13.6330867919632102
 51
26.6657641905324496
  0
ARC
  5
DAFF
  8
0
 10
4162.3975566435019573
 20
240.3279037495937871
 30
0.0
 40
0.0012499455908728
 50
324.3147224871913181
 51
13.6330867919192809
  0
ARC
  5
DB00
  8
0
 10
4162.398293193333302
 20
240.3276749584586014
 30
0.0
 40
0.0005727262431794
 50
245.1965373010029907
 51
299.1184057901156734
  0
ARC
  5
DB01
  8
0
 10
4162.393078546409015
 20
240.3229810283328902
 30
0.0
 40
0.0064936184901871
 50
40.0002206031230969
 51
113.417576850254207
  0
LINE
  5
DB02
  8
0
 10
4162.3904977914098708
 20
240.3289397853118032
 30
0.0
 11
4162.3763292817438924
 21
240.3200863179245914
 31
0.0
  0
ARC
  5
DB03
  8
0
 10
4162.3700557380579994
 20
240.3301625071505043
 30
0.0
 40
0.0118695804353161
 50
220.41889122535909
 51
301.9071423999424724
  0
LINE
  5
DB04
  8
0
 10
4162.3201179557499927
 20
240.5882916403012928
 30
0.0
 11
4162.4647459552297732
 21
240.3892282766553876
 31
0.0
  0
LINE
  5
DB05
  8
0
 10
4162.4892556074037202
 20
240.4120139384523043
 30
0.0
 11
4162.4697578468212669
 21
240.3963948344539006
 31
0.0
  0
ARC
  5
DB06
  8
0
 10
4162.4794772626819395
 20
240.3842618181494117
 30
0.0
 40
0.0155459682659683
 50
128.6972296886293066
 51
161.3691708119324915
  0
ARC
  5
DB07
  8
0
 10
4162.4799126053558211
 20
240.3841150483303863
 30
0.0
 40
0.0160053859666962
 50
161.3691708119355894
 51
215.3814451029737995
  0
LINE
  5
DB08
  8
0
 10
4162.4668631684990032
 20
240.3748476550802877
 30
0.0
 11
4162.5949226942202586
 21
240.1985888391405979
 31
0.0
  0
ARC
  5
DB09
  8
0
 10
4162.6076705843615855
 20
240.2078350443620991
 30
0.0
 40
0.0157480479452264
 50
215.9538496482032883
 51
271.1088432199528029
  0
ARC
  5
DB0A
  8
0
 10
4162.6076705848254278
 20
240.207835020449096
 30
0.0
 40
0.0157480240277058
 50
271.1088432199528029
 51
303.5000076109355973
  0
LINE
  5
DB0B
  8
0
 10
4162.6163625034760116
 20
240.1947029676414047
 30
0.0
 11
4162.6321111468923846
 21
240.2051267703355109
 31
0.0
  0
ARC
  5
DB0C
  8
0
 10
4162.6228774363189586
 20
240.211599588701489
 30
0.0
 40
0.0112764705710752
 50
324.9695973490589722
 51
18.523361320479701
  0
ARC
  5
DB0D
  8
0
 10
4162.1984741157357348
 20
240.0546289637138955
 30
0.0
 40
0.463773081027845
 50
20.2543834234959412
 51
37.4365897572321629
  0
ARC
  5
DB0E
  8
0
 10
4162.2117099003990006
 20
240.0906398699804072
 30
0.0
 40
0.4318622017243444
 50
34.7094529248226067
 51
46.5905401901692997
  0
ARC
  5
DB0F
  8
0
 10
4162.4830974746473657
 20
240.3783222241474107
 30
0.0
 40
0.0363766431759486
 50
45.7322325833615224
 51
74.513559547001492
  0
ARC
  5
DB10
  8
0
 10
4162.4926637481166836
 20
240.4084467893767112
 30
0.0
 40
0.0049335560847859
 50
88.2964507681859629
 51
133.6941143978532125
  0
LINE
  5
DB11
  8
0
 10
4162.6079753245430766
 20
240.1920899452036906
 30
0.0
 11
4162.79211484291136
 21
239.9386436584034072
 31
0.0
  0
LINE
  5
DB12
  8
0
 10
4162.8063652443997853
 20
239.9531871102277023
 30
0.0
 11
4162.7971460897679208
 21
239.945825696289802
 31
0.0
  0
ARC
  5
DB13
  8
0
 10
4162.8068470726457235
 20
239.933676554562993
 30
0.0
 40
0.0155470483853508
 50
128.6070576771541027
 51
161.3680030243621104
  0
ARC
  5
DB14
  8
0
 10
4162.8072807822618415
 20
239.9335303254626979
 30
0.0
 40
0.0160047458627493
 50
161.3680030243529018
 51
215.3826127316351915
  0
ARC
  5
DB15
  8
0
 10
4171.0366844211230273
 20
245.7781052948475917
 30
0.0
 40
10.1096730990462795
 50
215.3826127316351915
 51
216.6173872812074137
  0
ARC
  5
DB16
  8
0
 10
4162.9350869877525838
 20
239.7575126154590919
 30
0.0
 40
0.015941520314496
 50
216.6173872812449872
 51
302.8374250755439903
  0
LINE
  5
DB17
  8
0
 10
4162.9437313910457306
 20
239.7441183494605923
 30
0.0
 11
4162.9710633656331993
 21
239.7622089887672132
 31
0.0
  0
ARC
  5
DB18
  8
0
 10
4162.9633852696606482
 20
239.7669978497555121
 30
0.0
 40
0.0090491075433278
 50
328.0480352224906255
 51
30.678388518690479
  0
ARC
  5
DB19
  8
0
 10
4162.6480070202751449
 20
239.6116476307149981
 30
0.0
 40
0.3605862966697416
 50
26.3357806079409293
 51
40.4985732667234828
  0
ARC
  5
DB1A
  8
0
 10
4162.532831514409736
 20
239.5613039802722142
 30
0.0
 40
0.4822474173846718
 50
36.1559653560101069
 51
53.9941469034016919
  0
ARC
  5
DB1B
  8
0
 10
4162.8095336503065482
 20
239.9420699929856085
 30
0.0
 40
0.0115598050054611
 50
53.9941469034055075
 51
105.9076829786990004
  0
LINE
  5
DB1C
  8
0
 10
4162.9352510467233515
 20
239.7415719393569873
 30
0.0
 11
4162.9969874486605477
 21
239.6566607082829989
 31
0.0
  0
ARC
  5
DB1D
  8
0
 10
4162.769375571278033
 20
239.7805063132159091
 30
0.0
 40
0.0118110235752964
 50
129.9999999925398981
 51
212.4858349784651921
  0
LINE
  5
DB1E
  8
0
 10
4162.7617835916671538
 20
239.7895540821942006
 30
0.0
 11
4162.7731046244089157
 21
239.7990535565897972
 31
0.0
  0
ARC
  5
DB1F
  8
0
 10
4162.7694614665697372
 20
239.8033953030331134
 30
0.0
 40
0.0056677474549111
 50
309.9999999925315137
 51
26.0156967613247403
  0
ARC
  5
DB20
  8
0
 10
4162.778426244691218
 20
239.8092551814667104
 30
0.0
 40
0.0051352088896023
 50
205.1724226846085912
 51
221.0725664892123916
  0
ARC
  5
DB21
  8
0
 10
4162.7738843914739846
 20
239.8071603470984883
 30
0.0
 40
0.0001384142251728
 50
80.6776292201144543
 51
220.229292412423689
  0
ARC
  5
DB22
  8
0
 10
4162.7688053470747036
 20
239.8000878289545028
 30
0.0
 40
0.0088315423169088
 50
48.0499654857341696
 51
54.7151661440262629
  0
ARC
  5
DB23
  8
0
 10
4161.6221641224292398
 20
238.7077546152397929
 30
0.0
 40
1.5924648609539309
 50
40.6941281568346866
 51
43.6351159682376775
  0
ARC
  5
DB24
  8
0
 10
4161.190674860224135
 20
238.308051493292993
 30
0.0
 40
2.1803433734575091
 50
39.4256741298041078
 51
41.2647830178345529
  0
ARC
  5
DB25
  8
0
 10
4162.790870958026062
 20
239.6233805790953966
 30
0.0
 40
0.1089387379013332
 50
34.786921271052897
 51
39.5427170314363465
  0
ARC
  5
DB26
  8
0
 10
4162.8793673097015926
 20
239.6848111554178047
 30
0.0
 40
0.0012113440867552
 50
2.990679656225752
 51
36.5755383443152766
  0
ARC
  5
DB27
  8
0
 10
4162.8805554391474288
 20
239.6850020883626087
 30
0.0
 40
0.0001295404543052
 50
245.1261624229645975
 51
279.5827453496488033
  0
ARC
  5
DB28
  8
0
 10
4162.6481106455757981
 20
239.3841405714510131
 30
0.0
 40
0.3800686829395183
 50
52.3060910963130112
 51
52.6296596511955812
  0
ARC
  5
DB29
  8
0
 10
4162.8761654376530714
 20
239.6809937557640069
 30
0.0
 40
0.0058273627567068
 50
63.1340236526898124
 51
122.0141118850375932
  0
LINE
  5
DB2A
  8
0
 10
4162.8730761887809422
 20
239.685934878926787
 30
0.0
 11
4162.848309037600302
 21
239.6704620227224893
 31
0.0
  0
ARC
  5
DB2B
  8
0
 10
4162.8419539658898429
 20
239.6807872508688888
 30
0.0
 40
0.0121242431812028
 50
226.6656459844788003
 51
301.611869683309294
  0
LINE
  5
DB2C
  8
0
 10
4162.8771910724772169
 20
239.6867301509651043
 30
0.0
 11
4162.8969242411767482
 21
239.6649073965255923
 31
0.0
  0
LINE
  5
DB2D
  8
0
 10
4162.5017164931568914
 20
240.1607209057553121
 30
0.0
 11
4162.513441563068227
 21
240.1467475116515118
 31
0.0
  0
LINE
  5
DB2E
  8
0
 10
4162.7253775741628488
 20
239.8818896224082096
 30
0.0
 11
4162.7489295620189296
 21
239.8991430393668054
 31
0.0
  0
ARC
  5
DB2F
  8
0
 10
4163.3044667974982076
 20
239.2750329784608994
 30
0.0
 40
0.095173903774526
 50
45.238084829388491
 51
62.3077793086670013
  0
LINE
  5
DB30
  8
0
 10
4163.9693431902051088
 20
238.7414388733870965
 30
0.0
 11
4164.1679926047663685
 21
238.5908743576189863
 31
0.0
  0
LINE
  5
DB31
  8
0
 10
4161.5807955897898864
 20
242.1639859819725018
 30
0.0
 11
4161.5574209049564161
 21
242.1956351207541047
 31
0.0
  0
ARC
  5
DB32
  8
0
 10
4161.6855789174951497
 20
242.2902870849858914
 30
0.0
 40
0.1593219084454612
 50
72.4032771898517922
 51
216.4479714508916004
  0
LINE
  5
DB33
  8
0
 10
4161.7337443791775513
 20
242.4421539964957049
 30
0.0
 11
4162.0253609596984461
 21
242.6382017613578057
 31
0.0
  0
ARC
  5
DB34
  8
0
 10
4162.0516111422703034
 20
242.595055417940813
 30
0.0
 40
0.0505042476952422
 50
89.4214153116632531
 51
121.3162800236859056
  0
ARC
  5
DB35
  8
0
 10
4162.0531169189971479
 20
242.7441636134306009
 30
0.0
 40
0.0986115506822524
 50
269.4214153116632815
 51
286.0863427150782741
  0
ARC
  5
DB36
  8
0
 10
4162.0720826486412989
 20
242.6783964682358885
 30
0.0
 40
0.0301643718655757
 50
286.0863427150782741
 51
306.8395885560040028
  0
LINE
  5
DB37
  8
0
 10
4162.0901685038261348
 20
242.6542554000679104
 30
0.0
 11
4162.1360706487912466
 21
242.6874861343596876
 31
0.0
  0
ARC
  5
DB38
  8
0
 10
4162.2976854337339319
 20
242.4642579702504861
 30
0.0
 40
0.2755905512964015
 50
55.7359194788925834
 51
125.9041332624425991
  0
ARC
  5
DB39
  8
0
 10
4159.0658331628474116
 20
237.7201536968127016
 30
0.0
 40
6.0159210694887939
 50
39.0462097852220467
 51
55.7359194725780611
  0
ARC
  5
DB3A
  8
0
 10
4158.5239421990663686
 20
237.2806149410822059
 30
0.0
 40
6.7136603721063484
 50
17.1100961973727905
 51
39.0462097852220467
  0
ARC
  5
DB3B
  8
0
 10
4164.6836699827281336
 20
239.1767828497553978
 30
0.0
 40
0.2686856548009739
 50
304.8616570395441272
 51
17.1100961973727905
  0
LINE
  5
DB3C
  8
0
 10
4164.8372498676117175
 20
238.9563169792569113
 30
0.0
 11
4164.791349159049787
 21
238.9230872849306024
 31
0.0
  0
ARC
  5
DB3D
  8
0
 10
4164.8203047778570181
 20
238.8870020666768141
 30
0.0
 40
0.0462663034720026
 50
128.7443686672980903
 51
157.9722376252773017
  0
ARC
  5
DB3E
  8
0
 10
4164.2696878601309436
 20
239.1097761526623913
 30
0.0
 40
0.5477095238754847
 50
335.7559475172647012
 51
337.9722376252772733
  0
ARC
  5
DB3F
  8
0
 10
4164.7176596305071143
 20
238.9080355189095997
 30
0.0
 40
0.056407182784177
 50
312.6195537248748906
 51
335.7559475172647012
  0
LINE
  5
DB40
  8
0
 10
4164.7558544650419208
 20
238.8665273885659985
 30
0.0
 11
4164.4785517931322829
 21
238.650707592560309
 31
0.0
  0
ARC
  5
DB41
  8
0
 10
4164.3240911309485455
 20
238.6498640733458956
 30
0.0
 40
0.154462965424685
 50
210.8310116872596041
 51
0.3128927327624012
  0
LINE
  5
DB42
  8
0
 10
4161.7337443790993348
 20
242.4421539965206875
 30
0.0
 11
4164.4785517931322829
 21
238.650707592560309
 31
0.0
  0
LINE
  5
DB43
  8
0
 10
4162.0253609596984461
 20
242.6382017613578057
 30
0.0
 11
4164.7558544650419208
 21
238.8665273885659985
 31
0.0
  0
LINE
  5
DB44
  8
0
 10
4164.791349159049787
 20
238.9230872849306024
 30
0.0
 11
4162.0901685038261348
 21
242.6542554000679104
 31
0.0
  0
LINE
  5
DB45
  8
0
 10
4162.4528451314963604
 20
242.6920201711402001
 30
0.0
 11
4164.9404639298945767
 21
239.2558325163840891
 31
0.0
  0
LINE
  5
DB46
  8
0
 10
4163.7380269953418974
 20
241.5098649135042876
 30
0.0
 11
4163.9586121097072464
 21
241.5857022057853953
 31
0.0
  0
ARC
  5
DB47
  8
0
 10
4164.4417509161794442
 20
240.176455324375695
 30
0.0
 40
1.4897650415694379
 50
19.7624050949522214
 51
108.9234965003100939
  0
ARC
  5
DB48
  8
0
 10
3518.5646400341311164
 20
4.712982276586672
 30
0.0
 40
688.9490490758475971
 50
19.9705492656017007
 51
20.0294507373540291
  0
ARC
  5
DB49
  8
0
 10
4166.122992934821923
 20
240.0280707391657984
 30
0.0
 40
0.0393479742105498
 50
199.9705492656001979
 51
286.68163578294741
  0
LINE
  5
DB4A
  8
0
 10
4166.172827553245952
 20
240.0044060255895033
 30
0.0
 11
4165.2493413130268891
 21
239.6682845223668039
 31
0.0
  0
ARC
  5
DB4B
  8
0
 10
4166.206653179577188
 20
239.9119758012182899
 30
0.0
 40
0.0984251968451508
 50
317.1575424036117283
 51
110.1005289091558978
  0
ARC
  5
DB4C
  8
0
 10
4166.4029974016420965
 20
239.7424314442837954
 30
0.0
 40
0.1610898559186878
 50
140.4303775796830962
 51
182.94048421110611
  0
ARC
  5
DB4D
  8
0
 10
4166.5661522194041027
 20
239.7380404775367992
 30
0.0
 40
0.3240557181223205
 50
180.6847454838591887
 51
201.824248102522688
  0
ARC
  5
DB4E
  8
0
 10
4181.5324199750093612
 20
242.5531354777951094
 30
0.0
 40
16.4162519204671113
 50
192.5375276757382892
 51
207.0982734456451908
  0
ARC
  5
DB4F
  8
0
 10
4158.947601626919095
 20
230.9014891308858068
 30
0.0
 40
8.9972879136742012
 50
24.8172450453594493
 51
27.6383715773822196
  0
ARC
  5
DB50
  8
0
 10
4166.4628524412819388
 20
234.3950821081052993
 30
0.0
 40
0.7099068974510773
 50
14.4044959796171206
 51
23.4754987529007906
  0
ARC
  5
DB51
  8
0
 10
4167.0284601743451276
 20
234.5358130956628031
 30
0.0
 40
0.1271467924341203
 50
341.2426122538240065
 51
16.3862951700050914
  0
ARC
  5
DB52
  8
0
 10
4167.1020288578238251
 20
234.5164334830081998
 30
0.0
 40
0.0515276726102231
 50
297.1709172442821227
 51
335.3315847403467274
  0
ARC
  5
DB53
  8
0
 10
4167.171437082301054
 20
234.383513271054909
 30
0.0
 40
0.0984251969065317
 50
117.7829576419359938
 51
289.9999999979356744
  0
LINE
  5
DB54
  8
0
 10
4167.2051004822506002
 20
234.2910238398212073
 30
0.0
 11
4168.186095620119886
 21
234.6480768699939006
 31
0.0
  0
ARC
  5
DB55
  8
0
 10
4151.8449148845702439
 20
231.7477672943836922
 30
0.0
 40
16.4162519204671113
 50
12.9017265573034798
 51
27.4624723272106905
  0
ARC
  5
DB56
  8
0
 10
4176.635423382931549
 20
237.339329759596211
 30
0.0
 40
8.9972879136742012
 50
192.3616284255703022
 51
195.1827549575955061
  0
ARC
  5
DB57
  8
0
 10
4168.6327689790086879
 20
235.1848671387433001
 30
0.0
 40
0.7099068974510773
 50
196.5245012500589894
 51
205.5955040233372131
  0
ARC
  5
DB58
  8
0
 10
4168.1090281830238382
 20
234.9291076869535004
 30
0.0
 40
0.1271467924341203
 50
203.6137048329536015
 51
238.7573877491209089
  0
ARC
  5
DB59
  8
0
 10
4168.0651282767539669
 20
234.8669730041663115
 30
0.0
 40
0.0515276726102231
 50
244.6684152626100968
 51
282.8290827586865817
  0
ARC
  5
DB5A
  8
0
 10
4168.0973979574146142
 20
234.7205354677184062
 30
0.0
 40
0.0984251969065317
 50
290.0000000050350764
 51
102.2170423609824041
  0
ARC
  5
DB5B
  8
0
 10
4159.8081152077484148
 20
237.7406892110487036
 30
0.0
 40
5.8347253358003037
 50
12.3587873167680797
 51
15.62787168314075
  0
ARC
  5
DB5C
  8
0
 10
4165.1701713210477465
 20
239.2406142845040904
 30
0.0
 40
0.266833365927648
 50
15.62787168314075
 51
46.825111696625207
  0
ARC
  5
DB5D
  8
0
 10
4165.2350023007420532
 20
239.309712929927997
 30
0.0
 40
0.1720827525920712
 50
46.825111696625207
 51
78.0685869949887348
  0
ARC
  5
DB5E
  8
0
 10
4165.2828423824157653
 20
239.5757361688719129
 30
0.0
 40
0.0984251969000009
 50
109.8994707626751932
 51
262.842457467053805
  0
ARC
  5
DB5F
  8
0
 10
4172.2194829373556786
 20
242.3371843222494988
 30
0.0
 40
6.5458641913247169
 50
204.5489647263866004
 51
207.4628122592687021
  0
ARC
  5
DB60
  8
0
 10
4165.2722577620543234
 20
239.7184503516390066
 30
0.0
 40
0.0393710334000017
 50
293.3795108607985753
 51
20.0000000014669084
  0
LINE
  5
DB61
  8
0
 10
4165.3092544316114072
 20
239.7319160381262861
 30
0.0
 11
4165.0670165431938585
 21
240.3974591666336948
 31
0.0
  0
ARC
  5
DB62
  8
0
 10
4164.442246747588797
 20
240.1774644129548051
 30
0.0
 40
0.6623707339159541
 50
19.3982521440977287
 51
108.069969455828101
  0
LINE
  5
DB63
  8
0
 10
4165.2705787977811269
 20
239.4780779696426123
 30
0.0
 11
4166.278821110698118
 21
239.845048160501392
 31
0.0
  0
LINE
  5
DB64
  8
0
 10
4168.0765696586950071
 20
234.8167316285488937
 30
0.0
 11
4167.1255587845107584
 21
234.4705919778542977
 31
0.0
  0
LINE
  5
DB65
  8
0
 10
4169.3866351972874327
 20
234.1121460765253062
 30
0.0
 11
4168.4492930656360841
 21
234.1121462603009888
 31
0.0
  0
LINE
  5
DB66
  8
0
 10
4169.3866351972874327
 20
234.4121461919777971
 30
0.0
 11
4168.3254445521761227
 21
234.4121459839203112
 31
0.0
  0
ARC
  5
DB67
  8
0
 10
4168.1902481536017149
 20
234.6183656521515957
 30
0.0
 40
0.0299999999999994
 50
20.0000000158049502
 51
97.9563004896443346
  0
LINE
  5
DB68
  8
0
 10
4168.2184389322237621
 20
234.6286262564591141
 30
0.0
 11
4168.2876561465409395
 21
234.4384535232449025
 31
0.0
  0
ARC
  5
DB69
  8
0
 10
4168.3252286647039
 20
234.4521294676094101
 30
0.0
 40
0.0399840665179556
 50
200.0008969712382907
 51
270.3093607595492927
  0
ARC
  5
DB6A
  8
0
 10
4168.32522658898597
 20
234.2364920266088859
 30
0.0
 40
0.1756540925430457
 50
314.9355242230644762
 51
314.935582434644175
  0
ARC
  5
DB6B
  8
0
 10
4168.4494485770337633
 20
234.0818787341046914
 30
0.0
 40
0.0302678002959388
 50
90.294617525897138
 51
154.3253833346128943
  0
ARC
  5
DB6C
  8
0
 10
4168.3949322552170997
 20
234.107562188712393
 30
0.0
 40
0.0299973971235555
 50
295.5105782504634817
 51
335.227010193631827
  0
LINE
  5
DB6D
  8
0
 10
4168.4078514661023291
 20
234.0804893642516049
 30
0.0
 11
4167.5004635053028323
 21
233.7500814640515898
 31
0.0
  0
ARC
  5
DB6E
  8
0
 10
4167.4902003617326045
 20
233.7782667856166086
 30
0.0
 40
0.0299957408250573
 50
199.9918638408038873
 51
290.0081229384783228
  0
LINE
  5
DB6F
  8
0
 10
4167.4620121288817245
 20
233.7680116407439925
 30
0.0
 11
4167.2739744433838496
 21
234.2848692892287943
 31
0.0
  0
ARC
  5
DB70
  8
0
 10
4167.3022033860543161
 20
234.2951392447174044
 30
0.0
 40
0.0300390610712177
 50
122.3500236822922034
 51
199.9918638408053937
  0
ARC
  5
DB71
  8
0
 10
4168.7104777053946236
 20
234.4071996385237924
 30
0.0
 40
0.4082739788376358
 50
178.29959704633211
 51
227.2365094743892939
  0
LINE
  5
DB72
  8
0
 10
4169.3960135995866949
 20
234.8242769995000003
 30
0.0
 11
4169.3960135995866949
 21
233.6493222947563027
 31
0.0
  0
ARC
  5
DB73
  8
0
 10
4169.4466351972869234
 20
234.0232110668281109
 30
0.0
 40
0.059999999999917
 50
179.9999999999951115
 51
212.4677976361126071
  0
LINE
  5
DB74
  8
0
 10
4169.3866351972874327
 20
234.0232110668281109
 30
0.0
 11
4169.3866351972874327
 21
234.4503882274281068
 31
0.0
  0
ARC
  5
DB75
  8
0
 10
4169.4466351972869234
 20
234.4503882274281068
 30
0.0
 40
0.0600000000002581
 50
147.5322023645586
 51
179.9999999999934914
  0
LINE
  5
DB76
  8
0
 10
4170.7710135995857854
 20
233.067703771233198
 30
0.0
 11
4170.7710135995857854
 21
235.4058955230231902
 31
0.0
  0
ARC
  5
DB77
  8
0
 10
4170.7353425624605734
 20
233.0761948882015133
 30
0.0
 40
0.0366677236400023
 50
271.0485990873896753
 51
346.6105228008729
  0
ARC
  5
DB78
  8
0
 10
4170.7533645815683485
 20
232.4101886905779111
 30
0.0
 40
0.6295837518273943
 50
91.5792401300850969
 51
115.8449432509472956
  0
ARC
  5
DB79
  8
0
 10
4170.4814181216452198
 20
233.0074070036037028
 30
0.0
 40
0.030710307088295
 50
223.239685722392494
 51
265.3072067867186092
  0
ARC
  5
DB7A
  8
0
 10
4168.8114637092276098
 20
231.4540591129349991
 30
0.0
 40
2.2500000006410001
 50
42.923913445960217
 51
74.268015488997861
  0
ARC
  5
DB7B
  8
0
 10
4169.4314953474358845
 20
233.654170488751987
 30
0.0
 40
0.0358114425213463
 50
187.7806600709070892
 51
253.8325076228410921
  0
LINE
  5
DB7C
  8
0
 10
4170.4797391714537298
 20
232.9772026546957022
 30
0.0
 11
4170.4797391714537298
 21
235.4963966395606008
 31
0.0
  0
ARC
  5
DB7D
  8
0
 10
4170.7353425624605734
 20
235.3974044060547044
 30
0.0
 40
0.0366677236400023
 50
13.3894771991271408
 51
88.9514009126103673
  0
ARC
  5
DB7E
  8
0
 10
4170.7533645815683485
 20
236.0634106036783919
 30
0.0
 40
0.6295837518273943
 50
244.1550567490525907
 51
268.4207598699148889
  0
ARC
  5
DB7F
  8
0
 10
4170.4814181216452198
 20
235.4661922906526001
 30
0.0
 40
0.030710307088295
 50
94.6927932132813908
 51
136.760314277607506
  0
ARC
  5
DB80
  8
0
 10
4168.8114637092276098
 20
237.0195401813211902
 30
0.0
 40
2.2500000006410001
 50
285.7319845110022243
 51
317.0760865540398186
  0
ARC
  5
DB81
  8
0
 10
4169.4314953474358845
 20
234.8194288055042875
 30
0.0
 40
0.0358114425213463
 50
106.1674923771587942
 51
172.2193399290929108
  0
LINE
  5
DB82
  8
0
 10
4167.5452481318361606
 20
212.9033677388281944
 30
0.0
 11
4166.8066611917529372
 21
212.9033677388281944
 31
0.0
  0
LINE
  5
DB83
  8
0
 10
4167.5549789229871749
 20
213.1484338398281864
 30
0.0
 11
4166.7945784975918286
 21
213.1484338398281864
 31
0.0
  0
LINE
  5
DB84
  8
0
 10
4167.5713545725266158
 20
213.5608480538282095
 30
0.0
 11
4166.9018464736927854
 21
213.5608480538282095
 31
0.0
  0
LINE
  5
DB85
  8
0
 10
4167.5735692890666542
 20
213.6166248081281083
 30
0.0
 11
4166.9215314550929179
 21
213.6166248081281083
 31
0.0
  0
LINE
  5
DB86
  8
0
 10
4167.5743509210860793
 20
213.6363098993282108
 30
0.0
 11
4166.9018463614929715
 21
213.6363098993282108
 31
0.0
  0
LINE
  5
DB87
  8
0
 10
4167.584824760500851
 20
213.9000893750281875
 30
0.0
 11
4166.831471221994434
 21
213.9000893750281875
 31
0.0
  0
LINE
  5
DB88
  8
0
 10
4167.4980587952786664
 20
211.7149230852282074
 30
0.0
 11
4167.087273679021564
 21
211.7149230852282074
 31
0.0
  0
LINE
  5
DB89
  8
0
 10
4166.9668071035930552
 20
213.6166248081281083
 30
0.0
 11
4166.9668071035930552
 21
213.5608480538282095
 31
0.0
  0
LINE
  5
DB8A
  8
0
 10
4166.9018464736927854
 20
213.5608480538282095
 30
0.0
 11
4166.9018464736927854
 21
213.2183283687282085
 31
0.0
  0
ARC
  5
DB8B
  8
0
 10
4166.8624763950529086
 20
213.2183283687282085
 30
0.0
 40
0.0393700786401023
 50
291.999999876167692
 51
0.0
  0
ARC
  5
DB8C
  8
0
 10
4170.5839862126313164
 20
203.888294486287208
 30
0.0
 40
10.0054880779398694
 50
111.7447811477995003
 51
112.2552188663372021
  0
ARC
  5
DB8D
  8
0
 10
4166.809326788729777
 20
213.1119305383863889
 30
0.0
 40
0.039370078836523
 50
112.0000001740388029
 51
179.9999999392589984
  0
LINE
  5
DB8E
  8
0
 10
4166.7699567098934494
 20
213.1119305384281972
 30
0.0
 11
4166.7699567098934494
 21
212.9427378176281991
 31
0.0
  0
ARC
  5
DB8F
  8
0
 10
4166.80949474047884
 20
212.9428041593733099
 30
0.0
 40
0.0395380862434773
 50
180.0961377787108972
 51
265.8902998545557921
  0
ARC
  5
DB90
  8
0
 10
4166.9775840759930361
 20
212.8836826994281921
 30
0.0
 40
0.0196850393999988
 50
90.0
 51
180.0000000000032117
  0
LINE
  5
DB91
  8
0
 10
4166.9578990365926074
 20
212.8836826994281921
 30
0.0
 11
4167.0086181271926762
 21
211.7900140537281004
 31
0.0
  0
ARC
  5
DB92
  8
0
 10
4167.087273679021564
 20
211.7936632427991981
 30
0.0
 40
0.0787401575710796
 50
182.6563072412714916
 51
269.9999999792601102
  0
LINE
  5
DB93
  8
0
 10
4166.9215314550929179
 20
213.6166248081281083
 30
0.0
 11
4166.9018463614929715
 21
213.6363098993282108
 31
0.0
  0
LINE
  5
DB94
  8
0
 10
4166.9018463614929715
 20
213.6363098993282108
 30
0.0
 11
4166.9018463614929715
 21
213.9000893750281875
 31
0.0
  0
ARC
  5
DB95
  8
0
 10
3568.7182750254000894
 20
-53.5760724047664993
 30
0.0
 40
655.1968349930840532
 50
24.0941886569279298
 51
24.1039522465929217
  0
LINE
  5
DB96
  8
0
 10
4170.7710135995857854
 20
215.8882783514281982
 30
0.0
 11
4170.7710135995857854
 21
213.5654437058281871
 31
0.0
  0
LINE
  5
DB97
  8
0
 10
4170.6373402919871296
 20
215.876731556505689
 30
0.0
 11
4170.6373402919871296
 21
213.5769905007506111
 31
0.0
  0
LINE
  5
DB98
  8
0
 10
4170.7710135995857854
 20
215.8882783514281982
 30
0.0
 11
4170.67258840278555
 21
215.8882783514281982
 31
0.0
  0
ARC
  5
DB99
  8
0
 10
4170.67258840278555
 20
215.8287052059280882
 30
0.0
 40
0.059573145500007
 50
90.0
 51
126.2761643109108007
  0
ARC
  5
DB9A
  8
0
 10
4169.5308561193223795
 20
217.3843413435324976
 30
0.0
 40
1.870078740132382
 50
270.5968418227074039
 51
306.2761643109108718
  0
ARC
  5
DB9B
  8
0
 10
4169.5505411584317699
 20
215.4946800932794986
 30
0.0
 40
0.0196850391459804
 50
90.5968418227074324
 51
180.0000007316924098
  0
LINE
  5
DB9C
  8
0
 10
4169.5308561192859997
 20
215.4946800932794986
 30
0.0
 11
4169.5308561192859997
 21
213.9590419639768015
 31
0.0
  0
LINE
  5
DB9D
  8
0
 10
4168.8635332846870369
 20
215.4353717464836109
 30
0.0
 11
4168.8635332846870369
 21
214.018350310772604
 31
0.0
  0
LINE
  5
DB9E
  8
0
 10
4168.9009348594863695
 20
215.4150523804767943
 30
0.0
 11
4168.9009348594863695
 21
214.0386696767795058
 31
0.0
  0
LINE
  5
DB9F
  8
0
 10
4169.5308561192859997
 20
215.4355224459281999
 30
0.0
 11
4168.9206198987867538
 21
215.4355224459281999
 31
0.0
  0
LINE
  5
DBA0
  8
0
 10
4168.9206198987867538
 20
215.4355224459281999
 30
0.0
 11
4168.9009348594863695
 21
215.4150523804767943
 31
0.0
  0
LINE
  5
DBA1
  8
0
 10
4168.9009348594863695
 20
215.1500893750281875
 30
0.0
 11
4168.8635332846870369
 21
215.1500893750281875
 31
0.0
  0
ARC
  5
DBA2
  8
0
 10
4168.8234063175023039
 20
222.2003671470995982
 30
0.0
 40
6.7651144072994249
 50
265.1496979645543206
 51
270.3398492926158951
  0
ARC
  5
DBA3
  8
0
 10
4167.5551936271012892
 20
208.5563366438495905
 30
0.0
 40
6.938160297405557
 50
84.2410080128906174
 51
84.5489206322822753
  0
ARC
  5
DBA4
  8
0
 10
4167.5551936271012892
 20
208.5563366438495905
 30
0.0
 40
6.938160297405557
 50
89.2326768454513655
 51
96.6247174296124456
  0
ARC
  5
DBA5
  8
0
 10
4165.7236488872113114
 20
223.5217517015013868
 30
0.0
 40
8.1391587128951031
 50
271.7332790740650807
 51
277.2781425800137072
  0
LINE
  5
DBA6
  8
0
 10
4165.9698324972869159
 20
215.3863169753280999
 30
0.0
 11
4165.9698324972869159
 21
214.0674050819280865
 31
0.0
  0
LINE
  5
DBA7
  8
0
 10
4165.6745569066870303
 20
215.3863098490973016
 30
0.0
 11
4165.6745569066870303
 21
214.0674122081589985
 31
0.0
  0
LINE
  5
DBA8
  8
0
 10
4164.0406986389871236
 20
215.1008610286280884
 30
0.0
 11
4164.0406986389871236
 21
214.352861028628098
 31
0.0
  0
LINE
  5
DBA9
  8
0
 10
4164.0170986389866812
 20
215.1008610286280884
 30
0.0
 11
4164.0170986389866812
 21
214.352861028628098
 31
0.0
  0
LINE
  5
DBAA
  8
0
 10
4163.8765986389871614
 20
215.0921462773098938
 30
0.0
 11
4163.8765986389871614
 21
214.3615757799464916
 31
0.0
  0
LINE
  5
DBAB
  8
0
 10
4163.7954011408874067
 20
215.0593630738744935
 30
0.0
 11
4163.7954011408874067
 21
214.3943589833818066
 31
0.0
  0
ARC
  5
DBAC
  8
0
 10
4165.9304624182450425
 20
215.3469397684868056
 30
0.0
 40
0.0393700790414044
 50
0.0000003513335354
 51
89.9999996486729685
  0
LINE
  5
DBAD
  8
0
 10
4165.9304624184860586
 20
215.3863098475281959
 30
0.0
 11
4165.6745569066870303
 21
215.3863098490973016
 31
0.0
  0
ARC
  5
DBAE
  8
0
 10
4163.9115675665489107
 20
220.8573000491595053
 30
0.0
 40
5.7480314180258691
 50
271.6684118615171997
 51
287.8611824807472885
  0
ARC
  5
DBAF
  8
0
 10
4164.080081253681783
 20
215.0723229980137035
 30
0.0
 40
0.0393994770220697
 50
91.6854049528918864
 51
178.3236424694437972
  0
ARC
  5
DBB0
  8
0
 10
4164.0010466009716765
 20
215.0907077295825047
 30
0.0
 40
0.0161533828659464
 50
6.4214640453602501
 51
89.8154217135333539
  0
LINE
  5
DBB1
  8
0
 10
4164.0010986389870595
 20
215.1068610286280887
 30
0.0
 11
4163.9945456330897287
 21
215.1068821392020141
 31
0.0
  0
ARC
  5
DBB2
  8
0
 10
4163.9946105535709648
 20
215.1270343292094083
 30
0.0
 40
0.020152294578186
 50
214.9782394321022991
 51
269.8154217135332829
  0
ARC
  5
DBB3
  8
0
 10
4163.9468486390005637
 20
215.0936181027778957
 30
0.0
 40
0.0381387396582156
 50
34.9782394321023204
 51
145.021760576499787
  0
ARC
  5
DBB4
  8
0
 10
4163.8990458588359616
 20
215.1270629204720137
 30
0.0
 40
0.0202021689913286
 50
270.3001197533877189
 51
325.0217605765010944
  0
LINE
  5
DBB5
  8
0
 10
4163.8991516788855733
 20
215.1068610286280887
 30
0.0
 11
4163.8925987288848773
 21
215.1068267034519863
 31
0.0
  0
ARC
  5
DBB6
  8
0
 10
4163.8926833330679074
 20
215.0906750899715973
 30
0.0
 40
0.016151835062525
 50
90.3001197533876905
 51
174.7739797049557069
  0
ARC
  5
DBB7
  8
0
 10
4163.8605986390275575
 20
215.088927025204498
 30
0.0
 40
0.0159999999582112
 50
242.1818604670347952
 51
0.0000000845325279
  0
ARC
  5
DBB8
  8
0
 10
4163.8325986389390891
 20
215.0358610289468118
 30
0.0
 40
0.0439999997403199
 50
62.181860467081691
 51
147.7145699515369017
  0
ARC
  5
DBB9
  8
0
 10
4163.5958872881010393
 20
215.1854194962349993
 30
0.0
 40
0.2359999980336369
 50
262.8636748041087117
 51
327.7145699515382944
  0
LINE
  5
DBBA
  8
0
 10
4164.0170986389866812
 20
215.1008610286280884
 30
0.0
 11
4164.0406986389871236
 21
215.1008610286280884
 31
0.0
  0
CIRCLE
  5
DBBB
  8
0
 10
4163.1788129929864226
 20
214.7268610286280932
 30
0.0
 40
0.2450000000000001
  0
CIRCLE
  5
DBBC
  8
0
 10
4163.1788129929864226
 20
214.7268610286280932
 30
0.0
 40
0.1299999999999999
  0
LINE
  5
DBBD
  8
0
 10
4168.9009348594863695
 20
215.0073149288915886
 30
0.0
 11
4168.9206198987867538
 21
215.0515150148281123
 31
0.0
  0
LINE
  5
DBBE
  8
0
 10
4168.9206198987867538
 20
215.0515150148281123
 30
0.0
 11
4169.3143206861859653
 21
215.0515150148281123
 31
0.0
  0
LINE
  5
DBBF
  8
0
 10
4169.3143206861859653
 20
215.0515150148281123
 30
0.0
 11
4169.3143206861859653
 21
214.4022070423652053
 31
0.0
  0
ARC
  5
DBC0
  8
0
 10
4168.6282253781027975
 20
214.7268610286253931
 30
0.0
 40
0.7590302909424337
 50
334.6769181409201792
 51
25.323081854284851
  0
LINE
  5
DBC1
  8
0
 10
4168.9206198987867538
 20
215.0515150148281123
 30
0.0
 11
4168.9206198987867538
 21
215.4355224459281999
 31
0.0
  0
LINE
  5
DBC2
  8
0
 10
4170.7710135995857854
 20
213.5654437058281871
 30
0.0
 11
4170.67258840278555
 21
213.5654437058281871
 31
0.0
  0
ARC
  5
DBC3
  8
0
 10
4170.67258840278555
 20
213.6250168513280983
 30
0.0
 40
0.059573145500007
 50
233.7238356890892135
 51
270.0
  0
ARC
  5
DBC4
  8
0
 10
4169.5308561193223795
 20
212.0693807137238025
 30
0.0
 40
1.870078740132382
 50
53.7238356890891495
 51
89.4031581772925534
  0
ARC
  5
DBC5
  8
0
 10
4169.5505411584317699
 20
213.9590419639766878
 30
0.0
 40
0.0196850391459804
 50
179.999999268307505
 51
269.4031581772925961
  0
LINE
  5
DBC6
  8
0
 10
4169.5308561192859997
 20
214.0181996113282139
 30
0.0
 11
4168.9206198987867538
 21
214.0181996113282139
 31
0.0
  0
LINE
  5
DBC7
  8
0
 10
4168.9206198987867538
 20
214.0181996113282139
 30
0.0
 11
4168.9009348594863695
 21
214.0386696767795058
 31
0.0
  0
LINE
  5
DBC8
  8
0
 10
4168.9009348594863695
 20
214.3036326822281978
 30
0.0
 11
4168.8635332846870369
 21
214.3036326822281978
 31
0.0
  0
ARC
  5
DBC9
  8
0
 10
4168.8234063175023039
 20
207.2533549101567019
 30
0.0
 40
6.7651144072994249
 50
89.6601507073841049
 51
94.8503020354456936
  0
ARC
  5
DBCA
  8
0
 10
4167.5551936271012892
 20
220.8973854134067096
 30
0.0
 40
6.938160297405557
 50
263.3752825703875828
 51
270.2641116245977742
  0
ARC
  5
DBCB
  8
0
 10
4167.5551936271012892
 20
220.8973854134067096
 30
0.0
 40
6.938160297405557
 50
274.9669636369309842
 51
275.7589919871094253
  0
ARC
  5
DBCC
  8
0
 10
4165.7236488872113114
 20
205.9319703557549133
 30
0.0
 40
8.1391587128951031
 50
82.721857419986236
 51
88.2667209259348482
  0
ARC
  5
DBCD
  8
0
 10
4165.9304624182450425
 20
214.1067822887696082
 30
0.0
 40
0.0393700790414044
 50
270.000000351327003
 51
359.9999996486665168
  0
LINE
  5
DBCE
  8
0
 10
4165.9304624184860586
 20
214.0674122097281895
 30
0.0
 11
4165.6745569066870303
 21
214.0674122081589985
 31
0.0
  0
ARC
  5
DBCF
  8
0
 10
4163.9115675665489107
 20
208.5964220080967095
 30
0.0
 40
5.7480314180258691
 50
72.1388175192526973
 51
88.3315881384827577
  0
ARC
  5
DBD0
  8
0
 10
4164.080081253681783
 20
214.3813990592425966
 30
0.0
 40
0.0393994770220697
 50
181.6763575305560892
 51
268.3145950471081278
  0
ARC
  5
DBD1
  8
0
 10
4164.0010466009716765
 20
214.3630143276737954
 30
0.0
 40
0.0161533828659464
 50
270.1845782864666035
 51
353.5785359546396762
  0
LINE
  5
DBD2
  8
0
 10
4164.0010986389870595
 20
214.3468610286280978
 30
0.0
 11
4163.9945456330897287
 21
214.346839918054286
 31
0.0
  0
ARC
  5
DBD3
  8
0
 10
4163.9946105535709648
 20
214.3266877280468918
 30
0.0
 40
0.020152294578186
 50
90.1845782864666461
 51
145.0217605678963935
  0
ARC
  5
DBD4
  8
0
 10
4163.9468486390005637
 20
214.3601039544784044
 30
0.0
 40
0.0381387396582156
 50
214.978239423500213
 51
325.0217605678976724
  0
ARC
  5
DBD5
  8
0
 10
4163.8990458588359616
 20
214.3266591367842864
 30
0.0
 40
0.0202021689913286
 50
34.9782394234988701
 51
89.6998802466123237
  0
LINE
  5
DBD6
  8
0
 10
4163.8991516788855733
 20
214.3468610286280978
 30
0.0
 11
4163.8925987288848773
 21
214.3468953538043138
 31
0.0
  0
ARC
  5
DBD7
  8
0
 10
4163.8926833330679074
 20
214.3630469672847028
 30
0.0
 40
0.016151835062525
 50
185.2260202950425025
 51
269.6998802466123948
  0
ARC
  5
DBD8
  8
0
 10
4163.8605986390275575
 20
214.3647950320516884
 30
0.0
 40
0.0159999999582112
 50
359.9999999154675265
 51
117.8181395329651053
  0
ARC
  5
DBD9
  8
0
 10
4163.8325986389390891
 20
214.4178610283094883
 30
0.0
 40
0.0439999997403199
 50
212.285430048463013
 51
297.8181395329182806
  0
ARC
  5
DBDA
  8
0
 10
4163.5958872881010393
 20
214.2683025610213008
 30
0.0
 40
0.2359999980336369
 50
32.2854300484616914
 51
97.1363248530070962
  0
LINE
  5
DBDB
  8
0
 10
4164.0170986389866812
 20
214.352861028628098
 30
0.0
 11
4164.0406986389871236
 21
214.352861028628098
 31
0.0
  0
LINE
  5
DBDC
  8
0
 10
4168.9009348594863695
 20
214.4464071283647115
 30
0.0
 11
4168.9206198987867538
 21
214.4022070424281878
 31
0.0
  0
LINE
  5
DBDD
  8
0
 10
4168.9206198987867538
 20
214.4022070424281878
 30
0.0
 11
4169.3143206861859653
 21
214.4022070424281878
 31
0.0
  0
LINE
  5
DBDE
  8
0
 10
4168.9206198987867538
 20
214.4022070424281878
 30
0.0
 11
4168.9206198987867538
 21
214.0181996113282139
 31
0.0
  0
LINE
  5
DBDF
  8
0
 10
4168.2716126536261072
 20
234.0308806170554021
 30
0.0
 11
4168.4218599571868253
 21
233.5497845431281974
 31
0.0
  0
ARC
  5
DBE0
  8
0
 10
4168.346699819470814
 20
233.5263118759434917
 30
0.0
 40
0.078740157519978
 50
290.0000000072009811
 51
17.3436928594038804
  0
LINE
  5
DBE1
  8
0
 10
4168.3736305394395458
 20
233.4523203309659038
 30
0.0
 11
4167.7750279171586953
 21
233.2344467942162112
 31
0.0
  0
ARC
  5
DBE2
  8
0
 10
4167.7480971971999679
 20
233.3084383391629046
 30
0.0
 40
0.078740157487037
 50
202.6563071012647868
 51
290.0000000072009811
  0
LINE
  5
DBE3
  8
0
 10
4167.6754332517348303
 20
233.2781074402211061
 30
0.0
 11
4167.4781204969276587
 21
233.7508109786909074
 31
0.0
  0
LINE
  5
DBE4
  8
0
 10
4167.4014138736538371
 20
233.9345775693566054
 30
0.0
 11
4167.246360049384748
 21
234.3060410941382941
 31
0.0
  0
LINE
  5
DBE5
  8
0
 10
4168.3869767545384093
 20
216.1343413435282059
 30
0.0
 11
4168.2408060032375943
 21
216.1343413435282059
 31
0.0
  0
LINE
  5
DBE6
  8
0
 10
4167.6735397610473228
 20
216.1343413435282059
 30
0.0
 11
4166.4290972070702992
 21
216.1343413435282059
 31
0.0
  0
ARC
  5
DBE7
  8
0
 10
4168.3835969220890547
 20
216.1660449387472909
 30
0.0
 40
0.0318832435177495
 50
276.0851609429820996
 51
352.6017799747672257
  0
LINE
  5
DBE8
  8
0
 10
4168.415214742804892
 20
216.1619394996280903
 30
0.0
 11
4168.5652906431214433
 21
217.3918123946176024
 31
0.0
  0
ARC
  5
DBE9
  8
0
 10
4168.4001798131193937
 20
217.3742725736788941
 30
0.0
 40
0.1660398491394727
 50
6.0638227646033034
 51
22.5224218173382589
  0
LINE
  5
DBEA
  8
0
 10
4168.5535557539051297
 20
217.4378732992281016
 30
0.0
 11
4168.4168228743073996
 21
217.6600642284981006
 31
0.0
  0
LINE
  5
DBEB
  8
0
 10
4168.3912731248046839
 20
217.6743413057280918
 30
0.0
 11
4168.3016426582198619
 21
217.6743413057280918
 31
0.0
  0
LINE
  5
DBEC
  8
0
 10
4167.7346882346373604
 20
217.6743413057280918
 30
0.0
 11
4166.4223955823681536
 21
217.6743413057280918
 31
0.0
  0
LINE
  5
DBED
  8
0
 10
4167.7385963844390062
 20
217.7727665025280999
 30
0.0
 11
4166.5788600729392783
 21
217.7727665025280999
 31
0.0
  0
ARC
  5
DBEE
  8
0
 10
4168.3912731248046839
 20
217.6443413057282044
 30
0.0
 40
0.0299999999999995
 50
31.6075022463064101
 51
90.0
  0
LINE
  5
DBEF
  8
0
 10
4168.5610799608039088
 20
217.4152649385449934
 30
0.0
 11
4168.2914080218888557
 21
217.4152649385449934
 31
0.0
  0
LINE
  5
DBF0
  8
0
 10
4167.7244011406201025
 20
217.4152649385449934
 30
0.0
 11
4166.2706573587765888
 21
217.4152649385449934
 31
0.0
  0
ARC
  5
DBF1
  8
0
 10
4166.4310161216390043
 20
216.1665734377259014
 30
0.0
 40
0.032289164273676
 50
191.724885371322614
 51
266.5929583657277817
  0
ARC
  5
DBF2
  8
0
 10
4166.3609012218430507
 20
217.4350752604132992
 30
0.0
 40
0.0923926602804496
 50
169.3608416156127134
 51
211.3398369490236917
  0
LINE
  5
DBF3
  8
0
 10
4166.2700968468861902
 20
217.4521330786280942
 30
0.0
 11
4166.3968458328672568
 21
217.6600642284981006
 31
0.0
  0
ARC
  5
DBF4
  8
0
 10
4166.5788600729392783
 20
217.7333964236574104
 30
0.0
 40
0.039370078870711
 50
89.9999997803033551
 51
179.9999997515612904
  0
LINE
  5
DBF5
  8
0
 10
4166.5394899940683899
 20
217.7333964238281965
 30
0.0
 11
4166.5394899938119124
 21
217.6743413057280918
 31
0.0
  0
ARC
  5
DBF6
  8
0
 10
4166.4223955823681536
 20
217.6443413057282044
 30
0.0
 40
0.0299999999999995
 50
90.0
 51
148.3924977536935899
  0
ARC
  5
DBF7
  8
0
 10
4167.09631879992412
 20
217.8440923541515133
 30
0.0
 40
0.0713263511706322
 50
150.0720979315576926
 51
269.7855622785151013
  0
ARC
  5
DBF8
  8
0
 10
4166.5467934173875619
 20
218.1604396595774915
 30
0.0
 40
0.56275074485328
 50
330.072097931557721
 51
346.6506785108123836
  0
ARC
  5
DBF9
  8
0
 10
4166.9290336588592254
 20
218.0697343967613904
 30
0.0
 40
0.1698957500997569
 50
346.6506785108123836
 51
32.722857158633893
  0
ARC
  5
DBFA
  8
0
 10
4167.3972758154050098
 20
218.3706043716682927
 30
0.0
 40
0.3866772091496266
 50
123.7196019327031991
 51
212.7228571586339001
  0
ARC
  5
DBFB
  8
0
 10
4167.1613149364447963
 20
218.7241506935116888
 30
0.0
 40
0.03837871433387
 50
303.7196019327033127
 51
13.2961304974838797
  0
ARC
  5
DBFC
  8
0
 10
4166.9801661377432538
 20
218.6813418494838004
 30
0.0
 40
0.2245170618021026
 50
13.2961304974838797
 51
47.6733890063885681
  0
ARC
  5
DBFD
  8
0
 10
4167.1905972271442806
 20
218.9123869317510866
 30
0.0
 40
0.087993855489348
 50
111.3231429603922038
 51
227.6733890063885895
  0
ARC
  5
DBFE
  8
0
 10
4166.9665040883273832
 20
219.4173482539094948
 30
0.0
 40
0.4645669301222999
 50
294.4245816238665157
 51
323.0237752940088853
  0
ARC
  5
DBFF
  8
0
 10
4167.4068343535946042
 20
219.0858216846465041
 30
0.0
 40
0.0866141731816375
 50
36.9763824683634112
 51
143.0236175316404967
  0
ARC
  5
DC00
  8
0
 10
4167.4163928917678277
 20
218.3706043716682927
 30
0.0
 40
0.3866772091496266
 50
24.352535289410941
 51
56.280398067296737
  0
ARC
  5
DC01
  8
0
 10
4167.6523537707280411
 20
218.7241506935116888
 30
0.0
 40
0.03837871433387
 50
166.7038695025161132
 51
236.2803980672966873
  0
ARC
  5
DC02
  8
0
 10
4167.8335025694295837
 20
218.6813418494838004
 30
0.0
 40
0.2245170618021026
 50
132.3266109936114105
 51
166.7038695025161132
  0
ARC
  5
DC03
  8
0
 10
4167.6230714800285568
 20
218.9123869317510866
 30
0.0
 40
0.087993855489348
 50
312.3266109936113821
 51
68.6768570396077251
  0
ARC
  5
DC04
  8
0
 10
4167.8471646188463637
 20
219.4173482539094948
 30
0.0
 40
0.4645669301222999
 50
216.9762247059910862
 51
245.575418376133598
  0
LINE
  5
DC05
  8
0
 10
4167.1313460399160249
 20
218.8473314522281896
 30
0.0
 11
4167.6823226672559031
 21
218.8473314522281896
 31
0.0
  0
LINE
  5
DC06
  8
0
 10
4167.1986648865859024
 20
218.73297718422819
 30
0.0
 11
4167.615003820586935
 21
218.73297718422819
 31
0.0
  0
LINE
  5
DC07
  8
0
 10
4168.3025201191858287
 20
216.1343413435282059
 30
0.0
 11
4168.3025201191858287
 21
215.4553356043819861
 31
0.0
  0
LINE
  5
DC08
  8
0
 10
4166.5111485879870088
 20
216.1343413435282059
 30
0.0
 11
4166.5111485879870088
 21
215.4207796132288024
 31
0.0
  0
ARC
  5
DC09
  8
0
 10
4166.4675087138430172
 20
218.7257721412474893
 30
0.0
 40
2.5666640716884772
 50
221.7987496247463071
 51
268.4794422830785834
  0
ARC
  5
DC0A
  8
0
 10
4152.7222857819651836
 20
206.4415777222758095
 30
0.0
 40
15.8678846925310495
 50
41.7855233317174779
 51
48.4354146659183016
  0
ARC
  5
DC0B
  8
0
 10
4162.3455399350459629
 20
217.2133018719208053
 30
0.0
 40
1.42471629512703
 50
50.5894277532082199
 51
116.7519307474293981
  0
ARC
  5
DC0C
  8
0
 10
4162.5760649078856659
 20
216.9065909804482999
 30
0.0
 40
1.803638319402799
 50
118.905943834729797
 51
147.938080468815599
  0
LINE
  5
DC0D
  8
0
 10
4159.9690234249410423
 20
218.3615850516858927
 30
0.0
 11
4161.0470730318384085
 21
217.8642898380670943
 31
0.0
  0
ARC
  5
DC0E
  8
0
 10
4161.0297099967128815
 20
217.8339002839809098
 30
0.0
 40
0.0349999998044483
 50
20.4347875387491591
 51
60.2585645165769677
  0
LINE
  5
DC0F
  8
0
 10
4161.0625074527870311
 20
217.8461202210280874
 30
0.0
 11
4161.1237328096176498
 21
217.6817955453030038
 31
0.0
  0
ARC
  5
DC10
  8
0
 10
4161.0909353513143287
 20
217.6695756148968997
 30
0.0
 40
0.0349999995751277
 50
335.2365211126743816
 51
20.4347760767942397
  0
LINE
  5
DC11
  8
0
 10
4161.122716913979275
 20
217.6549150472121141
 30
0.0
 11
4161.1038952344988502
 21
217.6141129166566088
 31
0.0
  0
ARC
  5
DC12
  8
0
 10
4161.0721136711890722
 20
217.6287734846131059
 30
0.0
 40
0.0350000002757677
 50
290.2365214695342956
 51
335.2365211518359729
  0
LINE
  5
DC13
  8
0
 10
4161.0842200432871323
 20
217.5959339387281943
 30
0.0
 11
4160.848362040086613
 21
217.5089843580281013
 31
0.0
  0
LINE
  5
DC14
  8
0
 10
4160.848362040086613
 20
217.5089843580281013
 30
0.0
 11
4160.3432815684136585
 21
216.5813989349782958
 31
0.0
  0
ARC
  5
DC15
  8
0
 10
4160.3022372926279786
 20
216.6074824901943998
 30
0.0
 40
0.0486311055549235
 50
273.8670984480299921
 51
327.5641231236555768
  0
LINE
  5
DC16
  8
0
 10
4160.3055170895868287
 20
216.5589621093280925
 30
0.0
 11
4159.4734739727864508
 21
216.9384220997280863
 31
0.0
  0
ARC
  5
DC17
  8
0
 10
4159.957175919632391
 20
218.3286512300998083
 30
0.0
 40
0.0349999998044483
 50
70.2144783566033794
 51
110.038255334413094
  0
LINE
  5
DC18
  8
0
 10
4159.945183257813369
 20
218.3615324716944031
 30
0.0
 11
4159.7804388171280152
 21
218.3014457623928877
 31
0.0
  0
ARC
  5
DC19
  8
0
 10
4159.7924314854462864
 20
218.2685645234128913
 30
0.0
 40
0.0349999995751277
 50
110.0382667964292978
 51
155.2365217605164958
  0
LINE
  5
DC1A
  8
0
 10
4159.7606499226158121
 20
218.2832250907383127
 30
0.0
 11
4159.7418282430344334
 21
218.2424229602297885
 31
0.0
  0
ARC
  5
DC1B
  8
0
 10
4159.77360980649064
 20
218.2277623925891135
 30
0.0
 40
0.0350000002757677
 50
155.2365217213547908
 51
200.2365214036275916
  0
LINE
  5
DC1C
  8
0
 10
4159.7407702605933082
 20
218.2156560205289964
 30
0.0
 11
4159.8277198412315556
 21
217.9797980173069902
 31
0.0
  0
LINE
  5
DC1D
  8
0
 10
4159.8277198412315556
 20
217.9797980173069902
 30
0.0
 11
4159.4499377884785645
 21
216.9934909046201028
 31
0.0
  0
ARC
  5
DC1E
  8
0
 10
4159.4901441802194313
 20
216.9781109163074007
 30
0.0
 40
0.0430476245257518
 50
159.0668502683348891
 51
247.2164843540749075
  0
LINE
  5
DC1F
  8
0
 10
4160.848362040086613
 20
217.5089843580281013
 30
0.0
 11
4159.8277198412315556
 21
217.9797980173069902
 31
0.0
  0
LINE
  5
DC20
  8
0
 10
4161.1237328096176498
 20
217.6817955453030038
 30
0.0
 11
4159.7804388171280152
 21
218.3014457623928877
 31
0.0
  0
LINE
  5
DC21
  8
0
 10
4159.7407702605969462
 20
218.2156560205143023
 30
0.0
 11
4161.0842200432871323
 21
217.5959339387281943
 31
0.0
  0
ARC
  5
DC22
  8
0
 10
4162.2838911312219352
 20
217.2213020622480997
 30
0.0
 40
2.5859467610861691
 50
113.4277344694247063
 51
153.7991285855252102
  0
ARC
  5
DC23
  8
0
 10
4162.464010087054703
 20
216.8056238759947973
 30
0.0
 40
3.0389712557628328
 50
91.4903865360620188
 51
113.4277344694247063
  0
ARC
  5
DC24
  8
0
 10
4162.3532292756435709
 20
217.1979097816428066
 30
0.0
 40
2.6458476557488568
 50
58.1786357405991765
 51
89.3126643286171031
  0
ARC
  5
DC25
  8
0
 10
4160.3589864167188352
 20
214.421021071622107
 30
0.0
 40
6.061246664198551
 50
42.7700782922616867
 51
56.0009135331780996
  0
ARC
  5
DC26
  8
0
 10
4148.660873438240742
 20
202.9318617771598952
 30
0.0
 40
22.4558106829910784
 50
42.2428125841073765
 51
44.021217207568732
  0
ARC
  5
DC27
  8
0
 10
4166.6233401511608463
 20
219.1863458318460971
 30
0.0
 40
1.7698233543037369
 50
220.867970792706501
 51
258.4868748439972137
  0
ARC
  5
DC28
  8
0
 10
4165.4060119791565739
 20
216.6840769681089114
 30
0.0
 40
1.1231497403835971
 50
332.185981858803018
 51
38.745936483754889
  0
ARC
  5
DC29
  8
0
 10
4160.1274356751282539
 20
230.6363161846144862
 30
0.0
 40
8.1168999622987474
 50
356.6757934689161971
 51
18.7703539928622085
  0
LINE
  5
DC2A
  8
0
 10
4168.2306782036866935
 20
230.1656512068281017
 30
0.0
 11
4167.1524993449893373
 21
203.0121459078758051
 31
0.0
  0
ARC
  5
DC2B
  8
0
 10
4158.9611285886330734
 20
230.4617572111951915
 30
0.0
 40
9.8473623450802776
 50
355.2389296371844125
 51
17.6192731057077694
  0
LINE
  5
DC2C
  8
0
 10
4168.7745124540369943
 20
229.6444186855281941
 30
0.0
 11
4167.7238916107871773
 21
203.0493328885281983
 31
0.0
  0
ARC
  5
DC2D
  8
0
 10
4167.4362078900858251
 20
203.061279449511602
 30
0.0
 40
0.2879316645927818
 50
189.8252102842571105
 51
357.622060539398376
  0
LINE
  5
DC2E
  8
0
 10
4167.1524993449893373
 20
203.0121459078758051
 30
0.0
 11
4167.1274982973864098
 21
211.7149230852282074
 31
0.0
  0
CIRCLE
  5
DC30
  8
0
 10
4163.1788129929864226
 20
214.7268610275048957
 30
0.0
 40
0.4479999999007381
  0
ENDSEC
  0
EOF
