  0
SECTION
  2
HEADER
  9
$ACADVER
  1
AC1009
  9
$INSBASE
 10
3361.4413223184092203
 20
194.1939721272530051
 30
0.0
  9
$EXTMIN
 10
3343.9494815145981192
 20
184.8045204375908952
 30
0.0
  9
$EXTMAX
 10
3370.5555311473749498
 20
196.8195039655005871
 30
0.0
  9
$LIMMIN
 10
0.0
 20
0.0
  9
$LIMMAX
 10
11.6929133858000007
 20
8.2677165353999982
  9
$ORTHOMODE
 70
     0
  9
$REGENMODE
 70
     1
  9
$FILLMODE
 70
     1
  9
$QTEXTMODE
 70
     0
  9
$MIRRTEXT
 70
     0
  9
$DRAGMODE
 70
     2
  9
$LTSCALE
 40
0.6431102362
  9
$OSMODE
 70
  4095
  9
$ATTMODE
 70
     1
  9
$TEXTSIZE
 40
0.2
  9
$TRACEWID
 40
0.05
  9
$TEXTSTYLE
  7
STANDARD
  9
$CLAYER
  8
0
  9
$CELTYPE
  6
BYLAYER
  9
$CECOLOR
 62
   256
  9
$DIMSCALE
 40
1.0
  9
$DIMASZ
 40
0.1875
  9
$DIMEXO
 40
0.0625
  9
$DIMDLI
 40
0.4443307087
  9
$DIMRND
 40
0.0
  9
$DIMDLE
 40
0.0
  9
$DIMEXE
 40
0.125
  9
$DIMTP
 40
0.01
  9
$DIMTM
 40
0.01
  9
$DIMTXT
 40
2.0
  9
$DIMCEN
 40
0.1052362205
  9
$DIMTSZ
 40
0.0
  9
$DIMTOL
 70
     1
  9
$DIMLIM
 70
     0
  9
$DIMTIH
 70
     1
  9
$DIMTOH
 70
     1
  9
$DIMSE1
 70
     0
  9
$DIMSE2
 70
     0
  9
$DIMTAD
 70
     0
  9
$DIMZIN
 70
     0
  9
$DIMBLK
  1

  9
$DIMASO
 70
     1
  9
$DIMSHO
 70
     1
  9
$DIMPOST
  1
\X
  9
$DIMAPOST
  1

  9
$DIMALT
 70
     1
  9
$DIMALTD
 70
     2
  9
$DIMALTF
 40
25.3999999999999986
  9
$DIMLFAC
 40
1.0
  9
$DIMTOFL
 70
     0
  9
$DIMTVP
 40
0.0
  9
$DIMTIX
 70
     0
  9
$DIMSOXD
 70
     0
  9
$DIMSAH
 70
     0
  9
$DIMBLK1
  1

  9
$DIMBLK2
  1

  9
$DIMSTYLE
  2
STANDARD
  9
$DIMCLRD
 70
     0
  9
$DIMCLRE
 70
     0
  9
$DIMCLRT
 70
     0
  9
$DIMTFAC
 40
1.0
  9
$DIMGAP
 40
0.09
  9
$LUNITS
 70
     2
  9
$LUPREC
 70
     4
  9
$SKETCHINC
 40
0.1
  9
$FILLETRAD
 40
0.0
  9
$AUNITS
 70
     0
  9
$AUPREC
 70
     0
  9
$MENU
  1
.
  9
$ELEVATION
 40
0.0
  9
$PELEVATION
 40
0.0
  9
$THICKNESS
 40
0.0
  9
$LIMCHECK
 70
     0
  9
$BLIPMODE
 70
     0
  9
$CHAMFERA
 40
0.0
  9
$CHAMFERB
 40
0.0
  9
$SKPOLY
 70
     0
  9
$TDCREATE
 40
2458060.468368056230247
  9
$TDUPDATE
 40
2459429.65570601914078
  9
$TDINDWG
 40
0.4312107639
  9
$TDUSRTIMER
 40
0.4312107639
  9
$USRTIMER
 70
     1
  9
$ANGBASE
 50
0.0
  9
$ANGDIR
 70
     0
  9
$PDMODE
 70
     0
  9
$PDSIZE
 40
0.3125
  9
$PLINEWID
 40
0.0
  9
$COORDS
 70
     1
  9
$SPLFRAME
 70
     0
  9
$SPLINETYPE
 70
     6
  9
$SPLINESEGS
 70
     8
  9
$ATTDIA
 70
     1
  9
$ATTREQ
 70
     1
  9
$HANDLING
 70
     1
  9
$HANDSEED
  5
A23D
  9
$SURFTAB1
 70
     6
  9
$SURFTAB2
 70
     6
  9
$SURFTYPE
 70
     6
  9
$SURFU
 70
     6
  9
$SURFV
 70
     6
  9
$UCSNAME
  2

  9
$UCSORG
 10
0.0
 20
0.0
 30
0.0
  9
$UCSXDIR
 10
1.0
 20
0.0
 30
0.0
  9
$UCSYDIR
 10
0.0
 20
1.0
 30
0.0
  9
$PUCSNAME
  2

  9
$PUCSORG
 10
0.0
 20
0.0
 30
0.0
  9
$PUCSXDIR
 10
1.0
 20
0.0
 30
0.0
  9
$PUCSYDIR
 10
0.0
 20
1.0
 30
0.0
  9
$USERI1
 70
     0
  9
$USERI2
 70
     0
  9
$USERI3
 70
     0
  9
$USERI4
 70
     0
  9
$USERI5
 70
     0
  9
$USERR1
 40
0.0
  9
$USERR2
 40
0.0
  9
$USERR3
 40
0.0
  9
$USERR4
 40
0.0
  9
$USERR5
 40
0.0
  9
$WORLDVIEW
 70
     1
  9
$SHADEDGE
 70
     3
  9
$SHADEDIF
 70
    70
  9
$TILEMODE
 70
     1
  9
$MAXACTVP
 70
    64
  9
$PLIMCHECK
 70
     0
  9
$PEXTMIN
 10
1.0000000000000000E+20
 20
1.0000000000000000E+20
 30
1.0000000000000000E+20
  9
$PEXTMAX
 10
-1.0000000000000000E+20
 20
-1.0000000000000000E+20
 30
-1.0000000000000000E+20
  9
$PLIMMIN
 10
0.0
 20
0.0
  9
$PLIMMAX
 10
12.0
 20
9.0
  9
$UNITMODE
 70
     0
  9
$VISRETAIN
 70
     1
  9
$PLINEGEN
 70
     0
  9
$PSLTSCALE
 70
     1
  0
ENDSEC
  0
SECTION
  2
TABLES
  0
TABLE
  2
VPORT
 70
     1
  0
VPORT
  2
*ACTIVE
 70
     0
 10
0.0
 20
0.0
 11
1.0
 21
1.0
 12
269.1362780599963003
 22
-4.3560446626145266
 13
0.0
 23
0.0
 14
1.0
 24
1.0
 15
0.0
 25
0.0
 16
0.0
 26
0.0
 36
95.5902297660485658
 17
3089.811279296875
 27
197.161570589386713
 37
0.0
 40
21.2875417382464818
 41
2.0416666666666661
 42
50.0
 43
0.0
 44
0.0
 50
0.0
 51
0.0
 71
     0
 72
   100
 73
     1
 74
     1
 75
     0
 76
     0
 77
     0
 78
     0
  0
ENDTAB
  0
TABLE
  2
LTYPE
 70
     2
  0
LTYPE
  2
CONTINUOUS
 70
     0
  3
Solid line
 72
    65
 73
     0
 40
0.0
  0
LTYPE
  2
PHANTOM2
 70
     0
  3
___ _ _ ___ _ _ ___ _ _ ___ _ _
 72
    65
 73
     6
 40
1.25
 49
0.625
 49
-0.125
 49
0.125
 49
-0.125
 49
0.125
 49
-0.125
  0
ENDTAB
  0
TABLE
  2
LAYER
 70
     2
  0
LAYER
  2
0
 70
     0
 62
   255
  6
CONTINUOUS
  0
LAYER
  2
DEFPOINTS
 70
     0
 62
     7
  6
CONTINUOUS
  0
ENDTAB
  0
TABLE
  2
STYLE
 70
     1
  0
STYLE
  2
STANDARD
 70
     0
 40
0.0
 41
0.8
 50
0.0
 71
     0
 42
0.2
  3
txt
  4

  0
ENDTAB
  0
TABLE
  2
VIEW
 70
     0
  0
ENDTAB
  0
TABLE
  2
UCS
 70
     0
  0
ENDTAB
  0
TABLE
  2
APPID
 70
     9
  0
APPID
  2
ACAD
 70
     0
  0
APPID
  2
ACAD_MLEADERVER
 70
     0
  0
APPID
  2
ACAD_EXEMPT_FROM_CAD_STANDARDS
 70
     0
  0
APPID
  2
ACAD_NAV_VCDISPLAY
 70
     0
  0
APPID
  2
ACAECLAYERSTANDARD
 70
     0
  0
APPID
  2
ACCMTRANSPARENCY
 70
     0
  0
APPID
  2
ACAD_DSTYLE_DIMJAG
 70
     0
  0
APPID
  2
ACAD_DSTYLE_DIMTALN
 70
     0
  0
APPID
  2
ACDBATTR
 70
     0
  0
ENDTAB
  0
TABLE
  2
DIMSTYLE
 70
     1
  0
DIMSTYLE
  2
STANDARD
 70
     0
  3

  4

  5

  6

  7

 40
1.0
 41
0.1875
 42
0.0625
 43
0.38
 44
0.125
 45
0.0
 46
0.0
 47
0.01
 48
0.01
140
0.15625
141
0.09
142
0.0
143
25.3999999999999986
144
1.0
145
0.0
146
1.0
147
0.09
 71
     1
 72
     0
 73
     1
 74
     1
 75
     0
 76
     0
 77
     0
 78
     4
170
     0
171
     2
172
     0
173
     0
174
     0
175
     0
176
     0
177
     0
178
     0
  0
ENDTAB
  0
ENDSEC
  0
SECTION
  2
BLOCKS
  0
BLOCK
  8
0
  2
$MODEL_SPACE
 70
     0
 10
0.0
 20
0.0
 30
0.0
  3
$MODEL_SPACE
  1

  0
ENDBLK
  5
21
  8
0
  0
BLOCK
 67
     1
  8
0
  2
$PAPER_SPACE
 70
     0
 10
0.0
 20
0.0
 30
0.0
  3
$PAPER_SPACE
  1

  0
ENDBLK
  5
1D
 67
     1
  8
0
  0
BLOCK
  8
0
  2
_FILLED
 70
     0
 10
0.0
 20
0.0
 30
0.0
  3
_FILLED
  1

  0
SOLID
  5
7FAE
  8
0
  6
BYBLOCK
 62
     0
 10
0.0
 20
0.0
 30
0.0
 11
-1.0
 21
0.1666666667
 31
0.0
 12
-1.0
 22
-0.1666666667
 32
0.0
 13
-1.0
 23
-0.1666666667
 33
0.0
  0
ENDBLK
  5
7FAF
  8
0
  6
BYBLOCK
 62
     0
  0
ENDSEC
  0
SECTION
  2
ENTITIES
  0
ATTDEF
  5
3930
  8
DEFPOINTS
 10
3361.4437705441200706
 20
194.19795849939851
 30
0.0
 40
0.001
  1
K-72663T
  3

  2
MODELNUMBER
 70
     0
1001
ACDBATTR
1070
     0
1070
     1
  0
ATTDEF
  5
3931
  8
DEFPOINTS
 10
3361.4437705441200706
 20
194.196291832731788
 30
0.0
 40
0.001
  1
MEMOIRS
  3

  2
TRADENAME
 70
     0
1001
ACDBATTR
1070
     0
1070
     1
  0
ATTDEF
  5
3932
  8
DEFPOINTS
 10
3361.4437705441200706
 20
194.1946251660652081
 30
0.0
 40
0.001
  1
HANDSHOWER
  3

  2
PRODUCT
 70
     0
1001
ACDBATTR
1070
     0
1070
     1
  0
CIRCLE
  5
A138
  8
0
 10
3369.3153736670601575
 20
194.1940146469380011
 30
0.0
 40
1.2401574803149591
  0
ARC
  5
A139
  8
0
 10
3368.5705248001199834
 20
194.9388635139434029
 30
0.0
 40
0.078739730824234
 50
99.5526393800338951
 51
170.4473606514667949
  0
ARC
  5
A13A
  8
0
 10
3372.9964760273369393
 20
194.1940146467773047
 30
0.0
 40
4.5669291319769494
 50
170.4471395208097135
 51
189.5528604753164075
  0
ARC
  5
A13B
  8
0
 10
3368.5705246680568052
 20
193.4491657119793899
 30
0.0
 40
0.078739589316059
 50
189.5526065348514066
 51
260.4430359551603829
  0
ARC
  5
A13C
  8
0
 10
3370.0602226696341859
 20
194.9388635837339905
 30
0.0
 40
0.0787395854897493
 50
9.5526056475881411
 51
80.4429699421596069
  0
ARC
  5
A13D
  8
0
 10
3365.6342713067829209
 20
194.1940146467773047
 30
0.0
 40
4.5669291319769494
 50
350.4471395246836209
 51
9.5528604791902794
  0
ARC
  5
A13E
  8
0
 10
3370.060222526150028
 20
193.4491657878479032
 30
0.0
 40
0.0787397398792329
 50
279.552644070321719
 51
350.4473559196587757
  0
ARC
  5
A13F
  8
0
 10
3369.3153735037490151
 20
190.5129138042607906
 30
0.0
 40
4.5669276083458286
 50
80.4470571094399531
 51
99.5528616160821969
  0
ARC
  5
A140
  8
0
 10
3369.3153738259079546
 20
197.8751151042471861
 30
0.0
 40
4.566927229009166
 50
260.4470575407971182
 51
279.5528624739084194
  0
LINE
  5
A141
  8
0
 10
3361.8941138245081675
 20
193.9192199588891015
 30
0.0
 11
3361.8941138245081675
 21
194.0554890066318876
 31
0.0
  0
ARC
  5
A142
  8
0
 10
3361.5960079776100429
 20
193.8962657971038936
 30
0.0
 40
0.337963202742799
 50
28.1074043476424116
 51
50.3556365673696789
  0
ARC
  5
A143
  8
0
 10
3361.4413579189308621
 20
193.6000581201874979
 30
0.0
 40
0.678967592274356
 50
83.0226917694900663
 51
89.9999999933298938
  0
ARC
  5
A144
  8
0
 10
3361.2590944187259083
 20
193.2142877272497969
 30
0.0
 40
1.092278861556806
 50
59.6114941651376782
 51
75.9731972296638247
  0
LINE
  5
A145
  8
0
 10
3361.8116353946088566
 20
193.9857412441535871
 30
0.0
 11
3361.8116353945461015
 21
194.1565040407676861
 31
0.0
  0
LINE
  5
A146
  8
0
 10
3361.5238363489579569
 20
194.2739975091149063
 30
0.0
 11
3361.5238363489579569
 21
194.1032347125612034
 31
0.0
  0
LINE
  5
A147
  8
0
 10
3361.5238363489579569
 20
194.1032347125612034
 30
0.0
 11
3361.6064416826498018
 21
194.059459071149405
 31
0.0
  0
ARC
  5
A148
  8
0
 10
3361.4209536846578885
 20
193.6050112229196998
 30
0.0
 40
0.7211517856608014
 50
69.3391405411225179
 51
88.3786595615860051
  0
ARC
  5
A149
  8
0
 10
3361.4281121064241233
 20
193.7763189739575864
 30
0.0
 40
0.6053782375003988
 50
59.7009043461601081
 51
88.7462553461308943
  0
ARC
  5
A14A
  8
0
 10
3361.5113512613579587
 20
193.8826010551836134
 30
0.0
 40
0.4297272958724502
 50
45.9685004096250722
 51
67.5575666845762584
  0
ARC
  5
A14B
  8
0
 10
3361.5808626007069506
 20
193.9597499115095047
 30
0.0
 40
0.3259668096185997
 50
36.4356503396982134
 51
45.3274679169769783
  0
ARC
  5
A14C
  8
0
 10
3361.6330583172930346
 20
193.9963216643338058
 30
0.0
 40
0.2622581438340422
 50
17.1644409437187804
 51
36.7802227528396131
  0
ARC
  5
A14D
  8
0
 10
3361.4413679932899868
 20
193.429460573378492
 30
0.0
 40
0.6788023425990876
 50
83.0218414421903645
 51
90.0008503414074283
  0
ARC
  5
A14E
  8
0
 10
3361.4451410672982092
 20
193.3347223712418099
 30
0.0
 40
0.7424696442992634
 50
62.00853646712239
 51
90.2919437446056889
  0
ARC
  5
A14F
  8
0
 10
3361.5303225877369186
 20
193.5116797156389907
 30
0.0
 40
0.5462903200864759
 50
48.2462705109862782
 51
61.1866159464094324
  0
ARC
  5
A150
  8
0
 10
3362.0702821044528719
 20
195.0379505771763888
 30
0.0
 40
1.0835324641220481
 50
255.2062044699229943
 51
256.189765008127722
  0
ARC
  5
A151
  8
0
 10
3361.5603209112491641
 20
193.6888608672475982
 30
0.0
 40
0.3889690575588609
 50
45.6252633681056423
 51
49.7514961099772393
  0
ARC
  5
A152
  8
0
 10
3361.6623502689831184
 20
193.6306569941714031
 30
0.0
 40
0.3701120509736482
 50
309.5810569269689267
 51
51.2298027111182606
  0
ARC
  5
A153
  8
0
 10
3362.5860354372598522
 20
193.4876846396882968
 30
0.0
 40
0.7014142562737561
 50
183.3217083055266983
 51
187.4558073512405088
  0
ARC
  5
A154
  8
0
 10
3361.6067440669407915
 20
193.4040810004709954
 30
0.0
 40
0.2823432911222985
 50
8.7522756194676941
 51
56.0462058744642775
  0
ARC
  5
A155
  8
0
 10
3361.4111662853320013
 20
193.0554346687046063
 30
0.0
 40
0.6815514728129242
 50
58.779235037506119
 51
87.4610583050878319
  0
ARC
  5
A156
  8
0
 10
3362.8226902068640811
 20
193.5090713294511033
 30
0.0
 40
0.9388914264036973
 50
186.8758901302120989
 51
190.0391508400336136
  0
LINE
  5
A157
  8
0
 10
3360.9886020135090803
 20
193.9192199588891015
 30
0.0
 11
3360.9886020135090803
 21
194.0554890066318876
 31
0.0
  0
ARC
  5
A158
  8
0
 10
3361.2867078604081144
 20
193.8962657971038936
 30
0.0
 40
0.337963202742799
 50
129.644363432630314
 51
151.8925956523576133
  0
ARC
  5
A159
  8
0
 10
3361.4413579190882047
 20
193.6000581201874979
 30
0.0
 40
0.678967592274356
 50
90.0000000066701062
 51
96.9773082305099621
  0
ARC
  5
A15A
  8
0
 10
3361.6236214192931584
 20
193.2142877272497969
 30
0.0
 40
1.092278861556806
 50
104.0268027703362037
 51
120.3885058348623005
  0
LINE
  5
A15B
  8
0
 10
3361.0710804434088459
 20
193.9857412441535871
 30
0.0
 11
3361.0710804434720558
 21
194.1565040407676861
 31
0.0
  0
LINE
  5
A15C
  8
0
 10
3361.3588794890602003
 20
194.2739975091149063
 30
0.0
 11
3361.3588794890602003
 21
194.1032347125612034
 31
0.0
  0
LINE
  5
A15D
  8
0
 10
3361.3588794890602003
 20
194.1032347125612034
 30
0.0
 11
3361.2762741553669912
 21
194.059459071149405
 31
0.0
  0
ARC
  5
A15E
  8
0
 10
3361.4666071714182181
 20
193.5804093856743009
 30
0.0
 40
0.7458923864451185
 50
91.9398938203032543
 51
110.3423060769796962
  0
ARC
  5
A15F
  8
0
 10
3361.4618915540440867
 20
193.7878148434635932
 30
0.0
 40
0.5940923983484671
 50
91.9807103943059445
 51
127.9034083209124049
  0
ARC
  5
A160
  8
0
 10
3361.3713645766601985
 20
193.8826010551836134
 30
0.0
 40
0.4297272958724502
 50
112.442433315423699
 51
134.0314995903748923
  0
ARC
  5
A161
  8
0
 10
3361.3018532373112066
 20
193.9597499115095047
 30
0.0
 40
0.3259668096185997
 50
134.6725320830229862
 51
143.5643496603017866
  0
ARC
  5
A162
  8
0
 10
3361.2496575207251226
 20
193.9963216643338058
 30
0.0
 40
0.2622581438340422
 50
143.2197772471604083
 51
162.8355590562811983
  0
ARC
  5
A163
  8
0
 10
3361.44134784472908
 20
193.429460573378492
 30
0.0
 40
0.6788023425990876
 50
89.9991496585925717
 51
96.9781585578096639
  0
ARC
  5
A164
  8
0
 10
3361.4375747707190385
 20
193.3347223712418099
 30
0.0
 40
0.7424696442992634
 50
89.7080562553943253
 51
117.9914635328776029
  0
ARC
  5
A165
  8
0
 10
3361.3523932502798743
 20
193.5116797156389907
 30
0.0
 40
0.5462903200864759
 50
118.8133840535905961
 51
131.7537294890136934
  0
ARC
  5
A166
  8
0
 10
3360.8124337335661949
 20
195.0379505771763888
 30
0.0
 40
1.0835324641220481
 50
283.810234991872278
 51
284.7937955300769772
  0
ARC
  5
A167
  8
0
 10
3361.3223949267680837
 20
193.6888608672475982
 30
0.0
 40
0.3889690575588609
 50
130.2485038900227892
 51
134.3747366318943079
  0
ARC
  5
A168
  8
0
 10
3361.2203655690341293
 20
193.6306569941714031
 30
0.0
 40
0.3701120509736482
 50
128.7701972888816897
 51
230.4189430730311017
  0
ARC
  5
A169
  8
0
 10
3360.2966804007569408
 20
193.4876846396882968
 30
0.0
 40
0.7014142562737561
 50
352.5441926487595197
 51
356.6782916944732733
  0
ARC
  5
A16A
  8
0
 10
3361.275971771076911
 20
193.4040810004709954
 30
0.0
 40
0.2823432911222985
 50
123.9537941255356941
 51
171.2477243805323042
  0
ARC
  5
A16B
  8
0
 10
3361.4639610962021834
 20
193.0804428311184893
 30
0.0
 40
0.6562636289335364
 50
91.9737842881518191
 51
121.7859223591487989
  0
ARC
  5
A16C
  8
0
 10
3360.0600256311540761
 20
193.5090713294511033
 30
0.0
 40
0.9388914264036973
 50
349.9608491599663012
 51
353.1241098697879011
  0
ARC
  5
A16D
  8
0
 10
3361.4413223184092203
 20
194.1941402374405925
 30
0.0
 40
0.4526303186996294
 50
345.8903572249620879
 51
194.1250027930286137
  0
ARC
  5
A16E
  8
0
 10
3361.2809627430151522
 20
194.0641710114653051
 30
0.0
 40
0.2662577016133505
 50
133.7263415680725132
 51
166.3855726561286019
  0
ARC
  5
A16F
  8
0
 10
3361.5672395371971106
 20
194.0390982725108131
 30
0.0
 40
0.3085533201190525
 50
25.6365599647982201
 51
57.3879095950630571
  0
ARC
  5
A170
  8
0
 10
3361.6356478568582133
 20
194.0779263066754936
 30
0.0
 40
0.2301435149655781
 50
12.2700511217106598
 51
24.2900650177341184
  0
ARC
  5
A171
  8
0
 10
3361.4413579190609198
 20
194.1940146469563899
 30
0.0
 40
0.586614173209891
 50
327.5621400904462917
 51
212.4378599018629927
  0
ARC
  5
A172
  8
0
 10
3361.4413579190609198
 20
194.1940146469380011
 30
0.0
 40
0.6857468910314979
 50
323.984179664111025
 51
216.0158203271384991
  0
ARC
  5
A173
  8
0
 10
3361.4413223184092203
 20
194.1941402374405925
 30
0.0
 40
1.141767891057762
 50
295.3433670665796171
 51
244.5152451493036097
  0
ARC
  5
A174
  8
0
 10
3361.4319350497708001
 20
189.5018273956636961
 30
0.0
 40
0.6694517330498198
 50
89.1935065515877596
 51
140.2658104933962875
  0
ARC
  5
A175
  8
0
 10
3361.207457871600127
 20
189.7239922649056894
 30
0.0
 40
0.3558739915028183
 50
144.6747968597549914
 51
193.7165889254401066
  0
ARC
  5
A176
  8
0
 10
3361.2790748784809693
 20
189.7575221359942077
 30
0.0
 40
0.4336794743797633
 50
195.7769556354566873
 51
234.6266565226160878
  0
ARC
  5
A177
  8
0
 10
3361.3015273039131898
 20
189.6010737804953123
 30
0.0
 40
0.2775939831633966
 50
122.1797235750080972
 51
165.010540792420386
  0
ARC
  5
A178
  8
0
 10
3361.4505397997331784
 20
189.3432487415865921
 30
0.0
 40
0.5752818157866812
 50
90.9145176062596363
 51
121.0651557511634024
  0
ARC
  5
A179
  8
0
 10
3361.2410492565541063
 20
189.6260076841668081
 30
0.0
 40
0.2128923573004702
 50
167.2835021750620967
 51
179.9494423099139908
  0
LINE
  5
A17A
  8
0
 10
3361.0281569821349876
 20
189.6261955399656074
 30
0.0
 11
3361.0279721635602073
 21
187.6084599332380094
 31
0.0
  0
ARC
  5
A17B
  8
0
 10
3361.4355937683271804
 20
187.858542253097113
 30
0.0
 40
0.5380116694801776
 50
241.909871911384613
 51
270.6138674061940037
  0
ARC
  5
A17C
  8
0
 10
3361.2408036091051144
 20
187.6104205233991138
 30
0.0
 40
0.2128404757710077
 50
180.5277902610878016
 51
203.1286624759179915
  0
ARC
  5
A17D
  8
0
 10
3361.3262943451391038
 20
187.65948015640069
 30
0.0
 40
0.3109444545283151
 50
205.2548069627619896
 51
242.4063711925068105
  0
ARC
  5
A17E
  8
0
 10
3361.3947673000748182
 20
187.528594957348389
 30
0.0
 40
0.3715585919862586
 50
170.1202064739800051
 51
202.5803774309125913
  0
ARC
  5
A17F
  8
0
 10
3361.4350550254171139
 20
187.5643540948524901
 30
0.0
 40
0.4228529744569488
 50
204.9588165806794109
 51
270.8540618138364948
  0
ARC
  5
A180
  8
0
 10
3361.4107054421178873
 20
186.8102655009539035
 30
0.0
 40
2.4496282001413201
 50
98.9885314506735625
 51
125.9274209833960043
  0
ARC
  5
A181
  8
0
 10
3361.1689545987769634
 20
187.1320027068634033
 30
0.0
 40
2.0472617778939242
 50
125.7189262926042943
 51
159.3777252595951097
  0
ARC
  5
A182
  8
0
 10
3360.96111777076203
 20
187.2170476252831861
 30
0.0
 40
1.8228005011455091
 50
159.5787130862983076
 51
175.7712683092022985
  0
ARC
  5
A183
  8
0
 10
3360.9563642180869465
 20
187.2000877860033938
 30
0.0
 40
1.81939239085394
 50
175.2275813559691926
 51
200.7258767384861926
  0
ARC
  5
A184
  8
0
 10
3361.0497059339099906
 20
187.2402562109180053
 30
0.0
 40
1.920914282684675
 50
200.8611593101277037
 51
217.737937406734801
  0
ARC
  5
A185
  8
0
 10
3361.4391250490948551
 20
187.7756021563523063
 30
0.0
 40
2.599908874025521
 50
250.6778913108468885
 51
270.0492071250080812
  0
ARC
  5
A186
  8
0
 10
3361.3232021489047838
 20
187.4843469792753012
 30
0.0
 40
2.2867398100146858
 50
218.3803255449464871
 51
251.0041994698501071
  0
ARC
  5
A187
  8
0
 10
3361.474260252626209
 20
187.5598718690536089
 30
0.0
 40
2.7555431905308869
 50
234.6629242875197008
 51
269.3158482674051015
  0
ARC
  5
A188
  8
0
 10
3361.1392468484759775
 20
187.0189170380976122
 30
0.0
 40
2.1208545762382478
 50
200.4396151081143103
 51
233.5933542998178041
  0
ARC
  5
A189
  8
0
 10
3360.9283602625478125
 20
186.9262192794051032
 30
0.0
 40
1.8909195208379419
 50
180.021590917618596
 51
200.0391678557139983
  0
ARC
  5
A18A
  8
0
 10
3360.942061814374938
 20
186.9220843870926956
 30
0.0
 40
1.904624013125805
 50
157.5705087832876927
 51
179.8970477659541132
  0
ARC
  5
A18B
  8
0
 10
3361.4830254972848707
 20
187.9441139938411141
 30
0.0
 40
2.8206824865403228
 50
246.413391044983598
 51
269.1535866860792225
  0
ARC
  5
A18C
  8
0
 10
3361.4806267964581821
 20
187.7568741616873922
 30
0.0
 40
2.8148503707016168
 50
245.5553030529399052
 51
269.2006630436537762
  0
ARC
  5
A18D
  8
0
 10
3361.3236489210739819
 20
187.4759474832227113
 30
0.0
 40
2.3282200723968889
 50
227.7125089129307014
 51
245.4377492339284004
  0
ARC
  5
A18E
  8
0
 10
3361.3061967517819539
 20
187.2797389951736875
 30
0.0
 40
2.3086269182723012
 50
223.7452071104503943
 51
244.5960073064607911
  0
ARC
  5
A18F
  8
0
 10
3361.1508935232250224
 20
187.2831989189068906
 30
0.0
 40
2.069391140766109
 50
210.8667756923578054
 51
227.660168249052191
  0
ARC
  5
A190
  8
0
 10
3361.08376568051699
 20
187.0628284390948011
 30
0.0
 40
1.997956593600156
 50
202.2398189248748963
 51
223.6620327005904869
  0
ARC
  5
A191
  8
0
 10
3360.944832182672144
 20
187.1629926877407115
 30
0.0
 40
1.8308465248114461
 50
177.4999316350447032
 51
210.9461992732134092
  0
ARC
  5
A192
  8
0
 10
3360.9531595398161699
 20
187.0002048344528021
 30
0.0
 40
1.8533841338916861
 50
172.4770731466774976
 51
201.9760418067519083
  0
ARC
  5
A193
  8
0
 10
3360.8991569672029982
 20
187.1620886635934937
 30
0.0
 40
1.785256566632516
 50
164.1797299757897122
 51
177.4070024331263937
  0
ARC
  5
A194
  8
0
 10
3361.3147221029339562
 20
187.0182563605339965
 30
0.0
 40
2.2244339489609781
 50
157.9578886447010859
 51
163.5333962463631963
  0
ARC
  5
A195
  8
0
 10
3369.2868834429068556
 20
191.6773338555173041
 30
0.0
 40
8.4682545884713072
 50
168.6396410042067089
 51
191.4155382734714124
  0
ARC
  5
A196
  8
0
 10
3361.4376816634357965
 20
189.4733866428267106
 30
0.0
 40
0.6978358502746405
 50
40.8425232434997483
 51
89.6981598095457144
  0
ARC
  5
A197
  8
0
 10
3361.6752579671201602
 20
189.7239922649056894
 30
0.0
 40
0.3558739915028183
 50
346.2834110745599219
 51
35.3252031402450015
  0
ARC
  5
A198
  8
0
 10
3361.6036409602402273
 20
189.7575221359942077
 30
0.0
 40
0.4336794743797633
 50
305.3733434773837985
 51
344.2230443645432842
  0
ARC
  5
A199
  8
0
 10
3361.5811885348070973
 20
189.6010737804953123
 30
0.0
 40
0.2775939831633966
 50
14.9894592075795998
 51
57.8202764249918886
  0
ARC
  5
A19A
  8
0
 10
3361.4190518696159415
 20
189.2974486632222124
 30
0.0
 40
0.6214090921217198
 50
60.0774532098729281
 51
87.9428734959769969
  0
ARC
  5
A19B
  8
0
 10
3361.6416665821670904
 20
189.6260076841668081
 30
0.0
 40
0.2128923573004702
 50
0.0505576900859324
 51
12.7164978249378695
  0
LINE
  5
A19C
  8
0
 10
3361.8545588565848448
 20
189.6261955399656074
 30
0.0
 11
3361.8547436751600799
 21
187.6084599332380094
 31
0.0
  0
ARC
  5
A19D
  8
0
 10
3361.4471220703931067
 20
187.858542253097113
 30
0.0
 40
0.5380116694801776
 50
269.3861325938059963
 51
298.0901280886154154
  0
ARC
  5
A19E
  8
0
 10
3361.6419122296151727
 20
187.6104205233991138
 30
0.0
 40
0.2128404757710077
 50
336.8713375240819801
 51
359.4722097389122268
  0
ARC
  5
A19F
  8
0
 10
3361.5564214935811833
 20
187.65948015640069
 30
0.0
 40
0.3109444545283151
 50
297.5936288074930758
 51
334.745193037237982
  0
ARC
  5
A1A0
  8
0
 10
3361.4879485386450142
 20
187.528594957348389
 30
0.0
 40
0.3715585919862586
 50
337.4196225690873234
 51
9.8797935260200394
  0
ARC
  5
A1A1
  8
0
 10
3361.4476608132831643
 20
187.5643540948717032
 30
0.0
 40
0.4228529744847376
 50
269.1459381078591946
 51
335.0411834182073108
  0
ARC
  5
A1A2
  8
0
 10
3361.4720103966019451
 20
186.8102655009539035
 30
0.0
 40
2.4496282001413201
 50
54.0725790166039602
 51
81.0114685493264233
  0
ARC
  5
A1A3
  8
0
 10
3361.713761239942869
 20
187.1320027068634033
 30
0.0
 40
2.0472617778939242
 50
20.6222747404049187
 51
54.2810737073956275
  0
ARC
  5
A1A4
  8
0
 10
3361.9215980679591667
 20
187.2170476252831861
 30
0.0
 40
1.8228005011455091
 50
4.2287316907977148
 51
20.4212869137017385
  0
ARC
  5
A1A5
  8
0
 10
3361.9263516206328859
 20
187.2000877860033938
 30
0.0
 40
1.81939239085394
 50
339.2741232615136937
 51
4.7724186440308012
  0
ARC
  5
A1A6
  8
0
 10
3361.8330099048098418
 20
187.2402562109180053
 30
0.0
 40
1.920914282684675
 50
322.2620625932652274
 51
339.1388406898723247
  0
ARC
  5
A1A7
  8
0
 10
3361.3919950292711292
 20
188.0794787955422862
 30
0.0
 40
2.9042040963526978
 50
270.9739058928021791
 51
288.2989956713553852
  0
ARC
  5
A1A8
  8
0
 10
3361.5595136898150486
 20
187.4843469792753012
 30
0.0
 40
2.2867398100146858
 50
288.9958005301500066
 51
321.6196744550534845
  0
ARC
  5
A1A9
  8
0
 10
3361.4463287145358663
 20
187.4433837935357019
 30
0.0
 40
2.638863355944804
 50
269.8920725586747267
 51
306.1291548734790808
  0
ARC
  5
A1AA
  8
0
 10
3361.7434689902452192
 20
187.0189170380976122
 30
0.0
 40
2.1208545762382478
 50
306.4066457001823096
 51
339.5603848918856897
  0
ARC
  5
A1AB
  8
0
 10
3361.9543555952827774
 20
186.9262192742721993
 30
0.0
 40
1.8909195011258619
 50
339.9608320919832067
 51
359.9784092376876856
  0
ARC
  5
A1AC
  8
0
 10
3361.9406540395930278
 20
186.9220843917100865
 30
0.0
 40
1.904623997270261
 50
0.1029520960024583
 51
22.4294912633296093
  0
ARC
  5
A1AD
  8
0
 10
3361.3820541706418226
 20
188.0255708618103938
 30
0.0
 40
2.9024374996684941
 50
271.1707714626325014
 51
293.2622508062955831
  0
ARC
  5
A1AE
  8
0
 10
3361.3865536314719975
 20
187.8262503586987009
 30
0.0
 40
2.8844733230392281
 50
271.0886713147070282
 51
294.1553625887086127
  0
ARC
  5
A1AF
  8
0
 10
3361.5590669176472147
 20
187.4759474832227113
 30
0.0
 40
2.3282200723968889
 50
294.5622507660714859
 51
312.287491087069327
  0
ARC
  5
A1B0
  8
0
 10
3361.5765190869378785
 20
187.2797389951736875
 30
0.0
 40
2.3086269182723012
 50
295.4039926935391804
 51
316.2547928895496057
  0
ARC
  5
A1B1
  8
0
 10
3361.73182231549481
 20
187.2831989189068906
 30
0.0
 40
2.069391140766109
 50
312.3398317509477806
 51
329.1332243076420809
  0
ARC
  5
A1B2
  8
0
 10
3361.7989501582028424
 20
187.0628284390948011
 30
0.0
 40
1.997956593600156
 50
316.3379672994095131
 51
337.76018107512499
  0
ARC
  5
A1B3
  8
0
 10
3361.9378836560481432
 20
187.1629926877407115
 30
0.0
 40
1.8308465248114461
 50
329.0538007267866192
 51
2.5000683649552959
  0
ARC
  5
A1B4
  8
0
 10
3361.9295562989050268
 20
187.0002048344528021
 30
0.0
 40
1.8533841338916861
 50
338.0239581932480064
 51
7.5229268533224678
  0
ARC
  5
A1B5
  8
0
 10
3361.9835588715168342
 20
187.1620886635934937
 30
0.0
 40
1.785256566632516
 50
2.5929975668736001
 51
15.8202700242102594
  0
ARC
  5
A1B6
  8
0
 10
3361.5679937357858762
 20
187.0182563605339965
 30
0.0
 40
2.2244339489609781
 50
16.4666037536352405
 51
22.0421113552988395
  0
ARC
  5
A1B7
  8
0
 10
3353.5958323958129768
 20
191.6773338555173041
 30
0.0
 40
8.4682545884713072
 50
348.5718794151076736
 51
11.3603589957948401
  0
ENDSEC
  0
EOF
