  0
SECTION
  2
HEADER
  9
$ACADVER
  1
AC1009
  9
$INSBASE
 10
4290.5188794021078138
 20
194.9086539219867973
 30
0.0
  9
$EXTMIN
 10
4280.7274473017769196
 20
186.0175211639941892
 30
-0.0000000000000058
  9
$EXTMAX
 10
4299.6217235180984062
 20
196.3630545711885134
 30
0.0000000000000104
  9
$LIMMIN
 10
0.0
 20
0.0
  9
$LIMMAX
 10
11.6929133858000007
 20
8.2677165353999982
  9
$ORTHOMODE
 70
     0
  9
$REGENMODE
 70
     1
  9
$FILLMODE
 70
     1
  9
$QTEXTMODE
 70
     0
  9
$MIRRTEXT
 70
     0
  9
$DRAGMODE
 70
     2
  9
$LTSCALE
 40
0.6431102362
  9
$OSMODE
 70
  4095
  9
$ATTMODE
 70
     1
  9
$TEXTSIZE
 40
0.2
  9
$TRACEWID
 40
0.05
  9
$TEXTSTYLE
  7
STANDARD
  9
$CLAYER
  8
0
  9
$CELTYPE
  6
BYLAYER
  9
$CECOLOR
 62
   256
  9
$DIMSCALE
 40
1.0
  9
$DIMASZ
 40
0.1875
  9
$DIMEXO
 40
0.0625
  9
$DIMDLI
 40
0.4443307087
  9
$DIMRND
 40
0.0
  9
$DIMDLE
 40
0.0
  9
$DIMEXE
 40
0.125
  9
$DIMTP
 40
0.01
  9
$DIMTM
 40
0.01
  9
$DIMTXT
 40
2.0
  9
$DIMCEN
 40
0.1052362205
  9
$DIMTSZ
 40
0.0
  9
$DIMTOL
 70
     1
  9
$DIMLIM
 70
     0
  9
$DIMTIH
 70
     1
  9
$DIMTOH
 70
     1
  9
$DIMSE1
 70
     0
  9
$DIMSE2
 70
     0
  9
$DIMTAD
 70
     0
  9
$DIMZIN
 70
     0
  9
$DIMBLK
  1

  9
$DIMASO
 70
     1
  9
$DIMSHO
 70
     1
  9
$DIMPOST
  1
\X
  9
$DIMAPOST
  1

  9
$DIMALT
 70
     1
  9
$DIMALTD
 70
     2
  9
$DIMALTF
 40
25.3999999999999986
  9
$DIMLFAC
 40
1.0
  9
$DIMTOFL
 70
     0
  9
$DIMTVP
 40
0.0
  9
$DIMTIX
 70
     0
  9
$DIMSOXD
 70
     0
  9
$DIMSAH
 70
     0
  9
$DIMBLK1
  1

  9
$DIMBLK2
  1

  9
$DIMSTYLE
  2
STANDARD
  9
$DIMCLRD
 70
     0
  9
$DIMCLRE
 70
     0
  9
$DIMCLRT
 70
     0
  9
$DIMTFAC
 40
1.0
  9
$DIMGAP
 40
0.09
  9
$LUNITS
 70
     2
  9
$LUPREC
 70
     4
  9
$SKETCHINC
 40
0.1
  9
$FILLETRAD
 40
0.0
  9
$AUNITS
 70
     0
  9
$AUPREC
 70
     0
  9
$MENU
  1
.
  9
$ELEVATION
 40
0.0
  9
$PELEVATION
 40
0.0
  9
$THICKNESS
 40
0.0
  9
$LIMCHECK
 70
     0
  9
$BLIPMODE
 70
     0
  9
$CHAMFERA
 40
0.0
  9
$CHAMFERB
 40
0.0
  9
$SKPOLY
 70
     0
  9
$TDCREATE
 40
2458060.468368056230247
  9
$TDUPDATE
 40
2459146.7920138891786337
  9
$TDINDWG
 40
0.4377269676
  9
$TDUSRTIMER
 40
0.4377269676
  9
$USRTIMER
 70
     1
  9
$ANGBASE
 50
0.0
  9
$ANGDIR
 70
     0
  9
$PDMODE
 70
     0
  9
$PDSIZE
 40
0.3125
  9
$PLINEWID
 40
0.0
  9
$COORDS
 70
     1
  9
$SPLFRAME
 70
     0
  9
$SPLINETYPE
 70
     6
  9
$SPLINESEGS
 70
     8
  9
$ATTDIA
 70
     1
  9
$ATTREQ
 70
     1
  9
$HANDLING
 70
     1
  9
$HANDSEED
  5
1A236
  9
$SURFTAB1
 70
     6
  9
$SURFTAB2
 70
     6
  9
$SURFTYPE
 70
     6
  9
$SURFU
 70
     6
  9
$SURFV
 70
     6
  9
$UCSNAME
  2

  9
$UCSORG
 10
0.0
 20
0.0
 30
0.0
  9
$UCSXDIR
 10
1.0
 20
0.0
 30
0.0
  9
$UCSYDIR
 10
0.0
 20
1.0
 30
0.0
  9
$PUCSNAME
  2

  9
$PUCSORG
 10
0.0
 20
0.0
 30
0.0
  9
$PUCSXDIR
 10
1.0
 20
0.0
 30
0.0
  9
$PUCSYDIR
 10
0.0
 20
1.0
 30
0.0
  9
$USERI1
 70
     0
  9
$USERI2
 70
     0
  9
$USERI3
 70
     0
  9
$USERI4
 70
     0
  9
$USERI5
 70
     0
  9
$USERR1
 40
0.0
  9
$USERR2
 40
0.0
  9
$USERR3
 40
0.0
  9
$USERR4
 40
0.0
  9
$USERR5
 40
0.0
  9
$WORLDVIEW
 70
     1
  9
$SHADEDGE
 70
     3
  9
$SHADEDIF
 70
    70
  9
$TILEMODE
 70
     1
  9
$MAXACTVP
 70
    64
  9
$PLIMCHECK
 70
     0
  9
$PEXTMIN
 10
1.0000000000000000E+20
 20
1.0000000000000000E+20
 30
1.0000000000000000E+20
  9
$PEXTMAX
 10
-1.0000000000000000E+20
 20
-1.0000000000000000E+20
 30
-1.0000000000000000E+20
  9
$PLIMMIN
 10
0.0
 20
0.0
  9
$PLIMMAX
 10
12.0
 20
9.0
  9
$UNITMODE
 70
     0
  9
$VISRETAIN
 70
     1
  9
$PLINEGEN
 70
     0
  9
$PSLTSCALE
 70
     1
  0
ENDSEC
  0
SECTION
  2
TABLES
  0
TABLE
  2
VPORT
 70
     1
  0
VPORT
  2
*ACTIVE
 70
     0
 10
0.0
 20
0.0
 11
1.0
 21
1.0
 12
378.8092288015774898
 22
58.6106827006088267
 13
0.0
 23
0.0
 14
1.0
 24
1.0
 15
0.0
 25
0.0
 16
0.0
 26
0.0
 36
60.4960186965801583
 17
3911.3653564453120453
 27
132.5796051025390057
 37
0.0
 40
14.9160083400883199
 41
1.7926829268292681
 42
50.0
 43
0.0
 44
0.0
 50
0.0
 51
0.0
 71
     0
 72
   100
 73
     1
 74
     1
 75
     0
 76
     0
 77
     0
 78
     0
  0
ENDTAB
  0
TABLE
  2
LTYPE
 70
     2
  0
LTYPE
  2
CONTINUOUS
 70
     0
  3
Solid line
 72
    65
 73
     0
 40
0.0
  0
LTYPE
  2
PHANTOM2
 70
     0
  3
___ _ _ ___ _ _ ___ _ _ ___ _ _
 72
    65
 73
     6
 40
1.25
 49
0.625
 49
-0.125
 49
0.125
 49
-0.125
 49
0.125
 49
-0.125
  0
ENDTAB
  0
TABLE
  2
LAYER
 70
     2
  0
LAYER
  2
0
 70
     0
 62
   255
  6
CONTINUOUS
  0
LAYER
  2
DEFPOINTS
 70
     0
 62
     7
  6
CONTINUOUS
  0
ENDTAB
  0
TABLE
  2
STYLE
 70
     1
  0
STYLE
  2
STANDARD
 70
     0
 40
0.0
 41
0.8
 50
0.0
 71
     0
 42
0.2
  3
txt
  4

  0
ENDTAB
  0
TABLE
  2
VIEW
 70
     0
  0
ENDTAB
  0
TABLE
  2
UCS
 70
     0
  0
ENDTAB
  0
TABLE
  2
APPID
 70
    11
  0
APPID
  2
ACAD
 70
     0
  0
APPID
  2
ACAD_MLEADERVER
 70
     0
  0
APPID
  2
ACAD_EXEMPT_FROM_CAD_STANDARDS
 70
     0
  0
APPID
  2
ACAD_NAV_VCDISPLAY
 70
     0
  0
APPID
  2
ACAECLAYERSTANDARD
 70
     0
  0
APPID
  2
ACCMTRANSPARENCY
 70
     0
  0
APPID
  2
ACAD_DSTYLE_DIMJAG
 70
     0
  0
APPID
  2
ACAD_DSTYLE_DIMTALN
 70
     0
  0
APPID
  2
ACDBATTR
 70
     0
  0
APPID
  2
ACADANNOTATIVE
 70
     0
  0
APPID
  2
DCO15
 70
     0
  0
ENDTAB
  0
TABLE
  2
DIMSTYLE
 70
     1
  0
DIMSTYLE
  2
STANDARD
 70
     0
  3

  4

  5

  6

  7

 40
1.0
 41
0.1875
 42
0.0625
 43
0.38
 44
0.125
 45
0.0
 46
0.0
 47
0.01
 48
0.01
140
0.15625
141
0.09
142
0.0
143
25.3999999999999986
144
1.0
145
0.0
146
1.0
147
0.09
 71
     1
 72
     0
 73
     1
 74
     1
 75
     0
 76
     0
 77
     0
 78
     4
170
     0
171
     2
172
     0
173
     0
174
     0
175
     0
176
     0
177
     0
178
     0
  0
ENDTAB
  0
ENDSEC
  0
SECTION
  2
BLOCKS
  0
BLOCK
  8
0
  2
$MODEL_SPACE
 70
     0
 10
0.0
 20
0.0
 30
0.0
  3
$MODEL_SPACE
  1

  0
ENDBLK
  5
21
  8
0
  0
BLOCK
 67
     1
  8
0
  2
$PAPER_SPACE
 70
     0
 10
0.0
 20
0.0
 30
0.0
  3
$PAPER_SPACE
  1

  0
ENDBLK
  5
1D
 67
     1
  8
0
  0
BLOCK
  8
0
  2
_CLOSED
 70
     0
 10
0.0
 20
0.0
 30
0.0
  3
_CLOSED
  1

  0
LINE
  5
19FB0
  8
0
  6
BYBLOCK
 62
     0
 10
0.0
 20
0.0
 30
0.0
 11
-1.0
 21
0.1666666667
 31
0.0
  0
LINE
  5
19FB1
  8
0
  6
BYBLOCK
 62
     0
 10
-1.0
 20
0.1666666667
 30
0.0
 11
-1.0
 21
-0.1666666667
 31
0.0
  0
LINE
  5
19FB2
  8
0
  6
BYBLOCK
 62
     0
 10
-1.0
 20
-0.1666666667
 30
0.0
 11
0.0
 21
0.0
 31
0.0
  0
LINE
  5
19FB3
  8
0
  6
BYBLOCK
 62
     0
 10
-1.0
 20
0.0
 30
0.0
 11
0.0
 21
0.0
 31
0.0
  0
ENDBLK
  5
19FB4
  8
0
  6
BYBLOCK
 62
     0
  0
ENDSEC
  0
SECTION
  2
ENTITIES
  0
LINE
  5
1A094
  8
0
 10
4288.6042365086341306
 20
193.656822850344895
 30
0.0
 11
4288.6042395782342282
 21
193.6568308857449097
 31
0.0
  0
LINE
  5
1A095
  8
0
 10
4288.6623965116341424
 20
193.8009771482448969
 30
0.0
 11
4288.6624040101351056
 21
193.8009939054448978
 31
0.0
  0
LINE
  5
1A096
  8
0
 10
4287.1630205754327108
 20
195.1881222354448937
 30
0.0
 11
4287.1630291522342304
 21
195.188094839744906
 31
0.0
  0
LINE
  5
1A097
  8
0
 10
4287.1851597469330954
 20
195.1275606492449128
 30
0.0
 11
4287.18515587143429
 21
195.1275701831449112
 31
0.0
  0
LINE
  5
1A098
  8
0
 10
4281.1445439302342493
 20
194.4465107116448905
 30
0.0
 11
4281.1445196474342083
 21
194.4465141563449038
 31
0.0
  0
LINE
  5
1A099
  8
0
 10
4281.1445082895352243
 20
195.3727073370448863
 30
0.0
 11
4281.1445316873341653
 21
195.3727106531449067
 31
0.0
  0
LINE
  5
1A09A
  8
0
 10
4296.9854148351341792
 20
194.5615516544166894
 30
0.0
 11
4296.9854148351341792
 21
194.771086429744912
 31
0.0
  0
LINE
  5
1A09B
  8
0
 10
4297.0678932651344439
 20
194.8721014638448992
 30
0.0
 11
4297.0678932651344439
 21
194.7013386672448974
 31
0.0
  0
LINE
  5
1A09C
  8
0
 10
4298.0804284677333271
 20
190.412600530144914
 30
0.0
 11
4298.0804267485327728
 21
190.4126050606448928
 31
0.0
  0
LINE
  5
1A09D
  8
0
 10
4297.3556923107344119
 20
194.8188321356448967
 30
0.0
 11
4297.3556923107344119
 21
194.9895949321449109
 31
0.0
  0
LINE
  5
1A09E
  8
0
 10
4297.5206491706339875
 20
194.9895949321449109
 30
0.0
 11
4297.5206491706339875
 21
194.8188321356448967
 31
0.0
  0
LINE
  5
1A09F
  8
0
 10
4297.808448216233046
 20
194.7013386672448974
 30
0.0
 11
4297.808448216233046
 21
194.8721014638448992
 31
0.0
  0
LINE
  5
1A0A0
  8
0
 10
4297.8909266461341758
 20
194.771086429744912
 30
0.0
 11
4297.8909266461341758
 21
194.5621601055449048
 31
0.0
  0
ARC
  5
1A0A1
  8
0
 10
4283.5995880635327921
 20
194.9096120699448988
 30
0.0
 40
1.3400000000000001
 50
193.2155782154032977
 51
166.7024847117178012
  0
ARC
  5
1A0A2
  8
0
 10
4283.5995880635327921
 20
194.9096120699448988
 30
0.0
 40
0.6899999999999999
 50
200.0999055450598121
 51
159.9004568832731081
  0
ARC
  5
1A0A3
  8
0
 10
4283.5995880635327921
 20
194.9096120699448988
 30
0.0
 40
0.599329856
 50
202.7084169692465991
 51
157.2907239020971986
  0
ARC
  5
1A0A4
  8
0
 10
4297.4381707552338412
 20
188.0111286714449079
 30
0.0
 40
1.9817017734
 50
269.6276969653069955
 51
269.9999995791058041
  0
ARC
  5
1A0A5
  8
0
 10
4297.4263246195341708
 20
187.9815257853448998
 30
0.0
 40
1.9495037968
 50
236.5180046112969876
 51
237.8210251207808881
  0
ARC
  5
1A0A6
  8
0
 10
4297.4205456114341359
 20
187.9737086310449001
 30
0.0
 40
1.939779141699999
 50
231.3631971637854008
 51
231.6148216309123029
  0
ARC
  5
1A0A7
  8
0
 10
4297.4136833789343655
 20
187.9661238178449025
 30
0.0
 40
1.9295473791999991
 50
224.8671296557890003
 51
226.1280372422181983
  0
ARC
  5
1A0A8
  8
0
 10
4297.4381238788328119
 20
194.3158483570448993
 30
0.0
 40
0.6787705142
 50
89.9960443383984483
 51
96.9753589544764054
  0
ARC
  5
1A0A9
  8
0
 10
4297.438217602532859
 20
194.1450855605449135
 30
0.0
 40
0.6787705142
 50
83.0246410455235804
 51
90.0039556616015659
  0
ARC
  5
1A0AA
  8
0
 10
4297.4383696272352609
 20
194.3183441600448873
 30
0.0
 40
0.6762747388000001
 50
83.0117465140849333
 51
90.0168501929226181
  0
ARC
  5
1A0AB
  8
0
 10
4297.437971854134048
 20
194.1475813634449139
 30
0.0
 40
0.6762747388000001
 50
89.9831498070773677
 51
96.9882534859150809
  0
ARC
  5
1A0AC
  8
0
 10
4297.4381707406328132
 20
194.9096120699448988
 30
0.0
 40
1.141732283499999
 50
299.5806576615970016
 51
240.4296390571392124
  0
ARC
  5
1A0AD
  8
0
 10
4297.4381707406328132
 20
194.9096120699448988
 30
0.0
 40
0.6517279142
 50
324.4936561046870906
 51
215.506350871383205
  0
ARC
  5
1A0AE
  8
0
 10
4297.4381707406328132
 20
194.9096120699448988
 30
0.0
 40
0.5472440945
 50
325.8262626582446728
 51
214.1737373417552988
  0
ARC
  5
1A0AF
  8
0
 10
4297.4381707406328132
 20
194.9096120699448988
 30
0.0
 40
0.4527559055
 50
345.9051485942027853
 51
194.1464942410408128
  0
ARC
  5
1A0B0
  8
0
 10
4281.2093501157232822
 20
194.9098013799261935
 30
0.0
 40
0.4668768125469215
 50
94.2094858132672215
 51
257.9012623509530044
  0
ARC
  5
1A0B1
  8
0
 10
4281.239982335428067
 20
195.0767902026190939
 30
0.0
 40
0.6365968970302883
 50
258.3556601283507916
 51
280.1044843840817862
  0
ARC
  5
1A0B2
  8
0
 10
4281.2363263047827786
 20
194.6096486147532119
 30
0.0
 40
0.7682154528714542
 50
81.3673609793649746
 51
94.5727974830221427
  0
ARC
  5
1A0B3
  8
0
 10
4330.1909934027162308
 20
496.9516029963882033
 30
0.0
 40
305.511458615724905
 50
260.8011792258105856
 51
260.9804502145253196
  0
ARC
  5
1A0B4
  8
0
 10
4283.3257949662756801
 20
201.663233064303995
 30
0.0
 40
6.527235131092981
 50
260.9182661407742216
 51
266.7136293167392864
  0
ARC
  5
1A0B5
  8
0
 10
4259.7946074461251555
 20
-188.0666459108535093
 30
0.0
 40
383.9124117559712204
 50
86.5163644129206375
 51
86.5419079880214355
  0
ARC
  5
1A0B6
  8
0
 10
4283.1997183680568924
 20
199.3874217235540129
 30
0.0
 40
4.2517536705420858
 50
268.9587264020648831
 51
271.3889755656368834
  0
ARC
  5
1A0B7
  8
0
 10
4283.2879745596819703
 20
195.722103417315509
 30
0.0
 40
0.5853733463440012
 50
271.4493087527156945
 51
279.7448711410818873
  0
ARC
  5
1A0B8
  8
0
 10
4283.3633435691381237
 20
195.3089296660918137
 30
0.0
 40
0.1654612530235951
 50
278.2393505037558725
 51
311.511086261721573
  0
ARC
  5
1A0B9
  8
0
 10
4283.3390952874533468
 20
195.3275660168818035
 30
0.0
 40
0.1955737849458188
 50
313.2123592692436773
 51
333.1253476492931895
  0
ARC
  5
1A0BA
  8
0
 10
4282.8551090503551677
 20
195.5542718041353965
 30
0.0
 40
0.7299563318608561
 50
334.4253023174637178
 51
352.6933968706595124
  0
ARC
  5
1A0BB
  8
0
 10
4283.9962003728969648
 20
195.4173582808267042
 30
0.0
 40
0.4193852004676278
 50
167.4051195671297023
 51
173.966923499865203
  0
ARC
  5
1A0BC
  8
0
 10
4257.1371048117880491
 20
346.546349115060309
 30
0.0
 40
154.0117645918805067
 50
279.0458726697827956
 51
279.4016179068412953
  0
ARC
  5
1A0BD
  8
0
 10
4283.3981756147550186
 20
187.2881557403231909
 30
0.0
 40
7.3978226971339822
 50
93.4607125625103805
 51
98.5719964975591836
  0
ARC
  5
1A0BE
  8
0
 10
4261.0667517403180682
 20
556.9397726516617695
 30
0.0
 40
362.9277237997288807
 50
273.4570831575857142
 51
273.4841225587555869
  0
ARC
  5
1A0BF
  8
0
 10
4283.1974980536324438
 20
189.979000917437105
 30
0.0
 40
4.7044520892570896
 50
88.7185357705198214
 51
90.9125457098610923
  0
ARC
  5
1A0C0
  8
0
 10
4283.2892776062180928
 20
194.1052770507336049
 30
0.0
 40
0.5771556394623544
 50
80.2816349194630163
 51
88.6666110924701201
  0
ARC
  5
1A0C1
  8
0
 10
4283.3614472210601889
 20
194.5063456268655102
 30
0.0
 40
0.1696947155271103
 50
49.3317123657346102
 51
81.4403028095597961
  0
ARC
  5
1A0C2
  8
0
 10
4283.3309674530210032
 20
194.4861253332867932
 30
0.0
 40
0.2051357704185631
 50
27.6993868930079898
 51
46.5538634336360602
  0
ARC
  5
1A0C3
  8
0
 10
4282.9360235304093294
 20
194.2914962068880982
 30
0.0
 40
0.6453867301777528
 50
6.0516842574178717
 51
26.6998404770071289
  0
ARC
  5
1A0C4
  8
0
 10
4283.8010738800203399
 20
194.3829616058349075
 30
0.0
 40
0.2244857868827173
 50
185.9897347162950041
 51
198.8634818932511905
  0
ARC
  5
1A0C5
  8
0
 10
4282.7920884557415775
 20
188.5688914126905047
 30
0.0
 40
6.5757826760787346
 50
83.9469715647044836
 51
87.1202743394066488
  0
ARC
  5
1A0C6
  8
0
 10
4283.4042487579808949
 20
194.3138333685315047
 30
0.0
 40
0.798324182659775
 50
68.9970030727611601
 51
84.1586728467919443
  0
ARC
  5
1A0C7
  8
0
 10
4283.6085720199398565
 20
194.8357557623147045
 30
0.0
 40
0.2378730577598115
 50
38.1521543431587915
 51
69.8840611056060226
  0
ARC
  5
1A0C8
  8
0
 10
4283.6946595009803787
 20
194.9094402039760894
 30
0.0
 40
0.1247484298123588
 50
349.8857018068425191
 51
35.9641271428153573
  0
ARC
  5
1A0C9
  8
0
 10
4283.6764681026834296
 20
194.9173090444373031
 30
0.0
 40
0.1441108963249316
 50
307.5121087530969248
 51
348.075633217646498
  0
ARC
  5
1A0CA
  8
0
 10
4283.4782105414269608
 20
195.226165055901987
 30
0.0
 40
0.5107579259919151
 50
276.7351586653874165
 51
304.0539575980926088
  0
ARC
  5
1A0CB
  8
0
 10
4282.9232046035349413
 20
199.3905379654626984
 30
0.0
 40
4.711901354248913
 50
272.4250130197680733
 51
277.4985423173844197
  0
ARC
  5
1A0CC
  8
0
 10
4281.1700386457068817
 20
194.9090476751644871
 30
0.0
 40
0.3819217441566503
 50
179.9153440292766959
 51
264.4030712261243821
  0
ARC
  5
1A0CD
  8
0
 10
4281.2102108798426343
 20
194.4697737519740031
 30
0.0
 40
0.8241300685648969
 50
80.5136872459531077
 51
95.4200151041874562
  0
ARC
  5
1A0CE
  8
0
 10
4281.1820867038713914
 20
194.8877021698365013
 30
0.0
 40
0.4055761303213031
 50
97.041651977754384
 51
149.9134680127750983
  0
ARC
  5
1A0CF
  8
0
 10
4281.2097632968016114
 20
194.905422323757108
 30
0.0
 40
0.4216533737981336
 50
153.8854260874730073
 51
179.4049473742759062
  0
ARC
  5
1A0D0
  8
0
 10
4287.0565037521228078
 20
231.1551108084271107
 30
0.0
 40
36.3241521531723492
 50
260.9550940481755106
 51
263.7975922027396791
  0
ARC
  5
1A0D1
  8
0
 10
4281.2151816733021406
 20
195.2041311136966897
 30
0.0
 40
0.6801912424508624
 50
263.0425824113074214
 51
281.0946634397146227
  0
ARC
  5
1A0D2
  8
0
 10
4287.3455972267420293
 20
156.4952313668522947
 30
0.0
 40
38.5116088228787632
 50
96.2813668709784594
 51
98.9623189543183202
  0
ARC
  5
1A0D3
  8
0
 10
4281.513311309529854
 20
176.5490306673173961
 30
0.0
 40
18.5652568086865912
 50
83.7809712742298842
 51
84.9980743114392823
  0
ARC
  5
1A0D4
  8
0
 10
4275.8778396029929354
 20
271.2058278419373778
 30
0.0
 40
76.7736712587539074
 50
275.4218301049286879
 51
275.7095685339800184
  0
ARC
  5
1A0D5
  8
0
 10
4283.4871937218913445
 20
194.5755109303223094
 30
0.0
 40
0.4311358403814383
 50
66.9379163081973303
 51
85.0390854332172381
  0
ARC
  5
1A0D6
  8
0
 10
4283.461451573532031
 20
195.358285878651202
 30
0.0
 40
0.5479486632940269
 50
275.6858779601531069
 51
289.5845955713729722
  0
ARC
  5
1A0D7
  8
0
 10
4283.6173648157837306
 20
194.9297972891685902
 30
0.0
 40
0.0920452273104378
 50
287.5520011271443082
 51
327.7108217579412894
  0
ARC
  5
1A0D8
  8
0
 10
4283.630378279274737
 20
194.9032425796443988
 30
0.0
 40
0.0735834876503233
 50
17.2336291892732092
 51
69.5547866495917049
  0
ARC
  5
1A0D9
  8
0
 10
4283.6466202014471492
 20
194.9091663298769959
 30
0.0
 40
0.0563220823429696
 50
329.5551081994028095
 51
16.373145850719439
  0
ARC
  5
1A0DA
  8
0
 10
4287.9131422754098821
 20
188.534866868065194
 30
0.0
 40
1.0593309614206159
 50
177.7430621271126938
 51
210.6495347953006103
  0
ARC
  5
1A0DB
  8
0
 10
4287.5901033360223664
 20
188.3515283393759887
 30
0.0
 40
0.6879918857904018
 50
211.2286837342504953
 51
261.1567557230698071
  0
ARC
  5
1A0DC
  8
0
 10
4287.5968815290398197
 20
188.3573822857840128
 30
0.0
 40
0.6948424548608979
 50
260.6786832058721188
 51
311.5866405875785858
  0
ARC
  5
1A0DD
  8
0
 10
4287.4536559052503435
 20
188.4671797714580066
 30
0.0
 40
0.8727043251149387
 50
313.8356894347328989
 51
352.37971933934341
  0
ARC
  5
1A0DE
  8
0
 10
4294.0382092910158462
 20
188.1305352072321
 30
0.0
 40
7.1974111389298541
 50
170.2838877298796945
 51
176.4469014177502117
  0
ARC
  5
1A0DF
  8
0
 10
4286.577680478793809
 20
188.6053241481052112
 30
0.0
 40
1.7593851899181381
 50
351.7035173304793716
 51
10.5110978316624397
  0
ARC
  5
1A0E0
  8
0
 10
4272.5361232053201093
 20
191.3794748972784134
 30
0.0
 40
14.5508142814622801
 50
351.963513965775519
 51
358.0437141937309207
  0
ARC
  5
1A0E1
  8
0
 10
4276.0919151396610687
 20
191.3243078632648064
 30
0.0
 40
10.9954111405837995
 50
357.698495560240076
 51
6.3779657559913989
  0
ARC
  5
1A0E2
  8
0
 10
4305.3364808526866909
 20
191.6443067922675993
 30
0.0
 40
17.2444890607367398
 50
184.2638378194610027
 51
189.0686068900581063
  0
ARC
  5
1A0E3
  8
0
 10
4301.3357713166833491
 20
191.3073670333450877
 30
0.0
 40
13.2298573948731093
 50
177.0259598915725974
 51
184.0968548114038867
  0
ARC
  5
1A0E4
  8
0
 10
4296.0299303718857118
 20
191.5845942929570924
 30
0.0
 40
7.9167792875522132
 50
168.3831753944683101
 51
177.0373104390459105
  0
ARC
  5
1A0E5
  8
0
 10
4293.0823135584287229
 20
192.1549775569297935
 30
0.0
 40
4.9148089856564381
 50
156.603697919022693
 51
167.9769112466416914
  0
ARC
  5
1A0E6
  8
0
 10
4281.1337705430050846
 20
191.9027432648551894
 30
0.0
 40
5.9205231450916509
 50
6.2350101181739763
 51
17.5149277404595409
  0
ARC
  5
1A0E7
  8
0
 10
4281.7184015220618676
 20
192.0068435178988864
 30
0.0
 40
5.3322183558466003
 50
18.3388250895166003
 51
23.0720729147523116
  0
ARC
  5
1A0E8
  8
0
 10
4287.8185464649077403
 20
194.4720807020256075
 30
0.0
 40
1.2521003175623671
 50
160.5237646220014938
 51
197.4562026176803045
  0
ARC
  5
1A0E9
  8
0
 10
4287.5191761332471287
 20
194.5872943086370981
 30
0.0
 40
0.9314875825264858
 50
112.0980632875509997
 51
161.0654452080144097
  0
ARC
  5
1A0EA
  8
0
 10
4287.3646118204851518
 20
194.4699401591867911
 30
0.0
 40
1.2604917234543671
 50
343.2462645508292098
 51
19.4461578653209983
  0
ARC
  5
1A0EB
  8
0
 10
4287.6760507510616662
 20
194.5910213733303067
 30
0.0
 40
0.9265678133322639
 50
18.7975039110970208
 51
68.22783202759544
  0
ARC
  5
1A0EC
  8
0
 10
4288.0087845382704472
 20
188.2143621862682892
 30
0.0
 40
1.330048892526607
 50
179.2967487949308065
 51
218.019817006859995
  0
ARC
  5
1A0ED
  8
0
 10
4287.5940683010212524
 20
187.9188078134939133
 30
0.0
 40
0.8216052963430673
 50
219.5961182873379869
 51
298.5955631784331104
  0
ARC
  5
1A0EE
  8
0
 10
4287.4967674978888681
 20
188.0512802843699092
 30
0.0
 40
0.9847356658075741
 50
299.8773203477845755
 51
347.4357097799290273
  0
ARC
  5
1A0EF
  8
0
 10
4286.3421598603399616
 20
188.3325661991916036
 30
0.0
 40
2.1730086967515412
 50
346.8191742081775146
 51
6.4363702363365034
  0
ARC
  5
1A0F0
  8
0
 10
4238.4918424664274426
 20
183.1315779176298975
 30
0.0
 40
50.3051341193662935
 50
6.2133585768949127
 51
7.6337413095396718
  0
ARC
  5
1A0F1
  8
0
 10
4295.2664816463638999
 20
188.0331844035044924
 30
0.0
 40
8.5899166384236931
 50
170.1256402614739045
 51
178.6825186966414947
  0
ARC
  5
1A0F2
  8
0
 10
4273.042979298613318
 20
191.2730418962106
 30
0.0
 40
13.8737928236945898
 50
352.6836796800567981
 51
2.508188028983334
  0
ARC
  5
1A0F3
  8
0
 10
4302.0973292868384306
 20
191.2671598095265892
 30
0.0
 40
13.8227666040977404
 50
176.7776040272601108
 51
186.0340555880451916
  0
ARC
  5
1A0F4
  8
0
 10
4293.5590618228352469
 20
191.8753577710423031
 30
0.0
 40
5.2653501069746476
 50
160.2243870473845107
 51
178.1628134498944007
  0
ARC
  5
1A0F5
  8
0
 10
4281.094344621739765
 20
191.7681092920958008
 30
0.0
 40
5.8102172150666442
 50
1.1053104649733509
 51
18.1369245356286406
  0
ARC
  5
1A0F6
  8
0
 10
4292.7244652612598657
 20
192.022229986027412
 30
0.0
 40
4.4326267359686131
 50
151.4206043437096127
 51
158.360482306853612
  0
ARC
  5
1A0F7
  8
0
 10
4284.2856253209183706
 20
192.8316891653688003
 30
0.0
 40
2.4464749961191541
 50
17.7311534507547996
 51
30.5987415307975397
  0
ARC
  5
1A0F8
  8
0
 10
4287.3142993991123149
 20
194.8917741478670109
 30
0.0
 40
1.69243338282172
 50
333.7297145702959824
 51
5.0594528557126797
  0
ARC
  5
1A0F9
  8
0
 10
4287.4967165288298929
 20
194.896811324297488
 30
0.0
 40
1.5103233426425631
 50
5.4793994632602523
 51
47.9482678394387065
  0
ARC
  5
1A0FA
  8
0
 10
4287.5952694414581856
 20
194.9606944894347862
 30
0.0
 40
1.397207190809199
 50
49.1945972159726992
 51
118.0530702002931065
  0
ARC
  5
1A0FB
  8
0
 10
4287.629414070293933
 20
194.9324634004991879
 30
0.0
 40
1.438278105006557
 50
118.7245786369750959
 51
168.6189673716538096
  0
ARC
  5
1A0FC
  8
0
 10
4287.8617118970323645
 20
194.8816231647604127
 30
0.0
 40
1.676045376705896
 50
168.4822051630067961
 51
208.6901318439196018
  0
ARC
  5
1A0FD
  8
0
 10
4287.6169354134481182
 20
195.2996756429218976
 30
0.0
 40
0.4728302147706225
 50
112.6083438189606056
 51
177.7727892515785868
  0
ARC
  5
1A0FE
  8
0
 10
4287.5880602312972769
 20
195.2921841984527873
 30
0.0
 40
0.4695753242332931
 50
42.1080213612568883
 51
109.0020716755325054
  0
ARC
  5
1A0FF
  8
0
 10
4287.5390610154436217
 20
195.294174363274692
 30
0.0
 40
0.5057590975626328
 50
354.9037587040314747
 51
38.2156782210917001
  0
ARC
  5
1A100
  8
0
 10
4287.085356280720589
 20
195.4724988194801938
 30
0.0
 40
0.9831475413008176
 50
316.1909223197990855
 51
346.8749369598335761
  0
ARC
  5
1A101
  8
0
 10
4287.4710047059261342
 20
195.292571469333808
 30
0.0
 40
0.3275348675484362
 50
175.5383591665205074
 51
206.1750159363384114
  0
ARC
  5
1A102
  8
0
 10
4288.2445865497011255
 20
195.5430180807655063
 30
0.0
 40
1.1382372188964771
 50
200.3017126856294965
 51
218.0712582465112064
  0
ARC
  5
1A103
  8
0
 10
4287.5927083896904151
 20
195.0071774044716051
 30
0.0
 40
0.2952971806839258
 50
214.2144217481884141
 51
313.1978795938925941
  0
ARC
  5
1A104
  8
0
 10
4287.5514191004531313
 20
195.0580799671423051
 30
0.0
 40
0.2408527699206262
 50
208.2026837882031884
 51
249.0487203315919089
  0
ARC
  5
1A105
  8
0
 10
4287.5961296739533282
 20
195.1521227449129015
 30
0.0
 40
0.3447610372580827
 50
247.6979284053780077
 51
276.6611646229721941
  0
ARC
  5
1A106
  8
0
 10
4287.6072850388318329
 20
195.1095648789564905
 30
0.0
 40
0.3012591100568786
 50
275.4926763196285151
 51
310.8605180278552211
  0
ARC
  5
1A107
  8
0
 10
4287.5928073502527695
 20
195.093948373412502
 30
0.0
 40
0.2996683066804357
 50
314.9108052510605944
 51
340.7159290293392928
  0
ARC
  5
1A108
  8
0
 10
4278.7113169200083576
 20
198.4784098345081134
 30
0.0
 40
9.8040547715569364
 50
339.1878754915570084
 51
340.1551064388800114
  0
ARC
  5
1A109
  8
0
 10
4289.3738367227470007
 20
195.8636599520964978
 30
0.0
 40
2.232759472294441
 50
198.6358134869711876
 51
204.3166836626593863
  0
ARC
  5
1A10A
  8
0
 10
4287.6528140128039013
 20
195.2965510821404962
 30
0.0
 40
0.4209394222237216
 50
179.7203306071743896
 51
200.3485149290725928
  0
ARC
  5
1A10B
  8
0
 10
4287.7316236146170922
 20
195.2775515962080135
 30
0.0
 40
0.5001100553794831
 50
154.0230568618057134
 51
177.8227744607372927
  0
ARC
  5
1A10C
  8
0
 10
4287.5981747627902223
 20
195.3441781435051894
 30
0.0
 40
0.3509634030080697
 50
127.5489796345892017
 51
154.2587029828584946
  0
ARC
  5
1A10D
  8
0
 10
4287.5792091627972695
 20
195.3555511305856101
 30
0.0
 40
0.3304875532886731
 50
93.4017928158740034
 51
126.1436262572830032
  0
ARC
  5
1A10E
  8
0
 10
4287.5961596310180539
 20
195.2813668708706984
 30
0.0
 40
0.4057400708561831
 50
70.9763422629662983
 51
95.1698789014120763
  0
ARC
  5
1A10F
  8
0
 10
4287.6176224324799477
 20
195.3666932084167911
 30
0.0
 40
0.3181668627383795
 50
30.447742754112511
 51
69.6215988324096884
  0
ARC
  5
1A110
  8
0
 10
4287.4658417779892261
 20
195.2774282950246061
 30
0.0
 40
0.4942509075699635
 50
6.1437258861672417
 51
30.4523040179078208
  0
ARC
  5
1A111
  8
0
 10
4287.5666751532717171
 20
195.2908815656979016
 30
0.0
 40
0.3925653630871187
 50
338.9967611304767843
 51
5.7665061348713129
  0
ARC
  5
1A112
  8
0
 10
4297.588008952526252
 20
194.7752823823080064
 30
0.0
 40
0.2775136582830377
 50
14.0066235404405592
 51
54.9286489628397234
  0
ARC
  5
1A113
  8
0
 10
4297.4614307816009386
 20
194.6068465343728917
 30
0.0
 40
0.4881466881989334
 50
54.1288716413541593
 51
82.7699080349473775
  0
ARC
  5
1A114
  8
0
 10
4297.4387573507583511
 20
194.5200438648863042
 30
0.0
 40
0.5772286549264494
 50
81.6215245779800966
 51
113.4920980313524979
  0
ARC
  5
1A115
  8
0
 10
4297.34949122017224
 20
194.7169032741842045
 30
0.0
 40
0.3611183864338253
 50
112.9534792257459941
 51
143.9029467248400067
  0
ARC
  5
1A116
  8
0
 10
4297.2560367762953319
 20
194.7894246821772981
 30
0.0
 40
0.2429047648738101
 50
144.7378948435909933
 51
167.7273549401108994
  0
ARC
  5
1A117
  8
0
 10
4297.6351575537428289
 20
194.7132468080394858
 30
0.0
 40
0.2569593527699845
 50
17.2304252519463006
 51
30.1864956904612214
  0
ARC
  5
1A118
  8
0
 10
4297.5703484717541869
 20
194.6713129397128057
 30
0.0
 40
0.3340849726941241
 50
30.8142473585716701
 51
54.0000632310601389
  0
ARC
  5
1A119
  8
0
 10
4297.4597826681983861
 20
194.5110780893054994
 30
0.0
 40
0.5287278359299786
 50
54.5130557572076029
 51
84.5425009262030045
  0
ARC
  5
1A11A
  8
0
 10
4297.438335682358229
 20
194.4151950290489026
 30
0.0
 40
0.6263354520117888
 50
83.4236052714519332
 51
107.0786539437909965
  0
ARC
  5
1A11B
  8
0
 10
4297.3914790897870262
 20
194.5605808081265025
 30
0.0
 40
0.4736044053487066
 50
106.8254670101133996
 51
130.3040590247998978
  0
ARC
  5
1A11C
  8
0
 10
4297.2783580485156563
 20
194.6949622144514933
 30
0.0
 40
0.2979511955154238
 50
130.4300398157620009
 51
161.6469599277525049
  0
ARC
  5
1A11D
  8
0
 10
4297.593705381221298
 20
194.6125854783863076
 30
0.0
 40
0.3368427406042461
 50
28.0699269939573703
 51
50.393113929013829
  0
ARC
  5
1A11E
  8
0
 10
4297.2579295967598227
 20
193.9348388909371863
 30
0.0
 40
1.0869829257905741
 50
59.571360793289891
 51
76.0133306311055037
  0
ARC
  5
1A11F
  8
0
 10
4297.6235046968458846
 20
193.9223641000527891
 30
0.0
 40
1.1003204638797071
 50
104.0869969630503959
 51
120.3283116299807034
  0
ARC
  5
1A120
  8
0
 10
4297.283532429688421
 20
194.6118536280852993
 30
0.0
 40
0.337978084063597
 50
129.6448594327214039
 51
151.8920995762252915
  0
ARC
  5
1A121
  8
0
 10
4297.283532429000843
 20
194.4410908320465978
 30
0.0
 40
0.3379780831925718
 50
129.6448594036766053
 51
151.8920996052096939
  0
ARC
  5
1A122
  8
0
 10
4296.8246882667399404
 20
195.6959531738226872
 30
0.0
 40
1.0239173247575599
 50
283.7404542230735274
 51
292.2137074462823989
  0
ARC
  5
1A123
  8
0
 10
4296.7460464291361859
 20
195.8762722223104902
 30
0.0
 40
1.220593150070129
 50
292.427749768482613
 51
299.9647369094266196
  0
ARC
  5
1A124
  8
0
 10
4298.0711667533341824
 20
195.756092168084308
 30
0.0
 40
1.086980210155603
 50
239.5713400942649116
 51
256.0133512958850019
  0
ARC
  5
1A125
  8
0
 10
4297.5928105509010493
 20
194.4410918308171858
 30
0.0
 40
0.3379762907494019
 50
28.107870741238461
 51
50.3552519221161674
  0
ARC
  5
1A126
  8
0
 10
4297.3392140510695754
 20
194.3958336604011095
 30
0.0
 40
0.3745354442850203
 50
109.9008169560382981
 51
152.4454065781469012
  0
ARC
  5
1A127
  8
0
 10
4297.438264905394135
 20
194.1715775913997959
 30
0.0
 40
0.6193447761034875
 50
68.9892354452503156
 51
111.4484545765313044
  0
ARC
  5
1A128
  8
0
 10
4297.5891487673443407
 20
194.4365500152925108
 30
0.0
 40
0.3097255919879373
 50
25.7537408615558512
 51
48.4294635890287921
  0
ARC
  5
1A129
  8
0
 10
4297.4986137599007634
 20
194.3313342024086978
 30
0.0
 40
0.4485202631639766
 50
48.6954607895194869
 51
68.2859472964467358
  0
ARC
  5
1A12A
  8
0
 10
4297.5047964910354494
 20
194.291580174433193
 30
0.0
 40
0.4320650319567072
 50
42.8739885914986019
 51
73.2508511145597225
  0
ARC
  5
1A12B
  8
0
 10
4297.438557335657606
 20
194.1123996297910139
 30
0.0
 40
0.6228445354466552
 50
72.1659987625814807
 51
110.4237571335929999
  0
ARC
  5
1A12C
  8
0
 10
4297.3674619745461314
 20
194.2956839481562099
 30
0.0
 40
0.4262808104396289
 50
110.0652684547941931
 51
137.4952716986281871
  0
ARC
  5
1A12D
  8
0
 10
4296.9389338746350404
 20
194.4739001929897881
 30
0.0
 40
0.0651988254695132
 50
118.6929686501535031
 51
178.595817630813201
  0
ARC
  5
1A12E
  8
0
 10
4297.4381708362316203
 20
193.2907762660705941
 30
0.0
 40
1.3490211577871249
 50
66.8414042721829844
 51
113.1586014556256998
  0
ARC
  5
1A12F
  8
0
 10
4297.9373030631159054
 20
194.4738389705337056
 30
0.0
 40
0.0653028282571052
 50
1.4552915787899261
 51
61.2523816143910267
  0
ARC
  5
1A130
  8
0
 10
4297.4482083298280486
 20
194.1097231952950892
 30
0.0
 40
0.553260170684697
 50
67.762619238551423
 51
110.8329497691481009
  0
ARC
  5
1A131
  8
0
 10
4297.4478567246678722
 20
194.1208667874159914
 30
0.0
 40
0.5484219733257585
 50
65.0431924037139595
 51
113.6197598180368971
  0
ARC
  5
1A132
  8
0
 10
4297.4484632896701441
 20
194.173513070585102
 30
0.0
 40
0.4976818918965877
 50
73.0716560954821688
 51
105.6081338198601003
  0
ARC
  5
1A133
  8
0
 10
4297.438170759906825
 20
194.1807720220365923
 30
0.0
 40
0.5007555976142204
 50
60.6604432943128984
 51
119.3395665329945956
  0
ARC
  5
1A134
  8
0
 10
4832.3583430531462
 20
195.1353088414705894
 30
0.0
 40
535.4849949262655855
 50
180.0705984147805907
 51
180.4494093075551859
  0
ARC
  5
1A135
  8
0
 10
3767.0751973444948817
 20
195.1146138073839893
 30
0.0
 40
530.9277741837416897
 50
359.5489749983756269
 51
359.9310289732953834
  0
ARC
  5
1A136
  8
0
 10
4295.2672847412713963
 20
190.966622540894889
 30
0.0
 40
1.622840240735169
 50
307.0106294421394182
 51
358.8899371076207103
  0
ARC
  5
1A137
  8
0
 10
4299.589310463734364
 20
190.9589209419137035
 30
0.0
 40
1.6029632892482231
 50
180.8456926079626896
 51
230.8087881552033878
  0
ARC
  5
1A138
  8
0
 10
4297.4146775443614388
 20
188.0757602268550954
 30
0.0
 40
1.9792346816332631
 50
126.3066265382853004
 51
203.3957130020694137
  0
ARC
  5
1A139
  8
0
 10
4297.4514572470943676
 20
188.0773114806960962
 30
0.0
 40
1.988110440054105
 50
335.0650683464260737
 51
55.5403506018282798
  0
ARC
  5
1A13A
  8
0
 10
4297.4380350748588171
 20
188.1173161865011139
 30
0.0
 40
2.0173793731292262
 50
204.215527706540513
 51
334.1954753802550044
  0
ARC
  5
1A13B
  8
0
 10
4297.4340973578246121
 20
187.9917257298133109
 30
0.0
 40
1.9622767430410799
 50
202.8465708613904894
 51
269.7429508318967919
  0
ARC
  5
1A13C
  8
0
 10
4297.4424891144490175
 20
187.9909894163922104
 30
0.0
 40
1.961567271752743
 50
269.8738641489188126
 51
337.4625743456228975
  0
LINE
  5
1A13D
  8
0
 10
4294.0467582701330684
 20
194.4465107116448905
 30
0.0
 11
4294.0467825529340189
 21
194.4465141563449038
 31
0.0
  0
LINE
  5
1A13E
  8
0
 10
4294.0467939108330029
 20
195.3727073370448863
 30
0.0
 11
4294.0467705130331524
 21
195.3727106531449067
 31
0.0
  0
ARC
  5
1A13F
  8
0
 10
4291.5917141368336161
 20
194.9096120699448988
 30
0.0
 40
1.3400000000000001
 50
13.2975152882821703
 51
346.7844217845965886
  0
ARC
  5
1A140
  8
0
 10
4291.5917141368336161
 20
194.9096120699448988
 30
0.0
 40
0.6899999999999999
 50
20.0995431167268599
 51
339.9000944549403016
  0
ARC
  5
1A141
  8
0
 10
4291.5917141368336161
 20
194.9096120699448988
 30
0.0
 40
0.599329856
 50
22.7092760979027908
 51
337.2915830307533724
  0
ARC
  5
1A142
  8
0
 10
4293.9819520846440355
 20
194.9098013799261935
 30
0.0
 40
0.4668768125469215
 50
282.0987376490469956
 51
85.7905141867327785
  0
ARC
  5
1A143
  8
0
 10
4293.9513198649392507
 20
195.0767902026190939
 30
0.0
 40
0.6365968970302883
 50
259.8955156159182138
 51
281.6443398716490947
  0
ARC
  5
1A144
  8
0
 10
4293.9549758955854486
 20
194.6096486147532119
 30
0.0
 40
0.7682154528714542
 50
85.4272025169778431
 51
98.6326390206350254
  0
ARC
  5
1A145
  8
0
 10
4245.0003087976519964
 20
496.9516029963882033
 30
0.0
 40
305.511458615724905
 50
279.0195497854746804
 51
279.1988207741894144
  0
ARC
  5
1A146
  8
0
 10
4291.8655072340916377
 20
201.663233064303995
 30
0.0
 40
6.527235131092981
 50
273.2863706832607136
 51
279.0817338592257784
  0
ARC
  5
1A147
  8
0
 10
4315.3966947542430717
 20
-188.0666459108535093
 30
0.0
 40
383.9124117559712204
 50
93.458092011978593
 51
93.4836355870793909
  0
ARC
  5
1A148
  8
0
 10
4291.9915838323104254
 20
199.3874217235540129
 30
0.0
 40
4.2517536705420858
 50
268.6110244343630029
 51
271.0412735979351169
  0
ARC
  5
1A149
  8
0
 10
4291.9033276406862569
 20
195.722103417315509
 30
0.0
 40
0.5853733463440012
 50
260.2551288589181127
 51
268.5506912472841918
  0
ARC
  5
1A14A
  8
0
 10
4291.8279586312301035
 20
195.3089296660918137
 30
0.0
 40
0.1654612530235951
 50
228.4889137382783133
 51
261.7606494962441275
  0
ARC
  5
1A14B
  8
0
 10
4291.8522069129139709
 20
195.3275660168818035
 30
0.0
 40
0.1955737849458188
 50
206.8746523507068105
 51
226.7876407307562943
  0
ARC
  5
1A14C
  8
0
 10
4292.3361931500130595
 20
195.5542718041353965
 30
0.0
 40
0.7299563318608561
 50
187.3066031293404876
 51
205.5746976825363959
  0
ARC
  5
1A14D
  8
0
 10
4291.1951018274694434
 20
195.4173582808267042
 30
0.0
 40
0.4193852004676278
 50
6.033076500134757
 51
12.5948804328702799
  0
ARC
  5
1A14E
  8
0
 10
4318.0541973885792686
 20
346.546349115060309
 30
0.0
 40
154.0117645918805067
 50
260.5983820931588184
 51
260.9541273302172044
  0
ARC
  5
1A14F
  8
0
 10
4291.7931265856132086
 20
187.2881557403231909
 30
0.0
 40
7.3978226971339822
 50
81.4280035024408022
 51
86.5392874374896053
  0
ARC
  5
1A150
  8
0
 10
4314.124550460050159
 20
556.9397726516617695
 30
0.0
 40
362.9277237997288807
 50
266.5158774412442995
 51
266.5429168424143995
  0
ARC
  5
1A151
  8
0
 10
4291.9938041467357834
 20
189.979000917437105
 30
0.0
 40
4.7044520892570896
 50
89.0874542901388935
 51
91.2814642294801786
  0
ARC
  5
1A152
  8
0
 10
4291.9020245941501344
 20
194.1052770507336049
 30
0.0
 40
0.5771556394623544
 50
91.3333889075298657
 51
99.7183650805369837
  0
ARC
  5
1A153
  8
0
 10
4291.8298549793071288
 20
194.5063456268655102
 30
0.0
 40
0.1696947155271103
 50
98.5596971904402182
 51
130.6682876342653969
  0
ARC
  5
1A154
  8
0
 10
4291.8603347473463145
 20
194.4861253332867932
 30
0.0
 40
0.2051357704185631
 50
133.4461365663638901
 51
152.3006131069919888
  0
ARC
  5
1A155
  8
0
 10
4292.2552786699579883
 20
194.2914962068880982
 30
0.0
 40
0.6453867301777528
 50
153.3001595229929137
 51
173.9483157425821105
  0
ARC
  5
1A156
  8
0
 10
4291.3902283203478873
 20
194.3829616058349075
 30
0.0
 40
0.2244857868827173
 50
341.1365181067487242
 51
354.0102652837048822
  0
ARC
  5
1A157
  8
0
 10
4292.3992137446257402
 20
188.5688914126905047
 30
0.0
 40
6.5757826760787346
 50
92.8797256605933654
 51
96.0530284352955306
  0
ARC
  5
1A158
  8
0
 10
4291.7870534423873323
 20
194.3138333685315047
 30
0.0
 40
0.798324182659775
 50
95.8413271532080557
 51
111.0029969272387973
  0
ARC
  5
1A159
  8
0
 10
4291.5827301804283707
 20
194.8357557623147045
 30
0.0
 40
0.2378730577598115
 50
110.1159388943940058
 51
141.8478456568412014
  0
ARC
  5
1A15A
  8
0
 10
4291.4966426993878486
 20
194.9094402039760894
 30
0.0
 40
0.1247484298123588
 50
144.0358728571845859
 51
190.1142981931567135
  0
ARC
  5
1A15B
  8
0
 10
4291.5148340976838881
 20
194.9173090444373031
 30
0.0
 40
0.1441108963249316
 50
191.9243667823533883
 51
232.4878912469031036
  0
ARC
  5
1A15C
  8
0
 10
4291.7130916589403569
 20
195.226165055901987
 30
0.0
 40
0.5107579259919151
 50
235.9460424019073059
 51
263.2648413346125835
  0
ARC
  5
1A15D
  8
0
 10
4292.2680975968332859
 20
199.3905379654626984
 30
0.0
 40
4.711901354248913
 50
262.5014576826155803
 51
267.5749869802319267
  0
ARC
  5
1A15E
  8
0
 10
4294.0212635546604361
 20
194.9090476751644871
 30
0.0
 40
0.3819217441566503
 50
275.5969287738756179
 51
0.084655970723267
  0
ARC
  5
1A15F
  8
0
 10
4293.9810913205237739
 20
194.4697737519740031
 30
0.0
 40
0.8241300685648969
 50
84.5799848958125438
 51
99.4863127540469065
  0
ARC
  5
1A160
  8
0
 10
4294.0092154964968358
 20
194.8877021698365013
 30
0.0
 40
0.4055761303213031
 50
30.0865319872248911
 51
82.9583480222456444
  0
ARC
  5
1A161
  8
0
 10
4293.9815389035657063
 20
194.905422323757108
 30
0.0
 40
0.4216533737981336
 50
0.5950526257240698
 51
26.1145739125269607
  0
ARC
  5
1A162
  8
0
 10
4288.1347984482454194
 20
231.1551108084271107
 30
0.0
 40
36.3241521531723492
 50
276.2024077972603209
 51
279.0449059518244894
  0
ARC
  5
1A163
  8
0
 10
4293.9761205270642677
 20
195.2041311136966897
 30
0.0
 40
0.6801912424508624
 50
258.9053365602853773
 51
276.9574175886925786
  0
ARC
  5
1A164
  8
0
 10
4287.8457049736261979
 20
156.4952313668522947
 30
0.0
 40
38.5116088228787632
 50
81.0376810456816656
 51
83.7186331290215549
  0
ARC
  5
1A165
  8
0
 10
4293.6779908908383732
 20
176.5490306673173961
 30
0.0
 40
18.5652568086865912
 50
95.0019256885606893
 51
96.2190287257701158
  0
ARC
  5
1A166
  8
0
 10
4299.3134625973743823
 20
271.2058278419373778
 30
0.0
 40
76.7736712587539074
 50
264.2904314660199816
 51
264.5781698950713121
  0
ARC
  5
1A167
  8
0
 10
4291.7041084784759732
 20
194.5755109303223094
 30
0.0
 40
0.4311358403814383
 50
94.9609145667827761
 51
113.0620836918025987
  0
ARC
  5
1A168
  8
0
 10
4291.7298506268352867
 20
195.358285878651202
 30
0.0
 40
0.5479486632940269
 50
250.4154044286269993
 51
264.3141220398467794
  0
ARC
  5
1A169
  8
0
 10
4291.5739373845835871
 20
194.9297972891685902
 30
0.0
 40
0.0920452273104378
 50
212.2891782420587106
 51
252.4479988728556918
  0
ARC
  5
1A16A
  8
0
 10
4291.5609239210916712
 20
194.9032425796443988
 30
0.0
 40
0.0735834876503233
 50
110.4452133504082951
 51
162.7663708107268121
  0
ARC
  5
1A16B
  8
0
 10
4291.544681998921078
 20
194.9091663298769959
 30
0.0
 40
0.0563220823429696
 50
163.62685414928049
 51
210.4448918005971905
  0
ATTDEF
  5
1A16D
  8
DEFPOINTS
 10
4290.5196366758518707
 20
194.9068349960400894
 30
0.0
 40
0.001
  1
72664T-4
  3

  2
MODELNUMBER
 70
     0
1001
ACDBATTR
1070
     0
1070
     1
  0
ATTDEF
  5
1A16E
  8
DEFPOINTS
 10
4290.5195108661946506
 20
194.9051681556609026
 30
0.0
 40
0.001
  1
FORTÉ
  3

  2
TRADENAME
 70
     0
1001
ACDBATTR
1070
     0
1070
     1
  0
ATTDEF
  5
1A16F
  8
DEFPOINTS
 10
4290.5196366758518707
 20
194.9035016627067876
 30
0.0
 40
0.001
  1
FAUCET AND  HAND SPRAY
  3

  2
PRODUCT
 70
     0
1001
ACDBATTR
1070
     0
1070
     1
  0
ENDSEC
  0
EOF
