  0
SECTION
  2
HEADER
  9
$ACADVER
  1
AC1009
  9
$INSBASE
 10
854.8568705718483898
 20
152.6401476978738003
 30
0.0
  9
$EXTMIN
 10
850.5812386265982923
 20
143.1442847812211028
 30
-0.0000000000112498
  9
$EXTMAX
 10
867.6513516732843527
 20
152.6493660488476962
 30
0.0000000000002956
  9
$LIMMIN
 10
0.0
 20
0.0
  9
$LIMMAX
 10
11.6929133858000007
 20
8.2677165353999982
  9
$ORTHOMODE
 70
     0
  9
$REGENMODE
 70
     1
  9
$FILLMODE
 70
     1
  9
$QTEXTMODE
 70
     0
  9
$MIRRTEXT
 70
     0
  9
$DRAGMODE
 70
     2
  9
$LTSCALE
 40
0.6431102362
  9
$OSMODE
 70
  4095
  9
$ATTMODE
 70
     1
  9
$TEXTSIZE
 40
0.2
  9
$TRACEWID
 40
0.05
  9
$TEXTSTYLE
  7
STANDARD
  9
$CLAYER
  8
0
  9
$CELTYPE
  6
BYLAYER
  9
$CECOLOR
 62
   256
  9
$DIMSCALE
 40
1.0
  9
$DIMASZ
 40
0.1875
  9
$DIMEXO
 40
0.0625
  9
$DIMDLI
 40
0.4443307087
  9
$DIMRND
 40
0.0
  9
$DIMDLE
 40
0.0
  9
$DIMEXE
 40
0.125
  9
$DIMTP
 40
0.01
  9
$DIMTM
 40
0.01
  9
$DIMTXT
 40
1.0
  9
$DIMCEN
 40
0.1052362205
  9
$DIMTSZ
 40
0.0
  9
$DIMTOL
 70
     1
  9
$DIMLIM
 70
     0
  9
$DIMTIH
 70
     0
  9
$DIMTOH
 70
     1
  9
$DIMSE1
 70
     0
  9
$DIMSE2
 70
     0
  9
$DIMTAD
 70
     0
  9
$DIMZIN
 70
     0
  9
$DIMBLK
  1

  9
$DIMASO
 70
     1
  9
$DIMSHO
 70
     1
  9
$DIMPOST
  1
\X
  9
$DIMAPOST
  1

  9
$DIMALT
 70
     1
  9
$DIMALTD
 70
     2
  9
$DIMALTF
 40
25.3999999999999986
  9
$DIMLFAC
 40
1.0
  9
$DIMTOFL
 70
     0
  9
$DIMTVP
 40
0.0
  9
$DIMTIX
 70
     0
  9
$DIMSOXD
 70
     0
  9
$DIMSAH
 70
     0
  9
$DIMBLK1
  1

  9
$DIMBLK2
  1

  9
$DIMSTYLE
  2
STANDARD
  9
$DIMCLRD
 70
     0
  9
$DIMCLRE
 70
     0
  9
$DIMCLRT
 70
     0
  9
$DIMTFAC
 40
1.0
  9
$DIMGAP
 40
0.09
  9
$LUNITS
 70
     2
  9
$LUPREC
 70
     4
  9
$SKETCHINC
 40
0.1
  9
$FILLETRAD
 40
0.0
  9
$AUNITS
 70
     0
  9
$AUPREC
 70
     0
  9
$MENU
  1
.
  9
$ELEVATION
 40
0.0
  9
$PELEVATION
 40
0.0
  9
$THICKNESS
 40
0.0
  9
$LIMCHECK
 70
     0
  9
$BLIPMODE
 70
     0
  9
$CHAMFERA
 40
0.0
  9
$CHAMFERB
 40
0.0
  9
$SKPOLY
 70
     0
  9
$TDCREATE
 40
2458172.5207638889551163
  9
$TDUPDATE
 40
2459118.7455787039361894
  9
$TDINDWG
 40
0.427408125
  9
$TDUSRTIMER
 40
0.427408125
  9
$USRTIMER
 70
     1
  9
$ANGBASE
 50
0.0
  9
$ANGDIR
 70
     0
  9
$PDMODE
 70
     0
  9
$PDSIZE
 40
0.3125
  9
$PLINEWID
 40
0.0
  9
$COORDS
 70
     1
  9
$SPLFRAME
 70
     0
  9
$SPLINETYPE
 70
     6
  9
$SPLINESEGS
 70
     8
  9
$ATTDIA
 70
     1
  9
$ATTREQ
 70
     1
  9
$HANDLING
 70
     1
  9
$HANDSEED
  5
10338
  9
$SURFTAB1
 70
     6
  9
$SURFTAB2
 70
     6
  9
$SURFTYPE
 70
     6
  9
$SURFU
 70
     6
  9
$SURFV
 70
     6
  9
$UCSNAME
  2

  9
$UCSORG
 10
0.0
 20
0.0
 30
0.0
  9
$UCSXDIR
 10
1.0
 20
0.0
 30
0.0
  9
$UCSYDIR
 10
0.0
 20
1.0
 30
0.0
  9
$PUCSNAME
  2

  9
$PUCSORG
 10
0.0
 20
0.0
 30
0.0
  9
$PUCSXDIR
 10
1.0
 20
0.0
 30
0.0
  9
$PUCSYDIR
 10
0.0
 20
1.0
 30
0.0
  9
$USERI1
 70
     0
  9
$USERI2
 70
     0
  9
$USERI3
 70
     0
  9
$USERI4
 70
     0
  9
$USERI5
 70
     0
  9
$USERR1
 40
0.0
  9
$USERR2
 40
0.0
  9
$USERR3
 40
0.0
  9
$USERR4
 40
0.0
  9
$USERR5
 40
0.0
  9
$WORLDVIEW
 70
     1
  9
$SHADEDGE
 70
     3
  9
$SHADEDIF
 70
    70
  9
$TILEMODE
 70
     1
  9
$MAXACTVP
 70
    64
  9
$PLIMCHECK
 70
     0
  9
$PEXTMIN
 10
1.0000000000000000E+20
 20
1.0000000000000000E+20
 30
1.0000000000000000E+20
  9
$PEXTMAX
 10
-1.0000000000000000E+20
 20
-1.0000000000000000E+20
 30
-1.0000000000000000E+20
  9
$PLIMMIN
 10
0.0
 20
0.0
  9
$PLIMMAX
 10
12.0
 20
9.0
  9
$UNITMODE
 70
     0
  9
$VISRETAIN
 70
     1
  9
$PLINEGEN
 70
     0
  9
$PSLTSCALE
 70
     1
  0
ENDSEC
  0
SECTION
  2
TABLES
  0
TABLE
  2
VPORT
 70
     1
  0
VPORT
  2
*ACTIVE
 70
     0
 10
0.0
 20
0.0
 11
1.0
 21
1.0
 12
392.3740934421113025
 22
58.7636782951046328
 13
0.0
 23
0.0
 14
1.0
 24
1.0
 15
0.0
 25
0.0
 16
0.0
 26
0.0
 36
24.1179433675886514
 17
466.74220170783002
 27
89.133147119929788
 37
0.0
 40
9.6226029189385311
 41
2.6528599605522678
 42
50.0
 43
0.0
 44
0.0
 50
0.0
 51
0.0
 71
     0
 72
   100
 73
     1
 74
     1
 75
     0
 76
     0
 77
     0
 78
     0
  0
ENDTAB
  0
TABLE
  2
LTYPE
 70
     2
  0
LTYPE
  2
CONTINUOUS
 70
     0
  3
Solid line
 72
    65
 73
     0
 40
0.0
  0
LTYPE
  2
PHANTOM2
 70
     0
  3
___ _ _ ___ _ _ ___ _ _ ___ _ _
 72
    65
 73
     6
 40
1.25
 49
0.625
 49
-0.125
 49
0.125
 49
-0.125
 49
0.125
 49
-0.125
  0
ENDTAB
  0
TABLE
  2
LAYER
 70
     2
  0
LAYER
  2
0
 70
     0
 62
   255
  6
CONTINUOUS
  0
LAYER
  2
DEFPOINTS
 70
     0
 62
     7
  6
CONTINUOUS
  0
ENDTAB
  0
TABLE
  2
STYLE
 70
     1
  0
STYLE
  2
STANDARD
 70
     0
 40
0.0
 41
0.8
 50
0.0
 71
     0
 42
0.2
  3
txt
  4

  0
ENDTAB
  0
TABLE
  2
VIEW
 70
     0
  0
ENDTAB
  0
TABLE
  2
UCS
 70
     0
  0
ENDTAB
  0
TABLE
  2
APPID
 70
    11
  0
APPID
  2
ACAD
 70
     0
  0
APPID
  2
ACAD_MLEADERVER
 70
     0
  0
APPID
  2
ACAD_EXEMPT_FROM_CAD_STANDARDS
 70
     0
  0
APPID
  2
ACAD_DSTYLE_DIMJAG
 70
     0
  0
APPID
  2
ACAD_DSTYLE_DIMTALN
 70
     0
  0
APPID
  2
ACAD_NAV_VCDISPLAY
 70
     0
  0
APPID
  2
ACAECLAYERSTANDARD
 70
     0
  0
APPID
  2
ACCMTRANSPARENCY
 70
     0
  0
APPID
  2
DCO15
 70
     0
  0
APPID
  2
ACDBATTR
 70
     0
  0
APPID
  2
ACADANNOTATIVE
 70
     0
  0
ENDTAB
  0
TABLE
  2
DIMSTYLE
 70
     1
  0
DIMSTYLE
  2
STANDARD
 70
     0
  3

  4

  5

  6

  7

 40
1.0
 41
0.1875
 42
0.0625
 43
0.38
 44
0.125
 45
0.0
 46
0.0
 47
0.01
 48
0.01
140
0.15625
141
0.09
142
0.0
143
25.3999999999999986
144
1.0
145
0.0
146
1.0
147
0.09
 71
     1
 72
     0
 73
     1
 74
     1
 75
     0
 76
     0
 77
     0
 78
     4
170
     0
171
     2
172
     0
173
     0
174
     0
175
     0
176
     0
177
     0
178
     0
  0
ENDTAB
  0
ENDSEC
  0
SECTION
  2
BLOCKS
  0
BLOCK
  8
0
  2
$MODEL_SPACE
 70
     0
 10
0.0
 20
0.0
 30
0.0
  3
$MODEL_SPACE
  1

  0
ENDBLK
  5
21
  8
0
  0
BLOCK
 67
     1
  8
0
  2
$PAPER_SPACE
 70
     0
 10
0.0
 20
0.0
 30
0.0
  3
$PAPER_SPACE
  1

  0
ENDBLK
  5
1D
 67
     1
  8
0
  0
ENDSEC
  0
SECTION
  2
ENTITIES
  0
ATTDEF
  5
829
  8
DEFPOINTS
 10
854.8531456555563182
 20
152.6359646914957011
 30
0.0
 40
0.001
  1
K-72666T-4
  3

  2
MODELNUMBER
 70
     0
1001
ACDBATTR
1070
     0
1070
     1
  0
ATTDEF
  5
82A
  8
DEFPOINTS
 10
854.8531456555563182
 20
152.6342980248290075
 30
0.0
 40
0.001
  1
FORTE
  3

  2
TRADENAME
 70
     0
1001
ACDBATTR
1070
     0
1070
     1
  0
ATTDEF
  5
82B
  8
DEFPOINTS
 10
854.8531456555563182
 20
152.6326313581623992
 30
0.0
 40
0.001
  1
BATH AND SHOWER FAUCET
  3

  2
PRODUCT
 70
     0
1001
ACDBATTR
1070
     0
1070
     1
  0
LINE
  5
10166
  8
0
 10
850.7229954953811557
 20
152.6401476978738003
 30
0.0
 11
853.0851377023425357
 21
152.6401476978738003
 31
0.0
  0
ARC
  5
10167
  8
0
 10
849.8679895643118698
 20
152.6405704847811933
 30
0.0
 40
0.8550060355999995
 50
333.5731541874018262
 51
359.9716681457155119
  0
ARC
  5
10168
  8
0
 10
850.7042131948949191
 20
152.2249769962757
 30
0.0
 40
0.078796892235154
 50
153.5731541874017978
 51
227.7740782314023136
  0
ARC
  5
10169
  8
0
 10
849.5908747766121678
 20
150.998251563269605
 30
0.0
 40
1.5778194549037901
 50
15.2958454671216906
 51
47.7740782314023278
  0
LINE
  5
1016A
  8
0
 10
851.1318045800710479
 20
151.3999821620741955
 30
0.0
 11
852.6763286176529846
 21
151.3999821620741955
 31
0.0
  0
ARC
  5
1016B
  8
0
 10
851.1318045800710479
 20
151.4196821620741957
 30
0.0
 40
0.0197
 50
195.2958454669526134
 51
270.0000000000586056
  0
LINE
  5
1016C
  8
0
 10
851.2741653431486384
 20
150.8094322497352096
 30
0.0
 11
852.5339678545752804
 21
150.8094322497352096
 31
0.0
  0
LINE
  5
1016D
  8
0
 10
851.2741653431486384
 20
151.2228118702670088
 30
0.0
 11
851.2741653431486384
 21
150.8094322497352096
 31
0.0
  0
LINE
  5
1016E
  8
0
 10
851.1954200572998843
 20
151.2888854906798031
 30
0.0
 11
851.1954200572998843
 21
151.3999821620741955
 31
0.0
  0
LINE
  5
1016F
  8
0
 10
851.1954200572998843
 20
151.2888854906798031
 30
0.0
 11
851.2741653431486384
 21
151.2228118702670088
 31
0.0
  0
LINE
  5
10170
  8
0
 10
851.2741653431486384
 20
150.8291149855782862
 30
0.0
 11
852.5339678545752804
 21
150.8291149855782862
 31
0.0
  0
LINE
  5
10171
  8
0
 10
851.1914804361178994
 20
150.7700692546536914
 30
0.0
 11
852.6167648963056536
 21
150.7700692546536914
 31
0.0
  0
ARC
  5
10172
  8
0
 10
856.8823945247636402
 20
150.653407270854899
 30
0.0
 40
5.6921097303908184
 50
178.82561867727199
 51
186.3065992307637089
  0
ARC
  5
10173
  8
0
 10
851.3516875810720421
 20
150.0474708264042931
 30
0.0
 40
0.1284197843893643
 50
188.6594064388143011
 51
229.5259589893084922
  0
LINE
  5
10174
  8
0
 10
850.6336500272649346
 20
152.2600453523812121
 30
0.0
 11
853.1744831704588705
 21
152.2600453523812121
 31
0.0
  0
ARC
  5
10175
  8
0
 10
853.940143633412049
 20
152.6405704847811933
 30
0.0
 40
0.8550060355999995
 50
180.0283318542844881
 51
206.4268458125982022
  0
ARC
  5
10176
  8
0
 10
853.1039200028289997
 20
152.2249769962757
 30
0.0
 40
0.078796892235154
 50
312.2259217685976864
 51
26.4268458125981986
  0
ARC
  5
10177
  8
0
 10
854.2172584211115236
 20
150.998251563269605
 30
0.0
 40
1.5778194549037901
 50
132.2259217685976864
 51
164.7041545328783059
  0
ARC
  5
10178
  8
0
 10
852.6763286176529846
 20
151.4196821620741957
 30
0.0
 40
0.0197
 50
269.9999999999349143
 51
344.704154533047415
  0
LINE
  5
10179
  8
0
 10
852.5339678545752804
 20
151.2228118702670088
 30
0.0
 11
852.5339678545752804
 21
150.8094322497352096
 31
0.0
  0
LINE
  5
1017A
  8
0
 10
852.6127131404241482
 20
151.2888854906798031
 30
0.0
 11
852.6127131404241482
 21
151.3999821620741955
 31
0.0
  0
LINE
  5
1017B
  8
0
 10
852.6127131404241482
 20
151.2888854906798031
 30
0.0
 11
852.5339678545752804
 21
151.2228118702670088
 31
0.0
  0
LINE
  5
1017C
  8
0
 10
852.327315904911984
 20
150.8094322497352096
 30
0.0
 11
852.327315904911984
 21
150.7700692546536914
 31
0.0
  0
LINE
  5
1017D
  8
0
 10
851.4808592120618869
 20
150.7700692546536914
 30
0.0
 11
851.4808592120618869
 21
150.8094322497352096
 31
0.0
  0
ARC
  5
1017E
  8
0
 10
842.4383722286403327
 20
148.9537676364801939
 30
0.0
 40
12.1694324514063492
 50
353.7361089188840992
 51
357.1097617985793136
  0
ARC
  5
1017F
  8
0
 10
1374.4160327851489001
 20
90.5622125912479987
 30
0.0
 40
523.0032546616192803
 50
173.7361089188840992
 51
173.8124782774133052
  0
ARC
  5
10180
  8
0
 10
856.9540181989425491
 20
146.5577233989866102
 30
0.0
 40
2.5225337334576321
 50
171.4446238558928997
 51
182.3437392727219049
  0
ARC
  5
10181
  8
0
 10
855.01431717228445
 20
146.4868347006184024
 30
0.0
 40
0.5816183916818608
 50
183.1805035314717998
 51
210.553896009164589
  0
ARC
  5
10182
  8
0
 10
854.8651431580966573
 20
146.4262354305465976
 30
0.0
 40
0.4230129121293331
 50
213.7585146894375896
 51
239.525016393495406
  0
ARC
  5
10183
  8
0
 10
854.8604186183830507
 20
146.4762293422145945
 30
0.0
 40
0.4646368740315152
 50
243.156162498717805
 51
269.5688755201185813
  0
ARC
  5
10184
  8
0
 10
854.8585175101441109
 20
149.9908199634924131
 30
0.0
 40
0.1614496065408652
 50
90.5660617611100491
 51
119.362737492891398
  0
ARC
  5
10185
  8
0
 10
854.8572600177426466
 20
149.9930550505154088
 30
0.0
 40
0.1588850595750483
 50
119.362737492891398
 51
142.2171769754849038
  0
ARC
  5
10186
  8
0
 10
854.8227908628122123
 20
150.0197755203822965
 30
0.0
 40
0.1152719176160443
 50
142.2171769754849038
 51
184.8109989458367011
  0
ARC
  5
10187
  8
0
 10
854.8243643809715877
 20
150.0334530171145957
 30
0.0
 40
0.1187565285948573
 50
191.3370841029316125
 51
246.5560797179286112
  0
ARC
  5
10188
  8
0
 10
854.7991336196630527
 20
149.9477706072574961
 30
0.0
 40
0.1061957242041939
 50
149.6207019727895045
 51
179.4134282050081879
  0
ARC
  5
10189
  8
0
 10
854.747710981244154
 20
149.9482970705223863
 30
0.0
 40
0.054770390899167
 50
179.4134282050065963
 51
227.0981291926883046
  0
ARC
  5
1018A
  8
0
 10
854.7814291159353388
 20
149.984579729058197
 30
0.0
 40
0.1043016327316418
 50
227.098129192689413
 51
258.6825775433650279
  0
ARC
  5
1018B
  8
0
 10
854.8522294629027556
 20
150.2474485865550093
 30
0.0
 40
0.376376082673148
 50
255.9662135806422896
 51
270.7144358710698953
  0
LINE
  5
1018C
  8
0
 10
854.7075189451960568
 20
150.0197755203822965
 30
0.0
 11
854.7075189451960568
 21
149.9110895987249137
 31
0.0
  0
ARC
  5
1018D
  8
0
 10
854.8298463022820215
 20
150.0801934169552965
 30
0.0
 40
0.1643802671814832
 50
251.2900975377866075
 51
267.4024480060567726
  0
LINE
  5
1018E
  8
0
 10
854.822396538226144
 20
149.9159820493399025
 30
0.0
 11
854.8914484054923832
 21
149.9159820493399025
 31
0.0
  0
LINE
  5
1018F
  8
0
 10
854.822396538226144
 20
149.9159820493399025
 30
0.0
 11
854.822396538226144
 21
149.8722566993644989
 31
0.0
  0
LINE
  5
10190
  8
0
 10
854.7317174922467302
 20
149.921549245358392
 30
0.0
 11
854.7317174922467302
 21
149.8928868445975127
 31
0.0
  0
LINE
  5
10191
  8
0
 10
854.7479703299944731
 20
149.9166479375028871
 30
0.0
 11
854.7479703299944731
 21
149.88579035597661
 31
0.0
  0
ARC
  5
10192
  8
0
 10
854.7616994013708336
 20
149.9216013481841117
 30
0.0
 40
0.0299819543977246
 50
156.6596120893179034
 51
180.0995690100104127
  0
ARC
  5
10193
  8
0
 10
854.7376574379592284
 20
149.9319755334543061
 30
0.0
 40
0.0037972312809824
 50
35.8292795560206088
 51
156.6593821033839049
  0
ARC
  5
10194
  8
0
 10
854.7075982994118704
 20
149.9102728392342101
 30
0.0
 40
0.0408722733796047
 50
8.9734118872658613
 51
35.8292795560128283
  0
ARC
  5
10195
  8
0
 10
854.8509834851245159
 20
149.11295453912021
 30
0.0
 40
1.02671834314104
 50
93.2866925863518475
 51
110.8053543085976003
  0
ARC
  5
10196
  8
0
 10
854.8390636157979543
 20
149.1443249852437987
 30
0.0
 40
0.9931596158892677
 50
110.8053543085976003
 51
137.8446564152550877
  0
ARC
  5
10197
  8
0
 10
854.7468670146045042
 20
149.2277929117614974
 30
0.0
 40
0.8687927873989167
 50
137.8446564152550877
 51
169.4672446104871995
  0
ARC
  5
10198
  8
0
 10
855.109936573229561
 20
149.220876054725295
 30
0.0
 40
1.2284542930858739
 50
172.2466156298129079
 51
178.6451245847698885
  0
ARC
  5
10199
  8
0
 10
854.7231293867231443
 20
149.2619679515914015
 30
0.0
 40
0.8413898820081126
 50
180.8202718454265892
 51
198.2329711544720965
  0
ARC
  5
1019A
  8
0
 10
855.0135673397197706
 20
149.3899322632630913
 30
0.0
 40
1.157689491161416
 50
199.7508957620451042
 51
230.2700825574455905
  0
ARC
  5
1019B
  8
0
 10
854.8501251429511285
 20
149.253754718039005
 30
0.0
 40
0.9492801614773554
 50
232.6039692040112072
 51
254.2420101748735988
  0
ARC
  5
1019C
  8
0
 10
854.8569341080518598
 20
149.2737818081855039
 30
0.0
 40
0.9844762613980886
 50
90.0006772176243857
 51
130.2456389162204005
  0
ARC
  5
1019D
  8
0
 10
854.8551534614616685
 20
149.2758855175692929
 30
0.0
 40
0.9817201236202027
 50
130.2456389162204005
 51
154.6818966489651928
  0
ARC
  5
1019E
  8
0
 10
855.0151058128973318
 20
149.2384306185732044
 30
0.0
 40
1.1428482187288369
 50
156.4140625191051015
 51
178.49691302625601
  0
ARC
  5
1019F
  8
0
 10
855.3115823730771581
 20
149.328457864696702
 30
0.0
 40
1.4401839842993891
 50
182.3896778076789076
 51
191.2457961747672073
  0
ARC
  5
101A0
  8
0
 10
854.8630736739721669
 20
149.277176957476911
 30
0.0
 40
0.9909834947460625
 50
193.3954274110703864
 51
221.124689513372914
  0
ARC
  5
101A1
  8
0
 10
854.8536064097654616
 20
149.2689109496801052
 30
0.0
 40
0.9784154409406943
 50
221.124689513372914
 51
254.4682376664360106
  0
ARC
  5
101A2
  8
0
 10
854.8534854302314443
 20
146.4399976940850934
 30
0.0
 40
0.3810896841156477
 50
247.0149580291991072
 51
270.5167567041078769
  0
ARC
  5
101A3
  8
0
 10
854.8176495252452014
 20
146.3555122754854949
 30
0.0
 40
0.2893182395256657
 50
207.3156866529089939
 51
247.0149580291991072
  0
ARC
  5
101A4
  8
0
 10
855.1127703444805093
 20
146.5079378273630937
 30
0.0
 40
0.6214776091229929
 50
176.1357117690739074
 51
207.3156866529089939
  0
ARC
  5
101A5
  8
0
 10
868.9878523902808638
 20
145.5707176258796096
 30
0.0
 40
14.5281768394853206
 50
174.6246177304807929
 51
176.1357117690739074
  0
ARC
  5
101A6
  8
0
 10
809.2898664585666211
 20
152.765529663274009
 30
0.0
 40
45.6083418791838113
 50
352.6511116889993787
 51
354.9338672799545975
  0
ARC
  5
101A7
  8
0
 10
862.2752696583587522
 20
148.4028894070295053
 30
0.0
 40
7.5626641371115673
 50
171.8238668795845001
 51
177.4598617253313932
  0
ARC
  5
101A8
  8
0
 10
855.1070578229689545
 20
149.4040704965368036
 30
0.0
 40
0.3261703374672256
 50
153.9112380376471094
 51
166.82269770925069
  0
ARC
  5
101A9
  8
0
 10
854.8791014998837454
 20
149.5207965990587127
 30
0.0
 40
0.0702576535637043
 50
118.9371018991751043
 51
157.6542891797168977
  0
ARC
  5
101AA
  8
0
 10
854.8568785937042094
 20
149.5570111196896903
 30
0.0
 40
0.0278785418561169
 50
89.9098218931761579
 51
114.9755608203362982
  0
ARC
  5
101AB
  8
0
 10
865.583546883484928
 20
145.4596275089452888
 30
0.0
 40
2.3076788525983338
 50
248.4383093075192903
 51
270.3583953618415876
  0
ARC
  5
101AC
  8
0
 10
865.4433332787139079
 20
145.1047953952891874
 30
0.0
 40
1.926148141063232
 50
221.156556708178698
 51
248.4383093075192903
  0
ARC
  5
101AD
  8
0
 10
865.0511911973446786
 20
144.7620258104653885
 30
0.0
 40
1.4053157301468091
 50
190.7009809372123925
 51
221.156556708178698
  0
ARC
  5
101AE
  8
0
 10
869.2094078304786535
 20
145.5478027330528903
 30
0.0
 40
5.6371251469499137
 50
186.667180371927401
 51
190.7009809372123925
  0
ARC
  5
101AF
  8
0
 10
864.9621763466977882
 20
145.1447199585475971
 30
0.0
 40
1.3749498868777139
 50
177.3032173276220078
 51
190.5353050851608998
  0
ARC
  5
101B0
  8
0
 10
864.9723927016705147
 20
145.1412216043052013
 30
0.0
 40
1.385322804544012
 50
160.9766571196352913
 51
177.1785691467825927
  0
ARC
  5
101B1
  8
0
 10
865.7393122249504813
 20
144.7106251321744139
 30
0.0
 40
2.2561881614139239
 50
125.1650974726119045
 51
156.9838842255630027
  0
ARC
  5
101B2
  8
0
 10
863.5890815099179463
 20
147.7627169419718882
 30
0.0
 40
1.477276254286725
 50
305.1650974726118761
 51
344.4632269286723272
  0
ARC
  5
101B3
  8
0
 10
864.4533115796598395
 20
147.5224472937306928
 30
0.0
 40
0.580268385139478
 50
344.4632269286723272
 51
3.9734869133140811
  0
ARC
  5
101B4
  8
0
 10
-5.3525830404371391
 20
136.2410530457565869
 30
0.0
 40
870.4583984171468956
 50
0.7452376936997926
 51
0.8897525413391932
  0
ARC
  5
101B5
  8
0
 10
865.5455863272447914
 20
149.735710125585598
 30
0.0
 40
0.5451798218838083
 50
148.5601681210027039
 51
177.6615033217250073
  0
ARC
  5
101B6
  8
0
 10
865.5463684485928297
 20
149.7352319700414967
 30
0.0
 40
0.5460965260494807
 50
102.767865093902401
 51
148.5601681210027039
  0
ARC
  5
101B7
  8
0
 10
865.5693718591335255
 20
149.9116444345700927
 30
0.0
 40
0.4093763592137924
 50
110.5485638282937941
 51
129.7633838730473883
  0
ARC
  5
101B8
  8
0
 10
865.1146289274664696
 20
149.7911159487343866
 30
0.0
 40
0.1106980595354518
 50
127.3870280177468999
 51
173.9723667341492046
  0
ARC
  5
101B9
  8
0
 10
865.5742797490859175
 20
148.9752375354682954
 30
0.0
 40
1.0461852378777241
 50
100.069082474591994
 51
120.238927261280196
  0
ARC
  5
101BA
  8
0
 10
865.5788118151431263
 20
148.9546895247162013
 30
0.0
 40
1.067209481535196
 50
88.9707601660114449
 51
100.1157766731536043
  0
ARC
  5
101BB
  8
0
 10
865.5754687185670946
 20
149.4831206431761075
 30
0.0
 40
0.5752395982452714
 50
89.9787826198061111
 51
119.9386433062816053
  0
ARC
  5
101BC
  8
0
 10
865.5751768509040858
 20
149.4939632844182995
 30
0.0
 40
0.6028619551352024
 50
89.9520157718008306
 51
132.284118915082388
  0
ARC
  5
101BD
  8
0
 10
865.5770887902881441
 20
145.9082663095603039
 30
0.0
 40
2.3910174999004741
 50
247.9154425669416923
 51
270.5006624677997138
  0
ARC
  5
101BE
  8
0
 10
865.4200369771697297
 20
145.5211950840345025
 30
0.0
 40
1.9732982094268099
 50
223.2130200687849992
 51
247.9154425669416923
  0
ARC
  5
101BF
  8
0
 10
865.0569905089048461
 20
145.1801164733988969
 30
0.0
 40
1.475164335099167
 50
191.4172132262146988
 51
223.2130200687849992
  0
LINE
  5
101C0
  8
0
 10
866.7379292182522477
 20
152.6401476979737879
 30
0.0
 11
864.4134061018661441
 21
152.6401476979737879
 31
0.0
  0
LINE
  5
101C1
  8
0
 10
866.1590011927548858
 20
151.2652299795547037
 30
0.0
 11
864.9923303894083801
 21
151.2652299795547037
 31
0.0
  0
ARC
  5
101C2
  8
0
 10
867.2226266580794345
 20
152.5880190344255993
 30
0.0
 40
0.4499999992680523
 50
177.97607369211741
 51
209.6957256125112963
  0
ARC
  5
101C3
  8
0
 10
868.3584063240700743
 20
150.6806800894891012
 30
0.0
 40
2.249999999548367
 50
132.9239134310379882
 51
164.2680154910700026
  0
ARC
  5
101C4
  8
0
 10
866.8056657910535705
 20
152.3502299794498924
 30
0.0
 40
0.03
 50
312.9239134310381019
 51
29.6957256125127493
  0
ARC
  5
101C5
  8
0
 10
866.7379292182522477
 20
152.6051476979737913
 30
0.0
 40
0.035
 50
357.9760736922087858
 51
89.9999999999543974
  0
ARC
  5
101C6
  8
0
 10
866.1590011927548858
 20
151.3002299795545866
 30
0.0
 40
0.035
 50
269.9999999999935199
 51
344.2680157577960927
  0
ARC
  5
101C7
  8
0
 10
863.9287049240275564
 20
152.5880190346254892
 30
0.0
 40
0.4499999992680523
 50
330.3042743874879079
 51
2.0239263078825669
  0
ARC
  5
101C8
  8
0
 10
862.7929252580369166
 20
150.68068008968919
 30
0.0
 40
2.249999999548367
 50
15.7319845089299299
 51
47.0760865689619834
  0
ARC
  5
101C9
  8
0
 10
864.3456657910535341
 20
152.350229979649896
 30
0.0
 40
0.03
 50
150.3042743874871974
 51
227.0760865689620118
  0
ARC
  5
101CA
  8
0
 10
864.4134023638547433
 20
152.6051476981737096
 30
0.0
 40
0.035
 50
89.9938807921250259
 51
182.0239263077912142
  0
ARC
  5
101CB
  8
0
 10
864.9923303894083801
 20
151.3002299795545866
 30
0.0
 40
0.035
 50
195.7319842369961123
 51
270.0000000000064801
  0
LINE
  5
101CC
  8
0
 10
866.831725845205824
 20
152.3650917955430941
 30
0.0
 11
864.319605736787139
 21
152.3650917955430941
 31
0.0
  0
LINE
  5
101CD
  8
0
 10
866.8260965877548188
 20
152.3282622179310124
 30
0.0
 11
864.3252349945673814
 21
152.3282622179310124
 31
0.0
  0
LINE
  5
101CE
  8
0
 10
865.4256802750101087
 20
150.2384155045324121
 30
0.0
 11
865.4256802750101087
 21
151.2601891793215998
 31
0.0
  0
LINE
  5
101CF
  8
0
 10
865.7256802478710824
 20
150.2384569485531927
 30
0.0
 11
865.7256802478710824
 21
151.2601891793215998
 31
0.0
  0
ARC
  5
101D0
  8
0
 10
865.4489576494841003
 20
150.2367784230968084
 30
0.0
 40
0.0233348708584255
 50
175.9770520320761023
 51
239.3398148634771019
  0
ARC
  5
101D1
  8
0
 10
865.5002845410176633
 20
150.3697836133918031
 30
0.0
 40
0.1656214158279619
 50
247.5577176533859927
 51
271.581787617853422
  0
ARC
  5
101D2
  8
0
 10
865.5660375574647105
 20
152.8383647506520902
 30
0.0
 40
2.6348498511871248
 50
268.669472272747214
 51
270.2097167083903173
  0
ARC
  5
101D3
  8
0
 10
892.3476647363800112
 20
148.8186851950432015
 30
0.0
 40
26.2139946199973117
 50
177.9466033976694916
 51
182.7463454382748864
  0
ARC
  5
101D4
  8
0
 10
865.6057771474470428
 20
149.735710125585598
 30
0.0
 40
0.5451798218838083
 50
2.3384966782750261
 51
31.4398318789973388
  0
ARC
  5
101D5
  8
0
 10
865.6049950260991181
 20
149.7352319700414967
 30
0.0
 40
0.5460965260494807
 50
31.4398318789973388
 51
77.2324524582139134
  0
ARC
  5
101D6
  8
0
 10
865.581991615558195
 20
149.9116444345700927
 30
0.0
 40
0.4093763592137924
 50
50.236616126952562
 51
69.4518773741265392
  0
ARC
  5
101D7
  8
0
 10
866.0367345472252509
 20
149.7911159487343866
 30
0.0
 40
0.1106980595354518
 50
6.0276332658507483
 51
52.6129719822530291
  0
ARC
  5
101D8
  8
0
 10
865.577083725605803
 20
148.9752375354682954
 30
0.0
 40
1.0461852378777241
 50
59.7610727387197969
 51
79.9309175254079491
  0
ARC
  5
101D9
  8
0
 10
865.5725516595488216
 20
148.9546895247162013
 30
0.0
 40
1.067209481535196
 50
79.8842233268463673
 51
91.0292398339885409
  0
ARC
  5
101DA
  8
0
 10
865.5758947561245122
 20
149.4831206431761075
 30
0.0
 40
0.5752395982452714
 50
60.0613566937183521
 51
90.0212173801939031
  0
ARC
  5
101DB
  8
0
 10
865.5761866237876347
 20
149.4939632844182995
 30
0.0
 40
0.6028619551352024
 50
47.7158810849175481
 51
90.0479842281926466
  0
ARC
  5
101DC
  8
0
 10
865.7024058252076202
 20
150.2367784230968084
 30
0.0
 40
0.0233348708584255
 50
300.6601851365215907
 51
4.12496623565427
  0
ARC
  5
101DD
  8
0
 10
865.6510789336741709
 20
150.3697836133918031
 30
0.0
 40
0.1656214158279619
 50
268.4182123821400978
 51
292.4422823466139221
  0
ARC
  5
101DE
  8
0
 10
865.5853259172268963
 20
152.8383647506520902
 30
0.0
 40
2.6348498511871248
 50
269.7902832916096827
 51
271.3305277272528997
  0
ARC
  5
101DF
  8
0
 10
865.61241658422
 20
145.4596275089452888
 30
0.0
 40
2.3076788525983338
 50
269.6416046381584124
 51
291.5616906924806813
  0
ARC
  5
101E0
  8
0
 10
865.7526301889911338
 20
145.1047953952891874
 30
0.0
 40
1.926148141063232
 50
291.5616906924806813
 51
318.8434432918211883
  0
ARC
  5
101E1
  8
0
 10
866.1447722703605905
 20
144.7620258104653885
 30
0.0
 40
1.4053157301468091
 50
318.8434432918211883
 51
349.2990190627875791
  0
ARC
  5
101E2
  8
0
 10
861.9865556372263882
 20
145.5478027330528903
 30
0.0
 40
5.6371251469499137
 50
349.2990190627875791
 51
353.3328196280726274
  0
ARC
  5
101E3
  8
0
 10
866.2337871210074809
 20
145.1447199585475971
 30
0.0
 40
1.3749498868777139
 50
349.4646949148390718
 51
2.6967826723779611
  0
ARC
  5
101E4
  8
0
 10
866.2235707660347543
 20
145.1412216043052013
 30
0.0
 40
1.385322804544012
 50
2.821430853217354
 51
19.0233428803647016
  0
ARC
  5
101E5
  8
0
 10
865.4566512427547877
 20
144.7106251321744139
 30
0.0
 40
2.2561881614139239
 50
23.0161157744369511
 51
54.8349025273880599
  0
ARC
  5
101E6
  8
0
 10
867.6068819577874365
 20
147.7627169419718882
 30
0.0
 40
1.477276254286725
 50
195.5367730713277012
 51
234.8349025273880955
  0
ARC
  5
101E7
  8
0
 10
866.7426518880454296
 20
147.5224472937306928
 30
0.0
 40
0.580268385139478
 50
176.0265130866858954
 51
195.5367730713277012
  0
ARC
  5
101E8
  8
0
 10
865.618874677417125
 20
145.9082663095603039
 30
0.0
 40
2.3910174999004741
 50
269.4993375322002862
 51
292.0845574330583077
  0
ARC
  5
101E9
  8
0
 10
865.775926490535312
 20
145.5211950840345025
 30
0.0
 40
1.9732982094268099
 50
292.0845574330583077
 51
316.7869799312151144
  0
ARC
  5
101EA
  8
0
 10
866.1389729588001956
 20
145.1801164733988969
 30
0.0
 40
1.475164335099167
 50
316.7869799312151144
 51
348.5827867737853012
  0
LINE
  5
101EB
  8
0
 10
865.3625388329876387
 20
151.2601891793215998
 30
0.0
 11
865.7892516170860517
 21
151.2601891793215998
 31
0.0
  0
ARC
  5
101EC
  8
0
 10
865.789257716162524
 20
151.3202118556428104
 30
0.0
 40
0.0600226766308973
 50
269.9941780114062908
 51
293.649230466035192
  0
ARC
  5
101ED
  8
0
 10
865.3620865554177044
 20
151.320187474702692
 30
0.0
 40
0.0600000000300332
 50
246.3421801359056929
 51
270.4318973553154137
  0
ARC
  5
101EF
  8
0
 10
854.8792345693775587
 20
149.3436143950054884
 30
0.0
 40
1.2481701485427079
 50
239.3509459924464977
 51
256.1296584124108904
  0
ARC
  5
101F0
  8
0
 10
852.5779726931466485
 20
145.459985547961395
 30
0.0
 40
3.2660716753505308
 50
59.3509459924464835
 51
64.8709009037881259
  0
ARC
  5
101F1
  8
0
 10
853.5603888737346097
 20
147.5544497641946009
 30
0.0
 40
0.952649555424678
 50
64.8709009037881259
 51
94.1418221809164066
  0
ARC
  5
101F2
  8
0
 10
853.5519993651050754
 20
152.1476661316173136
 30
0.0
 40
3.6435557522272561
 50
256.7078935047128994
 51
269.0498993441872244
  0
ARC
  5
101F3
  8
0
 10
853.0843256378294654
 20
150.3713081421136906
 30
0.0
 40
1.807863997065009
 50
234.3128390926146096
 51
258.1891290545149786
  0
ARC
  5
101F4
  8
0
 10
852.6767978931702601
 20
149.8039050102667886
 30
0.0
 40
1.109276009266225
 50
207.4287026753069938
 51
234.3128390926146096
  0
ARC
  5
101F5
  8
0
 10
842.7580132898410739
 20
144.6561898256942982
 30
0.0
 40
10.0657523857186906
 50
27.4287026753070293
 51
28.7938657787395798
  0
ARC
  5
101F6
  8
0
 10
901.4525540255848455
 20
176.9156039519749015
 30
0.0
 40
56.9097574066731298
 50
208.5156941981769876
 51
208.7938657787395016
  0
ARC
  5
101F7
  8
0
 10
850.9340673743351999
 20
149.475967491420505
 30
0.0
 40
0.5798547055844053
 50
27.8572400499459505
 51
54.7981270489345818
  0
ARC
  5
101F8
  8
0
 10
853.6325845743848504
 20
151.1918000346632027
 30
0.0
 40
1.099884752681094
 50
202.5464183463548125
 51
229.7373321206638934
  0
ARC
  5
101F9
  8
0
 10
853.5804168234475355
 20
151.2054584742249972
 30
0.0
 40
1.077689756981522
 50
232.3239627681950026
 51
255.3132083004161927
  0
ARC
  5
101FA
  8
0
 10
853.8169665413377061
 20
151.9809295786432131
 30
0.0
 40
1.888071711756687
 50
254.3356581389359974
 51
264.7021766808522898
  0
ARC
  5
101FB
  8
0
 10
853.6964490939432153
 20
150.8941212577435067
 30
0.0
 40
0.7950212918599747
 50
266.1187940444889932
 51
296.3865655586808998
  0
ARC
  5
101FC
  8
0
 10
851.1233112051376111
 20
156.2351537233967065
 30
0.0
 40
6.7235210532055909
 50
295.801702629191027
 51
298.3453270098526104
  0
ARC
  5
101FD
  8
0
 10
854.8154616161125432
 20
149.3910627944860892
 30
0.0
 40
1.0529534243747489
 50
98.6767512026687541
 51
118.3453270098524968
  0
ARC
  5
101FE
  8
0
 10
854.8872669503762154
 20
148.9203693905728869
 30
0.0
 40
1.529092360065929
 50
91.1370959212482461
 51
98.675809404027305
  0
LINE
  5
101FF
  8
0
 10
858.9908494483371442
 20
152.6401476978738003
 30
0.0
 11
856.6287072413756505
 21
152.6401476978738003
 31
0.0
  0
ARC
  5
10200
  8
0
 10
859.8458553794063164
 20
152.6405704847811933
 30
0.0
 40
0.8550060355999995
 50
180.0283318542844881
 51
206.4268458125982022
  0
ARC
  5
10201
  8
0
 10
859.0096317488234945
 20
152.2249769962757
 30
0.0
 40
0.078796892235154
 50
312.2259217685976864
 51
26.4268458125981986
  0
ARC
  5
10202
  8
0
 10
860.1229701671060184
 20
150.998251563269605
 30
0.0
 40
1.5778194549037901
 50
132.2259217685976864
 51
164.7041545328783059
  0
LINE
  5
10203
  8
0
 10
858.5820403636474794
 20
151.3999821620741955
 30
0.0
 11
857.0375163260655427
 21
151.3999821620741955
 31
0.0
  0
ARC
  5
10204
  8
0
 10
858.5820403636474794
 20
151.4196821620741957
 30
0.0
 40
0.0197
 50
269.9999999999349143
 51
344.704154533047415
  0
LINE
  5
10205
  8
0
 10
858.4396796005695478
 20
150.8094322497352096
 30
0.0
 11
857.1798770891431332
 21
150.8094322497352096
 31
0.0
  0
LINE
  5
10206
  8
0
 10
858.4396796005695478
 20
151.2228118702670088
 30
0.0
 11
858.4396796005695478
 21
150.8094322497352096
 31
0.0
  0
LINE
  5
10207
  8
0
 10
858.5184248864186429
 20
151.2888854906798031
 30
0.0
 11
858.5184248864186429
 21
151.3999821620741955
 31
0.0
  0
LINE
  5
10208
  8
0
 10
858.5184248864186429
 20
151.2888854906798031
 30
0.0
 11
858.4396796005695478
 21
151.2228118702670088
 31
0.0
  0
LINE
  5
10209
  8
0
 10
858.4396796005695478
 20
150.8291149855782862
 30
0.0
 11
857.1798770891431332
 21
150.8291149855782862
 31
0.0
  0
LINE
  5
1020A
  8
0
 10
858.5223645076004004
 20
150.7700692546536914
 30
0.0
 11
857.09708004741276
 21
150.7700692546536914
 31
0.0
  0
ARC
  5
1020B
  8
0
 10
852.8314504189547733
 20
150.653407270854899
 30
0.0
 40
5.6921097303908184
 50
353.6934007692364048
 51
1.174381322727978
  0
ARC
  5
1020C
  8
0
 10
858.3621573626461441
 20
150.0474708264042931
 30
0.0
 40
0.1284197843893643
 50
310.4740410106915078
 51
351.3405935611855853
  0
LINE
  5
1020D
  8
0
 10
859.0801949164533653
 20
152.2600453523812121
 30
0.0
 11
856.5393617732594294
 21
152.2600453523812121
 31
0.0
  0
ARC
  5
1020E
  8
0
 10
855.7737013103062509
 20
152.6405704847811933
 30
0.0
 40
0.8550060355999995
 50
333.5731541874018262
 51
359.9716681457155119
  0
ARC
  5
1020F
  8
0
 10
856.6099249408894138
 20
152.2249769962757
 30
0.0
 40
0.078796892235154
 50
153.5731541874017978
 51
227.7740782314023136
  0
ARC
  5
10210
  8
0
 10
855.4965865226066626
 20
150.998251563269605
 30
0.0
 40
1.5778194549037901
 50
15.2958454671216906
 51
47.7740782314023278
  0
ARC
  5
10211
  8
0
 10
857.0375163260655427
 20
151.4196821620741957
 30
0.0
 40
0.0197
 50
195.2958454669526134
 51
270.0000000000586056
  0
LINE
  5
10212
  8
0
 10
857.1798770891431332
 20
151.2228118702670088
 30
0.0
 11
857.1798770891431332
 21
150.8094322497352096
 31
0.0
  0
LINE
  5
10213
  8
0
 10
857.1011318032941517
 20
151.2888854906798031
 30
0.0
 11
857.1011318032941517
 21
151.3999821620741955
 31
0.0
  0
LINE
  5
10214
  8
0
 10
857.1011318032941517
 20
151.2888854906798031
 30
0.0
 11
857.1798770891431332
 21
151.2228118702670088
 31
0.0
  0
LINE
  5
10215
  8
0
 10
857.3865290388065432
 20
150.8094322497352096
 30
0.0
 11
857.3865290388065432
 21
150.7700692546536914
 31
0.0
  0
LINE
  5
10216
  8
0
 10
858.232985731656413
 20
150.7700692546536914
 30
0.0
 11
858.232985731656413
 21
150.8094322497352096
 31
0.0
  0
ARC
  5
10217
  8
0
 10
867.2754727150778535
 20
148.9537676364801939
 30
0.0
 40
12.1694324514063492
 50
182.8902382014206864
 51
186.2638910811159008
  0
ARC
  5
10218
  8
0
 10
335.2978121585691156
 20
90.5622125912479987
 30
0.0
 40
523.0032546616192803
 50
6.1875217225867321
 51
6.2638910811159247
  0
ARC
  5
10219
  8
0
 10
852.7598267447758644
 20
146.5577233989866102
 30
0.0
 40
2.5225337334576321
 50
357.6562607272779815
 51
8.5553761441070701
  0
ARC
  5
1021A
  8
0
 10
854.6995277714340773
 20
146.4868347006184024
 30
0.0
 40
0.5816183916818608
 50
329.446103990835411
 51
356.8194964685280866
  0
ARC
  5
1021B
  8
0
 10
854.8487017856217562
 20
146.4262354305465976
 30
0.0
 40
0.4230129121293331
 50
300.4749836065045088
 51
326.2414853105623251
  0
ARC
  5
1021C
  8
0
 10
854.8534263253352492
 20
146.4762293422145945
 30
0.0
 40
0.464636874031512
 50
270.4311244798878988
 51
296.8438375012822803
  0
ARC
  5
1021D
  8
0
 10
854.8553274335743026
 20
149.9908199634924131
 30
0.0
 40
0.1614496065408652
 50
60.6372625071085878
 51
89.4339382388899793
  0
ARC
  5
1021E
  8
0
 10
854.8565849259756533
 20
149.9930550505154088
 30
0.0
 40
0.1588850595750483
 50
37.7828230245151033
 51
60.6372625071085878
  0
ARC
  5
1021F
  8
0
 10
854.8910540809062013
 20
150.0197755203822965
 30
0.0
 40
0.1152719176160443
 50
355.1890010541633842
 51
37.7828230245151033
  0
ARC
  5
10220
  8
0
 10
854.8894805627467122
 20
150.0334530171145957
 30
0.0
 40
0.1187565285948573
 50
293.4439202820713035
 51
348.6629158970682738
  0
ARC
  5
10221
  8
0
 10
854.9147113240553608
 20
149.9477706072574961
 30
0.0
 40
0.1061957242041939
 50
0.5865717949917247
 51
30.3792980272104494
  0
ARC
  5
10222
  8
0
 10
854.9661339624741458
 20
149.9482970705223863
 30
0.0
 40
0.054770390899167
 50
312.9018708073116954
 51
0.5865717949933531
  0
ARC
  5
10223
  8
0
 10
854.9324158277833021
 20
149.984579729058197
 30
0.0
 40
0.1043016327316418
 50
281.3174224566286057
 51
312.9018708073099901
  0
ARC
  5
10224
  8
0
 10
854.8616154808155443
 20
150.2474485865550093
 30
0.0
 40
0.376376082673148
 50
269.2855641289299911
 51
284.033786419357682
  0
LINE
  5
10225
  8
0
 10
855.0063259985223567
 20
150.0197755203822965
 30
0.0
 11
855.0063259985223567
 21
149.9110895987249137
 31
0.0
  0
ARC
  5
10226
  8
0
 10
854.8839986414363921
 20
150.0801934169552965
 30
0.0
 40
0.1643802671814832
 50
272.5975519928347808
 51
288.7099024622071965
  0
LINE
  5
10227
  8
0
 10
854.8914484054923832
 20
149.9159820493399025
 30
0.0
 11
854.8914484054923832
 21
149.8722566993644989
 31
0.0
  0
LINE
  5
10228
  8
0
 10
854.9821274514719107
 20
149.921549245358392
 30
0.0
 11
854.9821274514719107
 21
149.8928868445975127
 31
0.0
  0
LINE
  5
10229
  8
0
 10
854.9658746137239405
 20
149.9166479375028871
 30
0.0
 11
854.9658746137239405
 21
149.88579035597661
 31
0.0
  0
ARC
  5
1022A
  8
0
 10
854.9521455423476937
 20
149.9216013481841117
 30
0.0
 40
0.0299819543977246
 50
359.9004309899896157
 51
23.3403879106820611
  0
ARC
  5
1022B
  8
0
 10
854.9761875057591851
 20
149.9319755334543061
 30
0.0
 40
0.0037972312809824
 50
23.3406178966160986
 51
144.1707204439794054
  0
ARC
  5
1022C
  8
0
 10
855.0062466443064295
 20
149.9102728392342101
 30
0.0
 40
0.0408722733796047
 50
144.170720443987193
 51
171.026588112734089
  0
ARC
  5
1022D
  8
0
 10
854.8628614585937839
 20
149.11295453912021
 30
0.0
 40
1.02671834314104
 50
69.1946456914024139
 51
86.7133074136481525
  0
ARC
  5
1022E
  8
0
 10
854.8747813279205729
 20
149.1443249852437987
 30
0.0
 40
0.9931596158892677
 50
42.1553435847448768
 51
69.1946456914024139
  0
ARC
  5
1022F
  8
0
 10
854.9669779291137957
 20
149.2277929117614974
 30
0.0
 40
0.8687927873989167
 50
10.5327553895127792
 51
42.1553435847448768
  0
ARC
  5
10230
  8
0
 10
854.6039083704886252
 20
149.220876054725295
 30
0.0
 40
1.2284542930858739
 50
1.354875415230129
 51
7.7533843701870264
  0
ARC
  5
10231
  8
0
 10
854.9907155569951556
 20
149.2619679515914015
 30
0.0
 40
0.8413898820081126
 50
341.7670288455278751
 51
359.1797281545732972
  0
ARC
  5
10232
  8
0
 10
854.7002776039986429
 20
149.3899322632630913
 30
0.0
 40
1.157689491161416
 50
309.7299174425543811
 51
340.2491042379550095
  0
ARC
  5
10233
  8
0
 10
854.8637198007672851
 20
149.253754718039005
 30
0.0
 40
0.9492801614773554
 50
285.7579898251202053
 51
307.3960307959889064
  0
ARC
  5
10234
  8
0
 10
854.8569108356665538
 20
149.2737818081855039
 30
0.0
 40
0.9844762613980886
 50
49.7543610837795995
 51
89.9993227822649118
  0
ARC
  5
10235
  8
0
 10
854.8586914822567451
 20
149.2758855175692929
 30
0.0
 40
0.9817201236202027
 50
25.3181033510348108
 51
49.7543610837795995
  0
ARC
  5
10236
  8
0
 10
854.6987391308209681
 20
149.2384306185732044
 30
0.0
 40
1.1428482187288369
 50
1.5030869737439929
 51
23.5859374808949092
  0
ARC
  5
10237
  8
0
 10
854.4022625706413692
 20
149.328457864696702
 30
0.0
 40
1.4401839842993891
 50
348.7542038252328211
 51
357.6103221923210072
  0
ARC
  5
10238
  8
0
 10
854.8507712697462466
 20
149.277176957476911
 30
0.0
 40
0.9909834947460625
 50
318.875310486627086
 51
346.6045725889296136
  0
ARC
  5
10239
  8
0
 10
854.8602385339528382
 20
149.2689109496801052
 30
0.0
 40
0.9784154409406943
 50
285.5317623335640178
 51
318.875310486627086
  0
ARC
  5
1023A
  8
0
 10
854.8603595134868556
 20
146.4399976940850934
 30
0.0
 40
0.3810896841156477
 50
269.4832432958921231
 51
292.9850419708009213
  0
ARC
  5
1023B
  8
0
 10
854.8961954184733258
 20
146.3555122754854949
 30
0.0
 40
0.2893182395256657
 50
292.9850419708009213
 51
332.6843133470910061
  0
ARC
  5
1023C
  8
0
 10
854.6010745992379043
 20
146.5079378273630937
 30
0.0
 40
0.6214776091229929
 50
332.6843133470910061
 51
3.8642882309260802
  0
ARC
  5
1023D
  8
0
 10
840.7259925534375498
 20
145.5707176258796096
 30
0.0
 40
14.5281768394853206
 50
3.8642882309260802
 51
5.3753822695191769
  0
ARC
  5
1023E
  8
0
 10
900.4239784851517925
 20
152.765529663274009
 30
0.0
 40
45.6083418791838113
 50
185.0661327200452888
 51
187.3488883110005929
  0
ARC
  5
1023F
  8
0
 10
847.4385752853596614
 20
148.4028894070295053
 30
0.0
 40
7.5626641371115673
 50
2.5401382746685872
 51
8.1761331204155407
  0
ARC
  5
10240
  8
0
 10
854.6067871207493454
 20
149.4040704965368036
 30
0.0
 40
0.3261703374672256
 50
13.1773022907492496
 51
26.0887619623529297
  0
ARC
  5
10241
  8
0
 10
854.8347434438345545
 20
149.5207965990587127
 30
0.0
 40
0.0702576535637043
 50
22.3457108202831201
 51
61.0628981008248815
  0
ARC
  5
10242
  8
0
 10
854.8569663500139768
 20
149.5570111196896903
 30
0.0
 40
0.0278785418561169
 50
65.0244391796578043
 51
90.0901781068303507
  0
ARC
  5
10243
  8
0
 10
854.8346103743407411
 20
149.3436143950054884
 30
0.0
 40
1.2481701485427079
 50
283.8703415875889959
 51
300.6490540075535023
  0
ARC
  5
10244
  8
0
 10
857.1358722505716514
 20
145.459985547961395
 30
0.0
 40
3.2660716753505308
 50
115.129099096211803
 51
120.6490540075535023
  0
ARC
  5
10245
  8
0
 10
856.1534560699835765
 20
147.5544497641946009
 30
0.0
 40
0.952649555424678
 50
85.8581778190835792
 51
115.129099096211803
  0
ARC
  5
10246
  8
0
 10
856.1618455786133381
 20
152.1476661316173136
 30
0.0
 40
3.6435557522272561
 50
270.9501006558127756
 51
283.292106495286987
  0
ARC
  5
10247
  8
0
 10
856.6295193058889481
 20
150.3713081421136906
 30
0.0
 40
1.807863997065009
 50
281.8108709454850214
 51
305.6871609073854188
  0
ARC
  5
10248
  8
0
 10
857.0370470505481535
 20
149.8039050102667886
 30
0.0
 40
1.109276009266225
 50
305.6871609073854188
 51
332.5712973246929209
  0
ARC
  5
10249
  8
0
 10
866.9558316538774534
 20
144.6561898256942982
 30
0.0
 40
10.0657523857186906
 50
151.2061342212604131
 51
152.5712973246930062
  0
ARC
  5
1024A
  8
0
 10
808.2612909181333407
 20
176.9156039519749015
 30
0.0
 40
56.9097574066731298
 50
331.2061342212604131
 51
331.484305801822984
  0
ARC
  5
1024B
  8
0
 10
858.7797775693832136
 20
149.475967491420505
 30
0.0
 40
0.5798547055844053
 50
125.2018729510653969
 51
152.1427599500539998
  0
ARC
  5
1024C
  8
0
 10
856.0812603693336769
 20
151.1918000346632027
 30
0.0
 40
1.099884752681094
 50
310.2626678793359929
 51
337.4535816536451875
  0
ARC
  5
1024D
  8
0
 10
856.1334281202706507
 20
151.2054584742249972
 30
0.0
 40
1.077689756981522
 50
284.6867916995836936
 51
307.6760372318050827
  0
ARC
  5
1024E
  8
0
 10
855.8968784023805938
 20
151.9809295786432131
 30
0.0
 40
1.888071711756687
 50
275.2978233191477102
 51
285.6643418610639742
  0
ARC
  5
1024F
  8
0
 10
856.0173958497751983
 20
150.8941212577435067
 30
0.0
 40
0.7950212918599747
 50
243.6134344413187023
 51
273.8812059555108931
  0
ARC
  5
10250
  8
0
 10
858.5905337385808025
 20
156.2351537233967065
 30
0.0
 40
6.7235210532055909
 50
241.6546729901473896
 51
244.1982973708090014
  0
ARC
  5
10251
  8
0
 10
854.8983833276057567
 20
149.3910627944860892
 30
0.0
 40
1.0529534243747489
 50
61.6546729901474393
 51
81.3232487973312601
  0
ARC
  5
10252
  8
0
 10
854.8265779933420845
 20
148.9203693905728869
 30
0.0
 40
1.529092360065929
 50
81.3241905959726807
 51
88.8629040787517681
  0
ARC
  5
10253
  8
0
 10
853.7295748996384646
 20
151.7025682167416107
 30
0.0
 40
3.2204065365883028
 50
254.7575964485124018
 51
261.8178933632786993
  0
ARC
  5
10254
  8
0
 10
853.4691787114237513
 20
150.7469468058961013
 30
0.0
 40
2.2299427786934389
 50
236.3640917232528125
 51
254.7575964485124018
  0
ARC
  5
10255
  8
0
 10
852.8177140836037324
 20
149.767745666507011
 30
0.0
 40
1.0538301001283259
 50
207.1414134317494131
 51
236.3640917232528125
  0
ARC
  5
10256
  8
0
 10
849.4488291502316315
 20
148.0407263328903866
 30
0.0
 40
2.7319302558618239
 50
27.1414134317494202
 51
34.2738113313457404
  0
ARC
  5
10257
  8
0
 10
850.800695169370556
 20
148.9620016459182921
 30
0.0
 40
1.0959932350393751
 50
34.2738113313457404
 51
52.0725414086933114
  0
ARC
  5
10258
  8
0
 10
849.9533858298842688
 20
147.5182244921518873
 30
0.0
 40
2.7643352029140109
 50
56.6182990262238803
 51
61.5962468934916174
  0
ARC
  5
10259
  8
0
 10
855.9841662440580876
 20
151.7025682167416107
 30
0.0
 40
3.2204065365883028
 50
278.1799395589569031
 51
285.2424035514875982
  0
ARC
  5
1025A
  8
0
 10
856.2445624322730282
 20
150.7469468058961013
 30
0.0
 40
2.2299427786934389
 50
285.2424035514875982
 51
303.635908276747216
  0
ARC
  5
1025B
  8
0
 10
856.8960270600930471
 20
149.767745666507011
 30
0.0
 40
1.0538301001283259
 50
303.635908276747216
 51
332.8585865682505869
  0
ARC
  5
1025C
  8
0
 10
860.264911993465148
 20
148.0407263328903866
 30
0.0
 40
2.7319302558618239
 50
145.726188668654288
 51
152.8585865682505869
  0
ARC
  5
1025D
  8
0
 10
858.9130459743261099
 20
148.9620016459182921
 30
0.0
 40
1.0959932350393751
 50
127.9274585913067028
 51
145.726188668654288
  0
ARC
  5
1025E
  8
0
 10
859.7465779101330554
 20
147.5401558991574973
 30
0.0
 40
2.7384414960621548
 50
118.3665570914547942
 51
123.3934702671487997
  0
ARC
  5
1025F
  8
0
 10
867.4176533676632062
 20
83.7874144287010836
 30
0.0
 40
66.8041517885177711
 50
94.6344766612203188
 51
97.6909214182793164
  0
ARC
  5
10260
  8
0
 10
864.3081077880835892
 20
122.146677963683004
 30
0.0
 40
28.319058925726349
 50
91.6290794497642764
 51
94.6344766612203188
  0
ARC
  5
10261
  8
0
 10
864.012508574052049
 20
132.5402920786222865
 30
0.0
 40
17.9212421709647316
 50
88.9869551690221812
 51
91.6290794497642764
  0
ARC
  5
10262
  8
0
 10
864.1791542578524741
 20
141.5782342271876928
 30
0.0
 40
8.8817690124906292
 50
83.8624424705408558
 51
89.0310047775093949
  0
ARC
  5
10263
  8
0
 10
866.6158653818065432
 20
91.1292395281426622
 30
0.0
 40
60.0098914413503621
 50
93.8073357953153533
 51
97.7502487112793403
  0
ARC
  5
10264
  8
0
 10
863.9342368827517475
 20
131.4250754105279952
 30
0.0
 40
19.6249249207862704
 50
87.555699101847793
 51
93.8073357953153533
  0
ARC
  5
10265
  8
0
 10
857.6119886567073536
 20
126.5175679019721002
 30
0.0
 40
25.7010632116522899
 50
70.3421339413623059
 51
71.449837010583181
  0
ARC
  5
10266
  8
0
 10
864.3649514861381249
 20
143.9863132253265121
 30
0.0
 40
7.0575336726431761
 50
81.8239763256635655
 51
86.7000628990263067
  0
ARC
  5
10267
  8
0
 10
865.8735067200603908
 20
149.789972119458298
 30
0.0
 40
1.0070060047143199
 50
4.3460021864352081
 51
67.5598548139945336
  0
ARC
  5
10268
  8
0
 10
865.6459160364298668
 20
150.077100334266504
 30
0.0
 40
1.2496127219089339
 50
292.9857573170323235
 51
350.287370706677109
  0
ARC
  5
10269
  8
0
 10
868.8008720171345658
 20
149.7745943571200087
 30
0.0
 40
3.726529883983404
 50
167.8602214018831091
 51
176.1671707634361894
  0
ARC
  5
1026A
  8
0
 10
866.3579317146196672
 20
150.3000896465916867
 30
0.0
 40
1.2277096381656161
 50
152.1240896709348078
 51
167.8602214018831091
  0
ARC
  5
1026B
  8
0
 10
865.4858604573191769
 20
150.7613582672651944
 30
0.0
 40
0.2411616067817568
 50
104.4504688435122972
 51
152.1240896709356036
  0
ARC
  5
1026C
  8
0
 10
865.435842661027209
 20
150.6388333318085984
 30
0.0
 40
0.4290413202293446
 50
0.4443267771240959
 51
47.5033558614352884
  0
ARC
  5
1026D
  8
0
 10
886.2912606799477544
 20
150.8005696153607005
 30
0.0
 40
20.4270038314604996
 50
180.4443267771239903
 51
181.6534227151786069
  0
ARC
  5
1026E
  8
0
 10
837.5328702939195864
 20
150.3133615034290074
 30
0.0
 40
27.7475919416699597
 50
359.7909355960917992
 51
0.4533106190792737
  0
ARC
  5
1026F
  8
0
 10
851.2474092350648789
 20
150.4218699470264937
 30
0.0
 40
14.0326237517496892
 50
0.4533106190792737
 51
1.4601306475721609
  0
ARC
  5
10270
  8
0
 10
865.25218730493566
 20
150.7788462155228046
 30
0.0
 40
0.0232968284959685
 50
1.4601306475705329
 51
144.268893002339297
  0
ARC
  5
10271
  8
0
 10
865.7148623333914657
 20
149.7852049725740926
 30
0.0
 40
0.4629480412464084
 50
33.6270037558206099
 51
70.0928137440812407
  0
ARC
  5
10272
  8
0
 10
865.9185892430022022
 20
149.9206992529674096
 30
0.0
 40
0.2182781540129344
 50
348.3844636185621084
 51
33.6270037558206099
  0
ENDSEC
  0
EOF
