  0
SECTION
  2
HEADER
  9
$ACADVER
  1
AC1009
  9
$INSBASE
 10
867.5348333985040199
 20
154.6069131011990976
 30
0.0
  9
$EXTMIN
 10
857.9890239601936628
 20
146.7943357210768056
 30
-0.0000000000112498
  9
$EXTMAX
 10
867.5869361486443267
 20
174.4749266175417972
 30
0.0000000000002956
  9
$LIMMIN
 10
0.0
 20
0.0
  9
$LIMMAX
 10
11.6929133858000007
 20
8.2677165353999982
  9
$ORTHOMODE
 70
     0
  9
$REGENMODE
 70
     1
  9
$FILLMODE
 70
     1
  9
$QTEXTMODE
 70
     0
  9
$MIRRTEXT
 70
     0
  9
$DRAGMODE
 70
     2
  9
$LTSCALE
 40
0.6431102362
  9
$OSMODE
 70
  4095
  9
$ATTMODE
 70
     1
  9
$TEXTSIZE
 40
0.2
  9
$TRACEWID
 40
0.05
  9
$TEXTSTYLE
  7
STANDARD
  9
$CLAYER
  8
0
  9
$CELTYPE
  6
BYLAYER
  9
$CECOLOR
 62
   256
  9
$DIMSCALE
 40
1.0
  9
$DIMASZ
 40
0.1875
  9
$DIMEXO
 40
0.0625
  9
$DIMDLI
 40
0.4443307087
  9
$DIMRND
 40
0.0
  9
$DIMDLE
 40
0.0
  9
$DIMEXE
 40
0.125
  9
$DIMTP
 40
0.01
  9
$DIMTM
 40
0.01
  9
$DIMTXT
 40
1.0
  9
$DIMCEN
 40
0.1052362205
  9
$DIMTSZ
 40
0.0
  9
$DIMTOL
 70
     1
  9
$DIMLIM
 70
     0
  9
$DIMTIH
 70
     0
  9
$DIMTOH
 70
     1
  9
$DIMSE1
 70
     0
  9
$DIMSE2
 70
     0
  9
$DIMTAD
 70
     0
  9
$DIMZIN
 70
     0
  9
$DIMBLK
  1

  9
$DIMASO
 70
     1
  9
$DIMSHO
 70
     1
  9
$DIMPOST
  1
\X
  9
$DIMAPOST
  1

  9
$DIMALT
 70
     1
  9
$DIMALTD
 70
     2
  9
$DIMALTF
 40
25.3999999999999986
  9
$DIMLFAC
 40
1.0
  9
$DIMTOFL
 70
     0
  9
$DIMTVP
 40
0.0
  9
$DIMTIX
 70
     0
  9
$DIMSOXD
 70
     0
  9
$DIMSAH
 70
     0
  9
$DIMBLK1
  1

  9
$DIMBLK2
  1

  9
$DIMSTYLE
  2
STANDARD
  9
$DIMCLRD
 70
     0
  9
$DIMCLRE
 70
     0
  9
$DIMCLRT
 70
     0
  9
$DIMTFAC
 40
1.0
  9
$DIMGAP
 40
0.09
  9
$LUNITS
 70
     2
  9
$LUPREC
 70
     4
  9
$SKETCHINC
 40
0.1
  9
$FILLETRAD
 40
0.0
  9
$AUNITS
 70
     0
  9
$AUPREC
 70
     0
  9
$MENU
  1
.
  9
$ELEVATION
 40
0.0
  9
$PELEVATION
 40
0.0
  9
$THICKNESS
 40
0.0
  9
$LIMCHECK
 70
     0
  9
$BLIPMODE
 70
     0
  9
$CHAMFERA
 40
0.0
  9
$CHAMFERB
 40
0.0
  9
$SKPOLY
 70
     0
  9
$TDCREATE
 40
2458172.5207638889551163
  9
$TDUPDATE
 40
2459118.7455092589370906
  9
$TDINDWG
 40
0.4280678472
  9
$TDUSRTIMER
 40
0.4280678472
  9
$USRTIMER
 70
     1
  9
$ANGBASE
 50
0.0
  9
$ANGDIR
 70
     0
  9
$PDMODE
 70
     0
  9
$PDSIZE
 40
0.3125
  9
$PLINEWID
 40
0.0
  9
$COORDS
 70
     1
  9
$SPLFRAME
 70
     0
  9
$SPLINETYPE
 70
     6
  9
$SPLINESEGS
 70
     8
  9
$ATTDIA
 70
     1
  9
$ATTREQ
 70
     1
  9
$HANDLING
 70
     1
  9
$HANDSEED
  5
10562
  9
$SURFTAB1
 70
     6
  9
$SURFTAB2
 70
     6
  9
$SURFTYPE
 70
     6
  9
$SURFU
 70
     6
  9
$SURFV
 70
     6
  9
$UCSNAME
  2

  9
$UCSORG
 10
0.0
 20
0.0
 30
0.0
  9
$UCSXDIR
 10
1.0
 20
0.0
 30
0.0
  9
$UCSYDIR
 10
0.0
 20
1.0
 30
0.0
  9
$PUCSNAME
  2

  9
$PUCSORG
 10
0.0
 20
0.0
 30
0.0
  9
$PUCSXDIR
 10
1.0
 20
0.0
 30
0.0
  9
$PUCSYDIR
 10
0.0
 20
1.0
 30
0.0
  9
$USERI1
 70
     0
  9
$USERI2
 70
     0
  9
$USERI3
 70
     0
  9
$USERI4
 70
     0
  9
$USERI5
 70
     0
  9
$USERR1
 40
0.0
  9
$USERR2
 40
0.0
  9
$USERR3
 40
0.0
  9
$USERR4
 40
0.0
  9
$USERR5
 40
0.0
  9
$WORLDVIEW
 70
     1
  9
$SHADEDGE
 70
     3
  9
$SHADEDIF
 70
    70
  9
$TILEMODE
 70
     1
  9
$MAXACTVP
 70
    64
  9
$PLIMCHECK
 70
     0
  9
$PEXTMIN
 10
1.0000000000000000E+20
 20
1.0000000000000000E+20
 30
1.0000000000000000E+20
  9
$PEXTMAX
 10
-1.0000000000000000E+20
 20
-1.0000000000000000E+20
 30
-1.0000000000000000E+20
  9
$PLIMMIN
 10
0.0
 20
0.0
  9
$PLIMMAX
 10
12.0
 20
9.0
  9
$UNITMODE
 70
     0
  9
$VISRETAIN
 70
     1
  9
$PLINEGEN
 70
     0
  9
$PSLTSCALE
 70
     1
  0
ENDSEC
  0
SECTION
  2
TABLES
  0
TABLE
  2
VPORT
 70
     1
  0
VPORT
  2
*ACTIVE
 70
     0
 10
0.0
 20
0.0
 11
1.0
 21
1.0
 12
396.0457783465889179
 22
71.5014840493795134
 13
0.0
 23
0.0
 14
1.0
 24
1.0
 15
0.0
 25
0.0
 16
0.0
 26
0.0
 36
24.1179433675886514
 17
466.74220170783002
 27
89.133147119929788
 37
0.0
 40
28.0187690854526288
 41
2.6528599605522678
 42
50.0
 43
0.0
 44
0.0
 50
0.0
 51
0.0
 71
     0
 72
   100
 73
     1
 74
     1
 75
     0
 76
     0
 77
     0
 78
     0
  0
ENDTAB
  0
TABLE
  2
LTYPE
 70
     2
  0
LTYPE
  2
CONTINUOUS
 70
     0
  3
Solid line
 72
    65
 73
     0
 40
0.0
  0
LTYPE
  2
PHANTOM2
 70
     0
  3
___ _ _ ___ _ _ ___ _ _ ___ _ _
 72
    65
 73
     6
 40
1.25
 49
0.625
 49
-0.125
 49
0.125
 49
-0.125
 49
0.125
 49
-0.125
  0
ENDTAB
  0
TABLE
  2
LAYER
 70
     2
  0
LAYER
  2
0
 70
     0
 62
   255
  6
CONTINUOUS
  0
LAYER
  2
DEFPOINTS
 70
     0
 62
     7
  6
CONTINUOUS
  0
ENDTAB
  0
TABLE
  2
STYLE
 70
     1
  0
STYLE
  2
STANDARD
 70
     0
 40
0.0
 41
0.8
 50
0.0
 71
     0
 42
0.2
  3
txt
  4

  0
ENDTAB
  0
TABLE
  2
VIEW
 70
     0
  0
ENDTAB
  0
TABLE
  2
UCS
 70
     0
  0
ENDTAB
  0
TABLE
  2
APPID
 70
    11
  0
APPID
  2
ACAD
 70
     0
  0
APPID
  2
ACAD_MLEADERVER
 70
     0
  0
APPID
  2
ACAD_EXEMPT_FROM_CAD_STANDARDS
 70
     0
  0
APPID
  2
ACAD_DSTYLE_DIMJAG
 70
     0
  0
APPID
  2
ACAD_DSTYLE_DIMTALN
 70
     0
  0
APPID
  2
ACAD_NAV_VCDISPLAY
 70
     0
  0
APPID
  2
ACAECLAYERSTANDARD
 70
     0
  0
APPID
  2
ACCMTRANSPARENCY
 70
     0
  0
APPID
  2
DCO15
 70
     0
  0
APPID
  2
ACDBATTR
 70
     0
  0
APPID
  2
ACADANNOTATIVE
 70
     0
  0
ENDTAB
  0
TABLE
  2
DIMSTYLE
 70
     1
  0
DIMSTYLE
  2
STANDARD
 70
     0
  3

  4

  5

  6

  7

 40
1.0
 41
0.1875
 42
0.0625
 43
0.38
 44
0.125
 45
0.0
 46
0.0
 47
0.01
 48
0.01
140
0.15625
141
0.09
142
0.0
143
25.3999999999999986
144
1.0
145
0.0
146
1.0
147
0.09
 71
     1
 72
     0
 73
     1
 74
     1
 75
     0
 76
     0
 77
     0
 78
     4
170
     0
171
     2
172
     0
173
     0
174
     0
175
     0
176
     0
177
     0
178
     0
  0
ENDTAB
  0
ENDSEC
  0
SECTION
  2
BLOCKS
  0
BLOCK
  8
0
  2
$MODEL_SPACE
 70
     0
 10
0.0
 20
0.0
 30
0.0
  3
$MODEL_SPACE
  1

  0
ENDBLK
  5
21
  8
0
  0
BLOCK
 67
     1
  8
0
  2
$PAPER_SPACE
 70
     0
 10
0.0
 20
0.0
 30
0.0
  3
$PAPER_SPACE
  1

  0
ENDBLK
  5
1D
 67
     1
  8
0
  0
ENDSEC
  0
SECTION
  2
ENTITIES
  0
ATTDEF
  5
829
  8
DEFPOINTS
 10
867.5386854131302243
 20
154.6063930950008114
 30
0.0
 40
0.001
  1
K-72666T-4
  3

  2
MODELNUMBER
 70
     0
1001
ACDBATTR
1070
     0
1070
     1
  0
ATTDEF
  5
82A
  8
DEFPOINTS
 10
867.5386854131302243
 20
154.6047264283340894
 30
0.0
 40
0.001
  1
FORTE
  3

  2
TRADENAME
 70
     0
1001
ACDBATTR
1070
     0
1070
     1
  0
ATTDEF
  5
82B
  8
DEFPOINTS
 10
867.5386854131302243
 20
154.6030597616673958
 30
0.0
 40
0.001
  1
BATH AND SHOWER FAUCET
  3

  2
PRODUCT
 70
     0
1001
ACDBATTR
1070
     0
1070
     1
  0
LINE
  5
1027B
  8
0
 10
867.5348333985040199
 20
155.7879842046797876
 30
0.0
 11
867.5348333985040199
 21
153.4258419977184928
 31
0.0
  0
ARC
  5
1027C
  8
0
 10
867.5352561854110718
 20
156.6429901357491019
 30
0.0
 40
0.8550060355999995
 50
243.5731541873985861
 51
269.9716681457171035
  0
ARC
  5
1027D
  8
0
 10
867.1196626969058343
 20
155.8067665051661947
 30
0.0
 40
0.078796892235154
 50
63.5731541874050876
 51
137.7740782314029104
  0
ARC
  5
1027E
  8
0
 10
865.8929372638995119
 20
156.9201049234488039
 30
0.0
 40
1.5778194549037901
 50
285.2958454671161235
 51
317.774078231402882
  0
LINE
  5
1027F
  8
0
 10
866.2946678627041592
 20
155.3791751199900943
 30
0.0
 11
866.2946678627041592
 21
153.8346510824081008
 31
0.0
  0
ARC
  5
10280
  8
0
 10
866.3143678627042163
 20
155.3791751199900943
 30
0.0
 40
0.0197
 50
105.2958454669536934
 51
180.0000000000619025
  0
LINE
  5
10281
  8
0
 10
865.7041179503652302
 20
155.2959686647664057
 30
0.0
 11
865.7041179503652302
 21
153.9178731664198949
 31
0.0
  0
LINE
  5
10282
  8
0
 10
865.7238006862082784
 20
155.3155596427612863
 30
0.0
 11
866.2946678627041592
 21
155.3155596427612863
 31
0.0
  0
LINE
  5
10283
  8
0
 10
865.7238006862082784
 20
155.3155596427612863
 30
0.0
 11
865.7238006862082784
 21
153.8982665596369941
 31
0.0
  0
LINE
  5
10284
  8
0
 10
865.6647549552835699
 20
155.3155744571558046
 30
0.0
 11
865.6647549552835699
 21
153.8982516294566949
 31
0.0
  0
LINE
  5
10285
  8
0
 10
867.1547310530112327
 20
155.8773296727993909
 30
0.0
 11
867.1547310530112327
 21
153.3364965296021012
 31
0.0
  0
ARC
  5
10286
  8
0
 10
867.5352561854110718
 20
152.5708360666492069
 30
0.0
 40
0.8550060355999995
 50
90.0283318542829534
 51
116.4268458126013996
  0
ARC
  5
10287
  8
0
 10
867.1196626969058343
 20
153.4070596972321141
 30
0.0
 40
0.078796892235154
 50
222.2259217685964927
 51
296.426845812594479
  0
ARC
  5
10288
  8
0
 10
865.8929372638995119
 20
152.2937212789495049
 30
0.0
 40
1.5778194549037901
 50
42.225921768597118
 51
74.7041545328773822
  0
ARC
  5
10289
  8
0
 10
866.3143678627042163
 20
153.8346510824081008
 30
0.0
 40
0.0197
 50
179.9999999999380975
 51
254.7041545330463066
  0
LINE
  5
1028A
  8
0
 10
865.7238006862082784
 20
153.8982665596369941
 30
0.0
 11
866.2946678627041592
 21
153.8982665596369941
 31
0.0
  0
LINE
  5
1028B
  8
0
 10
865.7041179503652302
 20
154.1836637951491014
 30
0.0
 11
865.6647549552835699
 21
154.1836637951491014
 31
0.0
  0
LINE
  5
1028C
  8
0
 10
865.6647549552835699
 20
155.0301204879991985
 30
0.0
 11
865.7041179503652302
 21
155.0301204879991985
 31
0.0
  0
LINE
  5
1028D
  8
0
 10
865.7238006862082784
 20
153.8982665596369941
 30
0.0
 11
865.7041179503652302
 21
153.9178731664198949
 31
0.0
  0
LINE
  5
1028E
  8
0
 10
865.7238006862082784
 20
155.3155596427612863
 30
0.0
 11
865.7041179503652302
 21
155.2959686647664057
 31
0.0
  0
LINE
  5
1028F
  8
0
 10
866.117514632979919
 20
154.9315670873990882
 30
0.0
 11
865.7238006862082784
 21
154.931566582581496
 31
0.0
  0
LINE
  5
10290
  8
0
 10
866.1175145979659646
 20
154.2822590324387022
 30
0.0
 11
865.7238006862082784
 21
154.2822590324387022
 31
0.0
  0
LINE
  5
10291
  8
0
 10
866.117514632979919
 20
154.9315670873990882
 30
0.0
 11
866.117514632979919
 21
154.2822591148990909
 31
0.0
  0
ARC
  5
10292
  8
0
 10
865.3529309075036053
 20
154.6069131011491038
 30
0.0
 40
0.8306554544763498
 50
336.9931776528092087
 51
23.0068223471922515
  0
LINE
  5
10293
  8
0
 10
863.1844397144910772
 20
156.1819110018990955
 30
0.0
 11
863.6783419522846543
 21
156.1819110018990955
 31
0.0
  0
LINE
  5
10294
  8
0
 10
864.2669104251137924
 20
156.1819110018990955
 30
0.0
 11
865.1532768748746776
 21
156.1819110018990955
 31
0.0
  0
LINE
  5
10295
  8
0
 10
863.4061206696512727
 20
156.1845489977991122
 30
0.0
 11
863.6782132587036358
 21
156.1845489977991122
 31
0.0
  0
LINE
  5
10296
  8
0
 10
864.2667942185246375
 20
156.1845489977991122
 30
0.0
 11
864.9321098784355399
 21
156.1845489977991122
 31
0.0
  0
ARC
  5
10297
  8
0
 10
863.5554456015128153
 20
151.6229450449791898
 30
0.0
 40
4.5640522837950277
 50
91.8833429667008517
 51
92.7052337634876409
  0
ARC
  5
10298
  8
0
 10
863.405402484352976
 20
156.1995455433444135
 30
0.0
 40
0.0150137326608739
 50
270.1804620342512067
 51
356.1344482660584276
  0
ARC
  5
10299
  8
0
 10
863.2289905722502681
 20
156.2703042366630086
 30
0.0
 40
0.0300164358456703
 50
176.8807847189256961
 51
270.5023673117340195
  0
ARC
  5
1029A
  8
0
 10
864.1218950645727546
 20
156.2216459208432866
 30
0.0
 40
0.9242457487783626
 50
159.8687566315082051
 51
176.8807847189256961
  0
ARC
  5
1029B
  8
0
 10
865.2393900133953366
 20
155.6709376984125015
 30
0.0
 40
2.167059114637536
 50
140.9265907158296045
 51
156.3645797898375065
  0
ARC
  5
1029C
  8
0
 10
862.1370193664056387
 20
158.0374038033313866
 30
0.0
 40
1.737085163456775
 50
324.8313590525755217
 51
335.0457112875561165
  0
ARC
  5
1029D
  8
0
 10
864.8494671072718347
 20
153.2045278195471951
 30
0.0
 40
2.9811668940848972
 50
87.1129822702834247
 51
88.4114536015433856
  0
ARC
  5
1029E
  8
0
 10
864.9325235111463144
 20
156.1994431671973871
 30
0.0
 40
0.0148999118817416
 50
181.1848698723945006
 51
268.4114536015434282
  0
ARC
  5
1029F
  8
0
 10
863.3911814319748146
 20
156.0949017470991862
 30
0.0
 40
1.5299999999997591
 50
3.9063779560937308
 51
17.1094205674469286
  0
ARC
  5
102A0
  8
0
 10
864.9468683401968292
 20
156.0949017505095924
 30
0.0
 40
1.5299999599773859
 50
174.5472804860694964
 51
176.1162058855323096
  0
LINE
  5
102A1
  8
0
 10
865.0170888437663734
 20
156.617871346674093
 30
0.0
 11
864.2631245756257385
 21
156.2821848268472138
 31
0.0
  0
ARC
  5
102A2
  8
0
 10
861.0976279050294124
 20
159.3657564603313119
 30
0.0
 40
0.1659773784078104
 50
254.8433583409411085
 51
276.3641610003235201
  0
ARC
  5
102A3
  8
0
 10
861.0814018893356661
 20
159.2797803628131135
 30
0.0
 40
0.0790441179659629
 50
218.9720097255714109
 51
249.8954009231001976
  0
ARC
  5
102A4
  8
0
 10
861.1478349095607427
 20
159.3282139749898931
 30
0.0
 40
0.1612074069492896
 50
200.3116681831631922
 51
217.5048477495805059
  0
ARC
  5
102A5
  8
0
 10
862.4274309300022878
 20
159.8756569219243886
 30
0.0
 40
1.552811545879732
 50
192.1814878748240005
 51
202.8666050613628897
  0
ARC
  5
102A6
  8
0
 10
860.9596555205924915
 20
159.5579650314423077
 30
0.0
 40
0.0510552112345656
 50
111.1181570728583949
 51
191.255629311175511
  0
ARC
  5
102A7
  8
0
 10
861.3564529196836475
 20
158.2285048326758101
 30
0.0
 40
1.4366880571468661
 50
85.8872962999398766
 51
89.9053919069276333
  0
ARC
  5
102A8
  8
0
 10
861.3765382895950324
 20
158.0485276662377885
 30
0.0
 40
1.616760299348639
 50
90.6277399159478136
 51
105.6183494953533994
  0
ARC
  5
102A9
  8
0
 10
860.9452970447398457
 20
153.1617640760163965
 30
0.0
 40
6.5200363751668418
 50
82.2127975196761582
 51
85.4767552294643735
  0
ARC
  5
102AA
  8
0
 10
861.1950331137571766
 20
155.8709052127780126
 30
0.0
 40
3.8039226917876339
 50
65.4158607531167178
 51
80.4104468748201953
  0
ARC
  5
102AB
  8
0
 10
861.2502237675684
 20
156.0450786682650914
 30
0.0
 40
3.622645389070656
 50
42.7433951333156728
 51
65.0635802756502528
  0
ARC
  5
102AC
  8
0
 10
859.7988173632162443
 20
154.7985388740239046
 30
0.0
 40
5.5540529229042548
 50
26.6708704840661888
 51
34.299866659716173
  0
ARC
  5
102AD
  8
0
 10
867.9607270571034405
 20
158.3346461785970121
 30
0.0
 40
3.3645827544768139
 50
198.0604502746363949
 51
208.8751831328453932
  0
ARC
  5
102AE
  8
0
 10
861.2937722980190074
 20
155.389133922177507
 30
0.0
 40
3.948140122640178
 50
18.7002613904890715
 51
19.5435497177034492
  0
ARC
  5
102AF
  8
0
 10
865.0050546617524105
 20
156.6453644210048139
 30
0.0
 40
0.0300115090081995
 50
293.639805619965216
 51
18.6788272947155498
  0
ARC
  5
102B0
  8
0
 10
860.2104273119531399
 20
154.7371921426876042
 30
0.0
 40
5.149657695792567
 50
6.5038265576734506
 51
16.2928290619223688
  0
LINE
  5
102B1
  8
0
 10
865.0248152114845652
 20
156.7520652454016101
 30
0.0
 11
864.9984630177192457
 21
156.7392124216850107
 31
0.0
  0
LINE
  5
102B2
  8
0
 10
864.8111213760306555
 20
157.2242061550037988
 30
0.0
 11
864.7882485679014053
 21
157.2140225364794048
 31
0.0
  0
ARC
  5
102B3
  8
0
 10
861.9809563378274788
 20
155.6661155302456052
 30
0.0
 40
3.2675842428934758
 50
20.3404616182610489
 51
28.1265321964971697
  0
ARC
  5
102B4
  8
0
 10
864.8273908260629241
 20
157.1876643297119927
 30
0.0
 40
0.04
 50
28.1265321965102899
 51
113.999975397397904
  0
ARC
  5
102B5
  8
0
 10
865.0072803655723419
 20
156.7880170072336909
 30
0.0
 40
0.04
 50
296.0000000650163088
 51
20.3404616182565015
  0
ARC
  5
102B6
  8
0
 10
864.8141585531298006
 20
157.1379684288901046
 30
0.0
 40
0.0170816965314891
 50
297.2152514426227867
 51
104.4295683099930017
  0
ARC
  5
102B7
  8
0
 10
864.955023727293792
 20
156.8348554837587869
 30
0.0
 40
0.0154084010025927
 50
275.8394242447828901
 51
137.1972812146142928
  0
ARC
  5
102B8
  8
0
 10
861.3652080932450872
 20
155.784106250847401
 30
0.0
 40
3.425770136323675
 50
79.519329394498584
 51
94.171236934089066
  0
ARC
  5
102B9
  8
0
 10
861.4227041145579733
 20
156.094912159668894
 30
0.0
 40
3.1096908655304891
 50
60.3157074988534703
 51
79.519329394498584
  0
ARC
  5
102BA
  8
0
 10
862.0230742091980574
 20
157.1481437908257988
 30
0.0
 40
1.8973620654899179
 50
21.8422514295042198
 51
60.3157074988534703
  0
LINE
  5
102BB
  8
0
 10
863.2292537518961808
 20
156.2402889545992082
 30
0.0
 11
863.6756456240766511
 21
156.2402889545992082
 31
0.0
  0
LINE
  5
102BC
  8
0
 10
867.5348333986025864
 20
166.6230416261790026
 30
0.0
 11
867.5348333986025864
 21
168.9475647425651914
 31
0.0
  0
LINE
  5
102BD
  8
0
 10
866.1599156801836443
 20
167.2019696516765066
 30
0.0
 11
866.1599156801836443
 21
168.3686404550228133
 31
0.0
  0
ARC
  5
102BE
  8
0
 10
867.4827047350545399
 20
166.1383441863517021
 30
0.0
 40
0.4499999992680523
 50
87.9760736921223128
 51
119.6957256125108984
  0
ARC
  5
102BF
  8
0
 10
865.5753657901178713
 20
165.0025645203612044
 30
0.0
 40
2.249999999548367
 50
42.9239134310380166
 51
74.2680154910696331
  0
ARC
  5
102C0
  8
0
 10
867.2449156800787478
 20
166.5553050533777935
 30
0.0
 40
0.03
 50
222.9239134310379882
 51
299.6957256125108984
  0
ARC
  5
102C1
  8
0
 10
867.4998333986026182
 20
166.6230416261790026
 30
0.0
 40
0.035
 50
267.9760736922070805
 51
359.9999999999593001
  0
ARC
  5
102C2
  8
0
 10
866.1949156801834988
 20
167.2019696516765066
 30
0.0
 40
0.035
 50
179.9999999999934914
 51
254.2680157577948989
  0
ARC
  5
102C3
  8
0
 10
867.4827047352542877
 20
169.4322659204038075
 30
0.0
 40
0.4499999992680523
 50
240.3042743874891016
 51
272.023926307877673
  0
ARC
  5
102C4
  8
0
 10
865.5753657903180738
 20
170.5680455863943905
 30
0.0
 40
2.249999999548367
 50
285.7319845089303954
 51
317.0760865689620118
  0
ARC
  5
102C5
  8
0
 10
867.2449156802787229
 20
169.0153050533778014
 30
0.0
 40
0.03
 50
60.3042743874890732
 51
137.0760865689620118
  0
ARC
  5
102C6
  8
0
 10
867.4998333988025934
 20
168.9475684805765923
 30
0.0
 40
0.035
 50
359.9938807921216721
 51
92.0239263077929337
  0
ARC
  5
102C7
  8
0
 10
866.1949156801834988
 20
168.3686404550228133
 30
0.0
 40
0.035
 50
105.7319842369945064
 51
180.0000000000113971
  0
LINE
  5
102C8
  8
0
 10
867.2597774961718642
 20
166.5292449992255968
 30
0.0
 11
867.2597774961718642
 21
169.0413651076439976
 31
0.0
  0
LINE
  5
102C9
  8
0
 10
867.222947918559953
 20
166.5348742566764884
 30
0.0
 11
867.222947918559953
 21
169.035735849864011
 31
0.0
  0
LINE
  5
102CA
  8
0
 10
858.4093090164749356
 20
174.4329795153184079
 30
0.0
 11
858.0601613648566399
 21
173.8517575165317908
 31
0.0
  0
ARC
  5
102CB
  8
0
 10
854.0520235933855702
 20
163.7706130594928879
 30
0.0
 40
11.7261151859510306
 50
22.1820950685687386
 51
28.863341833995559
  0
ARC
  5
102CC
  8
0
 10
853.8589632306659496
 20
163.6641991191901013
 30
0.0
 40
11.9465607128826594
 50
28.863341833995559
 51
37.7522938779741892
  0
ARC
  5
102CD
  8
0
 10
854.165617188313945
 20
163.901655620040998
 30
0.0
 40
11.5587176524348791
 50
37.7522938779741892
 51
43.2533040927782011
  0
ARC
  5
102CE
  8
0
 10
853.7528875491379949
 20
163.5133534788677139
 30
0.0
 40
12.1253959632022799
 50
43.2533040927782011
 51
49.0832237890494412
  0
ARC
  5
102CF
  8
0
 10
854.2452004523994447
 20
164.0813588942820047
 30
0.0
 40
11.3737297163494908
 50
49.0832237890494412
 51
52.5622864265879599
  0
ARC
  5
102D0
  8
0
 10
853.8463667843592475
 20
163.5604171254175014
 30
0.0
 40
12.02981555014712
 50
52.5622864265879599
 51
57.4562990401733771
  0
ARC
  5
102D1
  8
0
 10
857.1772126491515564
 20
168.7800082154940924
 30
0.0
 40
5.8379930944714911
 50
57.4562990401733771
 51
66.9740845466872941
  0
ARC
  5
102D2
  8
0
 10
857.1339839203271822
 20
168.678295647642301
 30
0.0
 40
5.9485108281379171
 50
66.9740845466872941
 51
76.775814636329244
  0
ARC
  5
102D3
  8
0
 10
858.4767724771287476
 20
174.3924533327125914
 30
0.0
 40
0.0787
 50
76.775814636329244
 51
149.0062117870809004
  0
ARC
  5
102D4
  8
0
 10
863.9469463384898518
 20
178.7484281307291951
 30
0.0
 40
7.7390196817274397
 50
220.6123990027990942
 51
223.1567044350881019
  0
ARC
  5
102D5
  8
0
 10
863.9410408662710097
 20
178.5988670862955132
 30
0.0
 40
7.6101743285643817
 50
245.354482448521992
 51
247.4517281769998931
  0
ARC
  5
102D6
  8
0
 10
858.1637996417697423
 20
173.7895006489709999
 30
0.0
 40
0.1209
 50
149.00621178708451
 51
220.6123990028009985
  0
ARC
  5
102D7
  8
0
 10
844.8194640129488562
 20
160.1914578211249989
 30
0.0
 40
20.5975538983081599
 50
21.8064998953832188
 51
24.9192602985335512
  0
ARC
  5
102D8
  8
0
 10
846.0538004882091627
 20
160.7649221482120083
 30
0.0
 40
19.2365072905097882
 50
24.9192602985335512
 51
30.4779044237168115
  0
ARC
  5
102D9
  8
0
 10
844.6174412473341135
 20
159.9195878398423076
 30
0.0
 40
20.9031560122727491
 50
30.4779044237168115
 51
33.2457511977783113
  0
ARC
  5
102DA
  8
0
 10
861.3824784168543829
 20
170.9076166894743949
 30
0.0
 40
0.8581269025079961
 50
33.3481416080786985
 51
89.9890207141250329
  0
LINE
  5
102DB
  8
0
 10
863.9931892598885952
 20
167.8205085091443038
 30
0.0
 11
864.9530600784443095
 21
168.1698729158393064
 31
0.0
  0
ARC
  5
102DC
  8
0
 10
863.9797136662416506
 20
167.8575323984032934
 30
0.0
 40
0.0394
 50
201.8064998953825011
 51
289.9999999999961915
  0
ARC
  5
102DD
  8
0
 10
864.8737888005432524
 20
168.1829491344867051
 30
0.0
 40
0.0394
 50
290.0000000000031264
 51
22.1820950685687386
  0
ARC
  5
102DE
  8
0
 10
843.0824832245044718
 20
150.2590888011050936
 30
0.0
 40
27.8415569075170808
 50
53.7022279380537029
 51
57.458309855898257
  0
ARC
  5
102DF
  8
0
 10
838.7640561234242114
 20
143.317583601886696
 30
0.0
 40
35.9979947801445519
 50
51.6310495579583417
 51
54.7031057637636096
  0
LINE
  5
102E0
  8
0
 10
861.3826428551533354
 20
171.765743576227095
 30
0.0
 11
861.2228560611351895
 21
171.5798493361955082
 31
0.0
  0
ARC
  5
102E1
  8
0
 10
860.9124920244969417
 20
171.160708656836789
 30
0.0
 40
0.4243271068595248
 50
65.336010725464547
 51
74.9280277489364295
  0
ARC
  5
102E2
  8
0
 10
861.1331710864034221
 20
171.6688006031045859
 30
0.0
 40
0.130008094914564
 50
250.4011027353932946
 51
274.7988735553411743
  0
ARC
  5
102E3
  8
0
 10
861.1334031829248943
 20
171.6566954509441132
 30
0.0
 40
0.1179285494355744
 50
275.1785271055227895
 51
319.3351756899002112
  0
ARC
  5
102E4
  8
0
 10
861.7245454450973057
 20
172.3422885881587945
 30
0.0
 40
1.0419365512816421
 50
227.8557543888088048
 51
250.6068999847443024
  0
ARC
  5
102E5
  8
0
 10
861.6913421610586283
 20
172.3351350052298869
 30
0.0
 40
1.024572690472906
 50
252.2257160705169099
 51
275.4029111553704183
  0
ARC
  5
102E6
  8
0
 10
861.7730659368120314
 20
171.43485870356281
 30
0.0
 40
0.1206492843565471
 50
277.0217272411389899
 51
350.6611511069598919
  0
ARC
  5
102E7
  8
0
 10
861.7788265365022653
 20
171.4339113580755054
 30
0.0
 40
0.1148113076297917
 50
350.6611511069622793
 51
36.7418506180378017
  0
ARC
  5
102E8
  8
0
 10
861.3932552141557153
 20
171.1550908658985009
 30
0.0
 40
0.5906221618283853
 50
36.0411206986224002
 51
88.3847912090680268
  0
ARC
  5
102E9
  8
0
 10
861.7180529380176495
 20
172.1884604472820968
 30
0.0
 40
0.5396197520119218
 50
231.5693101513477927
 51
235.1765206615550028
  0
ARC
  5
102EA
  8
0
 10
827.0113844496719366
 20
127.0732913667291939
 30
0.0
 40
56.9123785169217626
 50
53.4071084728958283
 51
56.370296646375408
  0
ARC
  5
102EB
  8
0
 10
862.3088392903920294
 20
174.6136757280110885
 30
0.0
 40
2.299093880334933
 50
233.4071084728957999
 51
248.9428249384085063
  0
ARC
  5
102EC
  8
0
 10
860.5133000070153457
 20
170.131093847527012
 30
0.0
 40
2.5301241935501682
 50
51.2359387609782502
 51
67.4696111238698251
  0
ARC
  5
102ED
  8
0
 10
859.2133948751682055
 20
168.6955935122680899
 30
0.0
 40
4.464793814385339
 50
42.3636829220435374
 51
49.7627249464443082
  0
ARC
  5
102EE
  8
0
 10
853.8554574407171458
 20
163.6630565819010883
 30
0.0
 40
11.8152704126919108
 50
22.3290096787156394
 51
42.8878635524043617
  0
ARC
  5
102EF
  8
0
 10
864.7469378234842452
 20
168.1360154138014877
 30
0.0
 40
0.0410755349084962
 50
309.6547961811086793
 51
22.8531903090748507
  0
LINE
  5
102F0
  8
0
 10
858.4442460112595654
 20
173.3022376427836093
 30
0.0
 11
858.2609014424397174
 21
173.4340610267508964
 31
0.0
  0
LINE
  5
102F1
  8
0
 10
858.2582092002983245
 20
173.4505301442991083
 30
0.0
 11
858.2788213064759475
 21
173.4791981817118085
 31
0.0
  0
LINE
  5
102F2
  8
0
 10
858.2846436118246629
 20
173.4314902457716983
 30
0.0
 11
858.3065251982593509
 21
173.4620735272353897
 31
0.0
  0
LINE
  5
102F3
  8
0
 10
858.3627899801407466
 20
173.375192927828806
 30
0.0
 11
858.3853509431518205
 21
173.4072385891493013
 31
0.0
  0
LINE
  5
102F4
  8
0
 10
858.367093302158537
 20
173.3722433021227118
 30
0.0
 11
858.3896356881391512
 21
173.4035959546191918
 31
0.0
  0
LINE
  5
102F5
  8
0
 10
858.4591501585805418
 20
173.3031587383945009
 30
0.0
 11
858.4732814905067926
 21
173.3162393494773141
 31
0.0
  0
ARC
  5
102F6
  8
0
 10
858.4511344489460498
 20
173.3118183226256974
 30
0.0
 40
0.0118
 50
234.2841453319358891
 51
312.7887658486667988
  0
ARC
  5
102F7
  8
0
 10
858.3766739730823474
 20
173.3653548520323966
 30
0.0
 40
0.0118
 50
144.284071153454903
 51
234.2841453318970082
  0
ARC
  5
102F8
  8
0
 10
858.3724386343282049
 20
173.3684000291565894
 30
0.0
 40
0.0118
 50
144.8534772971775055
 51
234.2841453319531126
  0
ARC
  5
102F9
  8
0
 10
858.2942402637437453
 20
173.4246240771203134
 30
0.0
 40
0.0118
 50
144.417210888016001
 51
234.284145331888908
  0
ARC
  5
102FA
  8
0
 10
858.2677898801264291
 20
173.4436417065930129
 30
0.0
 40
0.0118
 50
144.2841452157240951
 51
234.2841453319223888
  0
ARC
  5
102FB
  8
0
 10
857.9870579827328356
 20
172.9343946449382941
 30
0.0
 40
0.6182383665678194
 50
35.337696299952583
 51
52.9943267113229481
  0
ARC
  5
102FC
  8
0
 10
858.7577318966426674
 20
173.6829532831758058
 30
0.0
 40
0.4730725908090266
 50
212.5957845588310988
 51
216.9067723671869885
  0
ARC
  5
102FD
  8
0
 10
858.7577318966426674
 20
173.6829532831758058
 30
0.0
 40
0.4730725908090266
 50
232.0201736557480103
 51
235.7362384524379877
  0
ARC
  5
102FE
  8
0
 10
857.5281920807206006
 20
172.6351934315663073
 30
0.0
 40
1.1355761244722491
 50
41.8021012851025588
 51
48.4792933799980119
  0
ARC
  5
102FF
  8
0
 10
858.5611499782355622
 20
173.6915267864374925
 30
0.0
 40
0.3478365197612303
 50
216.3378836101043987
 51
222.2071544741066873
  0
LINE
  5
10300
  8
0
 10
858.6768682045391188
 20
173.0733687818380133
 30
0.0
 11
858.473171284313139
 21
173.2198253552963934
 31
0.0
  0
LINE
  5
10301
  8
0
 10
858.5949592366546312
 20
173.14571188577969
 30
0.0
 11
858.6140158962707574
 21
173.1768762846095058
 31
0.0
  0
LINE
  5
10302
  8
0
 10
858.692323024978009
 20
173.0748342237625081
 30
0.0
 11
858.7074874916713725
 21
173.0908417182139942
 31
0.0
  0
LINE
  5
10303
  8
0
 10
858.5121050935370022
 20
173.2053268273180038
 30
0.0
 11
858.5308579427107816
 21
173.2357889462116134
 31
0.0
  0
LINE
  5
10304
  8
0
 10
858.4700242326331363
 20
173.2356132046423056
 30
0.0
 11
858.4876408484566355
 21
173.2640950047083948
 31
0.0
  0
ARC
  5
10305
  8
0
 10
858.6837566422229884
 20
173.0829494616820909
 30
0.0
 40
0.0118
 50
234.2841453485119132
 51
316.5491537885567936
  0
ARC
  5
10306
  8
0
 10
858.6050262731946532
 20
173.1395560125432098
 30
0.0
 40
0.0118
 50
148.5547095875101888
 51
234.2841453484730039
  0
ARC
  5
10307
  8
0
 10
858.5221536411977468
 20
173.1991408197274893
 30
0.0
 40
0.0118
 50
148.3830446739353022
 51
234.2841453484730039
  0
ARC
  5
10308
  8
0
 10
858.4800597219970086
 20
173.2294060351404994
 30
0.0
 40
0.0118
 50
148.2623032353201893
 51
234.2841453485200134
  0
LINE
  5
10309
  8
0
 10
858.5707889394369658
 20
173.2112542168435994
 30
0.0
 11
858.4920711145572341
 21
173.2678517484962981
 31
0.0
  0
LINE
  5
1030A
  8
0
 10
858.4892410571128494
 20
173.2841250251890131
 30
0.0
 11
858.5120092362332116
 21
173.317187294271406
 31
0.0
  0
LINE
  5
1030B
  8
0
 10
858.5857852037771636
 20
173.212261499066301
 30
0.0
 11
858.60181428659007
 21
173.2274201363613884
 31
0.0
  0
LINE
  5
1030C
  8
0
 10
858.4987404150281236
 20
173.2775900135980862
 30
0.0
 11
858.5218498985557289
 21
173.3097313638239996
 31
0.0
  0
ARC
  5
1030D
  8
0
 10
858.577677377116288
 20
173.2208348966910876
 30
0.0
 40
0.0118
 50
234.2841453765352071
 51
313.4012967071934099
  0
ARC
  5
1030E
  8
0
 10
858.5083210819700525
 20
173.2707015579694882
 30
0.0
 40
0.0118
 50
144.2840380321648013
 51
234.2841453766137079
  0
ARC
  5
1030F
  8
0
 10
858.4989595522365562
 20
173.2774324283437863
 30
0.0
 40
0.0118
 50
145.4469378929302081
 51
234.2841453766166069
  0
ARC
  5
10310
  8
0
 10
858.2628618802121991
 20
172.9781297099970061
 30
0.0
 40
0.4207546202554883
 50
32.2590444303354218
 51
58.2206820521144124
  0
ARC
  5
10311
  8
0
 10
858.8802411197220863
 20
173.6006999082678988
 30
0.0
 40
0.4762540435711701
 50
213.7936119416781935
 51
218.039721848355498
  0
ARC
  5
10312
  8
0
 10
858.8802411197220863
 20
173.6006999082678988
 30
0.0
 40
0.4762540435711701
 50
233.0595455845079869
 51
236.6861145407704896
  0
ARC
  5
10313
  8
0
 10
857.932627484767977
 20
172.5212122413404074
 30
0.0
 40
0.9319332314897293
 50
43.677696203234909
 51
51.8136258007951014
  0
ARC
  5
10314
  8
0
 10
858.2380687072620731
 20
172.674638309408607
 30
0.0
 40
0.6273589663482486
 50
39.4094251738832284
 51
55.7968217146080505
  0
ARC
  5
10315
  8
0
 10
859.3089206921448522
 20
173.8061145952733
 30
0.0
 40
0.9438152848574597
 50
220.4554660090456935
 51
222.2743808947741968
  0
ARC
  5
10316
  8
0
 10
859.3089206921448522
 20
173.8061145952733
 30
0.0
 40
0.9438152848574597
 50
229.9079575092711138
 51
231.4008310629565983
  0
ARC
  5
10317
  8
0
 10
858.6485841796073828
 20
173.3555506329443006
 30
0.0
 40
0.1729705028393949
 50
216.0678702591588092
 51
225.8725061975005985
  0
ARC
  5
10318
  8
0
 10
859.3877463907482479
 20
174.2254658891625922
 30
0.0
 40
1.316975309085241
 50
224.6441746333800893
 51
229.1691043157701984
  0
LINE
  5
10319
  8
0
 10
858.7146943599350379
 20
173.0595597258833891
 30
0.0
 11
858.7336797603921923
 21
173.0909171288128903
 31
0.0
  0
LINE
  5
1031A
  8
0
 10
858.8121214235106891
 20
172.9887612232267884
 30
0.0
 11
858.8277745692773806
 21
173.0054258557192952
 31
0.0
  0
LINE
  5
1031B
  8
0
 10
858.7966321574922404
 20
172.9872593234318003
 30
0.0
 11
858.7178999465029392
 21
173.0438676031513978
 31
0.0
  0
LINE
  5
1031C
  8
0
 10
858.7552533485942377
 20
173.0906206060352872
 30
0.0
 11
858.7732838381937199
 21
173.1081697780439015
 31
0.0
  0
LINE
  5
1031D
  8
0
 10
858.658466514428369
 20
173.1622373659110963
 30
0.0
 11
858.6807998293473929
 21
173.1957223248776927
 31
0.0
  0
ARC
  5
1031E
  8
0
 10
858.4974326037824994
 20
172.9094039116220074
 30
0.0
 40
0.3400026076085509
 50
30.3585981037719606
 51
62.8650165016962603
  0
ARC
  5
1031F
  8
0
 10
858.9581447016009861
 20
173.3967944490420905
 30
0.0
 40
0.3571711839993366
 50
211.1599064778586978
 51
216.8087141170194059
  0
ARC
  5
10320
  8
0
 10
858.9581447016009861
 20
173.3967944490420905
 30
0.0
 40
0.3571711839993366
 50
236.8216175358078885
 51
242.0637081276040021
  0
LINE
  5
10321
  8
0
 10
858.7401346787180501
 20
173.0894958872956124
 30
0.0
 11
858.6613949156929948
 21
173.1461091924307993
 31
0.0
  0
ARC
  5
10322
  8
0
 10
858.7470231164068082
 20
173.0990765671361942
 30
0.0
 40
0.0118
 50
234.2841453194780001
 51
314.2249565274012184
  0
ARC
  5
10323
  8
0
 10
858.6682833533818666
 20
173.1556898722714095
 30
0.0
 40
0.0118
 50
146.2980775097944957
 51
234.2841453194699
  0
ARC
  5
10324
  8
0
 10
858.8035206276244935
 20
172.9968399799456904
 30
0.0
 40
0.0118
 50
234.2839512961591026
 51
316.7926668001276198
  0
ARC
  5
10325
  8
0
 10
858.7247884166351923
 20
173.0534482596652879
 30
0.0
 40
0.0118
 50
148.8071096520374965
 51
234.2839512962233073
  0
ARC
  5
10326
  8
0
 10
858.4947526524175601
 20
172.7334175282859121
 30
0.0
 40
0.4299908456027096
 50
35.3690524266749406
 51
60.0327666737092969
  0
ARC
  5
10327
  8
0
 10
859.6149304817774919
 20
173.9645161489833072
 30
0.0
 40
1.2477669317168929
 50
223.480167527633796
 51
224.8293647536785898
  0
ARC
  5
10328
  8
0
 10
859.6149304817774919
 20
173.9645161489833072
 30
0.0
 40
1.2477669317168929
 50
230.6016216691407976
 51
231.9216515727447927
  0
LINE
  5
10329
  8
0
 10
858.9606037987396121
 20
172.9437519987160101
 30
0.0
 11
858.9796249360225602
 21
172.962265373416102
 31
0.0
  0
LINE
  5
1032A
  8
0
 10
858.8638169645737435
 20
173.0153687585917908
 30
0.0
 11
858.8847978048023606
 21
173.0468259147141907
 31
0.0
  0
ARC
  5
1032B
  8
0
 10
858.7299163789015211
 20
172.777689791315197
 30
0.0
 40
0.3105197401251124
 50
31.0256779973327816
 51
66.1811620886105629
  0
ARC
  5
1032C
  8
0
 10
858.9270719123231856
 20
173.1009889607217929
 30
0.0
 40
0.0817760821445881
 50
208.6652988022457009
 51
232.7114214963544896
  0
ARC
  5
1032D
  8
0
 10
859.0091281462074448
 20
173.001614503780786
 30
0.0
 40
0.0652086604655999
 50
230.9356572787883124
 51
258.396340698008828
  0
LINE
  5
1032E
  8
0
 10
858.9454851288634245
 20
172.9426272799763069
 30
0.0
 11
858.8667453658385966
 21
172.9992405851114938
 31
0.0
  0
ARC
  5
1032F
  8
0
 10
858.952373566552069
 20
172.9522079598168887
 30
0.0
 40
0.0118
 50
234.2841453194780001
 51
314.2249565274012184
  0
ARC
  5
10330
  8
0
 10
858.8736338035273548
 20
173.008821264952104
 30
0.0
 40
0.0118
 50
146.2980775097944957
 51
234.2841453194699
  0
LINE
  5
10331
  8
0
 10
858.9626325871430481
 20
172.8784338335944142
 30
0.0
 11
858.9812885994258522
 21
172.8990296835669085
 31
0.0
  0
LINE
  5
10332
  8
0
 10
858.8658457529770658
 20
172.9500505934701096
 30
0.0
 11
858.8850912735406382
 21
172.9824478757363124
 31
0.0
  0
ARC
  5
10333
  8
0
 10
858.7164574514622473
 20
172.6908042635785137
 30
0.0
 40
0.3368877594409664
 50
33.2062530663152202
 51
64.8119660960158654
  0
ARC
  5
10334
  8
0
 10
859.0178778861302362
 20
173.0998190735352011
 30
0.0
 40
0.1892808338992312
 50
213.3870377178959927
 51
222.6427506461203052
  0
ARC
  5
10335
  8
0
 10
859.0423884640000551
 20
173.0392200679843029
 30
0.0
 40
0.1697347824492712
 50
244.5492199390920121
 51
254.9563478712607036
  0
LINE
  5
10336
  8
0
 10
858.9475139172666331
 20
172.877309114854711
 30
0.0
 11
858.8687741542418053
 21
172.9339224199898979
 31
0.0
  0
ARC
  5
10337
  8
0
 10
858.9544023549552776
 20
172.8868897946952927
 30
0.0
 40
0.0118
 50
234.2841453194780001
 51
314.2249565274012184
  0
ARC
  5
10338
  8
0
 10
858.8756625919304497
 20
172.9435030998305081
 30
0.0
 40
0.0118
 50
146.2980775097944957
 51
234.2841453194699
  0
LINE
  5
10339
  8
0
 10
859.1389848280504111
 20
172.7505769325557026
 30
0.0
 11
859.1570153176498934
 21
172.7681261045642884
 31
0.0
  0
LINE
  5
1033A
  8
0
 10
859.0421979938846562
 20
172.8221936924315116
 30
0.0
 11
859.0645313088036801
 21
172.8556786513981081
 31
0.0
  0
ARC
  5
1033B
  8
0
 10
858.8811640832386729
 20
172.569360238142508
 30
0.0
 40
0.3400026076085509
 50
30.3585981037719606
 51
62.8650165016962603
  0
ARC
  5
1033C
  8
0
 10
859.3418761810572732
 20
173.0567507755625059
 30
0.0
 40
0.3571711839993366
 50
211.1599064778586978
 51
216.8087141170194059
  0
ARC
  5
1033D
  8
0
 10
859.3418761810572732
 20
173.0567507755625059
 30
0.0
 40
0.3571711839993366
 50
236.8216175358078885
 51
242.0637081276040021
  0
LINE
  5
1033E
  8
0
 10
859.1238661581742235
 20
172.7494522138159994
 30
0.0
 11
859.0451263951495093
 21
172.8060655189511863
 31
0.0
  0
ARC
  5
1033F
  8
0
 10
859.130754595862868
 20
172.7590328936566095
 30
0.0
 40
0.0118
 50
234.2841453194780001
 51
314.2249565274012184
  0
ARC
  5
10340
  8
0
 10
859.0520148328381538
 20
172.8156461987917965
 30
0.0
 40
0.0118
 50
146.2980775097944957
 51
234.2841453194699
  0
LINE
  5
10341
  8
0
 10
859.1915496217130794
 20
172.7769720334698036
 30
0.0
 11
859.2095801113125617
 21
172.7945212054783894
 31
0.0
  0
LINE
  5
10342
  8
0
 10
859.0947627875474382
 20
172.8485887933456127
 30
0.0
 11
859.1170961024663484
 21
172.8820737523122091
 31
0.0
  0
ARC
  5
10343
  8
0
 10
858.9337288769014549
 20
172.595755339056609
 30
0.0
 40
0.3400026076085509
 50
30.3585981037719606
 51
62.8650165016962603
  0
ARC
  5
10344
  8
0
 10
859.3944409747200552
 20
173.0831458764766069
 30
0.0
 40
0.3571711839993366
 50
211.1599064778586978
 51
216.8087141170194059
  0
ARC
  5
10345
  8
0
 10
859.3944409747200552
 20
173.0831458764766069
 30
0.0
 40
0.3571711839993366
 50
236.8216175358078885
 51
242.0637081276040021
  0
LINE
  5
10346
  8
0
 10
859.1764309518368918
 20
172.7758473147301004
 30
0.0
 11
859.097691188812064
 21
172.8324606198652873
 31
0.0
  0
ARC
  5
10347
  8
0
 10
859.18331938952565
 20
172.7854279945707106
 30
0.0
 40
0.0118
 50
234.2841453194780001
 51
314.2249565274012184
  0
ARC
  5
10348
  8
0
 10
859.1045796265008221
 20
172.8420412997058975
 30
0.0
 40
0.0118
 50
146.2980775097944957
 51
234.2841453194699
  0
LINE
  5
10349
  8
0
 10
859.3332813606459695
 20
172.6136424913925111
 30
0.0
 11
859.3513118502454518
 21
172.6311916634010117
 31
0.0
  0
LINE
  5
1034A
  8
0
 10
859.2364945264803282
 20
172.6852592512682065
 30
0.0
 11
859.2588278413993521
 21
172.7187442102348029
 31
0.0
  0
ARC
  5
1034B
  8
0
 10
859.0754606158343449
 20
172.4324257969790892
 30
0.0
 40
0.3400026076085509
 50
30.3585981037719606
 51
62.8650165016962603
  0
ARC
  5
1034C
  8
0
 10
859.5361727136529453
 20
172.9198163343992007
 30
0.0
 40
0.3571711839993366
 50
211.1599064778586978
 51
216.8087141170194059
  0
ARC
  5
1034D
  8
0
 10
859.5361727136529453
 20
172.9198163343992007
 30
0.0
 40
0.3571711839993366
 50
236.8216175358078885
 51
242.0637081276040021
  0
LINE
  5
1034E
  8
0
 10
859.3181626907697819
 20
172.6125177726526942
 30
0.0
 11
859.239422927744954
 21
172.6691310777879096
 31
0.0
  0
ARC
  5
1034F
  8
0
 10
859.32505112845854
 20
172.6220984524933897
 30
0.0
 40
0.0118
 50
234.2841453194780001
 51
314.2249565274012184
  0
ARC
  5
10350
  8
0
 10
859.2463113654337121
 20
172.678711757628605
 30
0.0
 40
0.0118
 50
146.2980775097944957
 51
234.2841453194699
  0
LINE
  5
10351
  8
0
 10
859.4388558895567485
 20
172.5991449205679089
 30
0.0
 11
859.4605924202602409
 21
172.6231210071854036
 31
0.0
  0
LINE
  5
10352
  8
0
 10
859.3420690553911072
 20
172.6707616804436896
 30
0.0
 11
859.3583280549082701
 21
172.6990794220727139
 31
0.0
  0
ARC
  5
10353
  8
0
 10
859.2200073907589513
 20
172.4060359775276083
 30
0.0
 40
0.3240479386164938
 50
36.6941152640900512
 51
70.1700637943679908
  0
ARC
  5
10354
  8
0
 10
859.420341692852503
 20
172.7595268700771953
 30
0.0
 40
0.1026700218186422
 50
208.2893306517966039
 51
226.8016442607377883
  0
ARC
  5
10355
  8
0
 10
859.4737523311599716
 20
172.6564866131909071
 30
0.0
 40
0.0571434290229323
 50
240.6054051039762953
 51
276.1165375268590765
  0
LINE
  5
10356
  8
0
 10
859.4237372196805609
 20
172.598020201828092
 30
0.0
 11
859.3449974566558467
 21
172.6546335069633926
 31
0.0
  0
ARC
  5
10357
  8
0
 10
859.430625657369319
 20
172.6076008816687875
 30
0.0
 40
0.0118
 50
234.2841453194780001
 51
314.2249565274012184
  0
ARC
  5
10358
  8
0
 10
859.3518858943444911
 20
172.6642141868040028
 30
0.0
 40
0.0118
 50
146.2980775097944957
 51
234.2841453194699
  0
ARC
  5
10359
  8
0
 10
864.381978244324614
 20
179.2100552963019879
 30
0.0
 40
8.3736122993091318
 50
227.1452074409833131
 51
228.347434902883208
  0
ARC
  5
1035A
  8
0
 10
864.381978244324614
 20
179.2100552963019879
 30
0.0
 40
8.3736122993091318
 50
229.3216418250860897
 51
231.6563521933578045
  0
LINE
  5
1035B
  8
0
 10
858.7828061399369517
 20
172.9341495963689113
 30
0.0
 11
858.8951617448238949
 21
172.853366750539692
 31
0.0
  0
LINE
  5
1035C
  8
0
 10
858.9261251333465452
 20
172.8626853095080946
 30
0.0
 11
858.9226567970418955
 21
172.8578614261116115
 31
0.0
  0
LINE
  5
1035D
  8
0
 10
858.7783114644505531
 20
172.9616446484897949
 30
0.0
 11
858.7897398024776976
 21
172.977539580423695
 31
0.0
  0
LINE
  5
1035E
  8
0
 10
858.8189388162629712
 20
172.9563964217950911
 30
0.0
 11
858.807581234966392
 21
172.9405999007263119
 31
0.0
  0
ARC
  5
1035F
  8
0
 10
858.1509575949465898
 20
172.084207579222209
 30
0.0
 40
1.098595598543902
 50
45.1220740289231372
 51
52.5526644058637373
  0
ARC
  5
10360
  8
0
 10
858.823576098814101
 20
172.9290997124452929
 30
0.0
 40
0.0197
 50
144.2841455476774115
 51
234.2841453453189047
  0
ARC
  5
10361
  8
0
 10
858.9066619331614447
 20
172.8693616143467011
 30
0.0
 40
0.0197
 50
234.2841453453256975
 51
324.2841457121464828
  0
ARC
  5
10362
  8
0
 10
858.7943063282742742
 20
172.9501444601758067
 30
0.0
 40
0.0197
 50
144.2841454295644894
 51
234.2841453453285112
  0
LINE
  5
10363
  8
0
 10
859.0690959913905544
 20
172.7034390524393928
 30
0.0
 11
859.3579691909726535
 21
172.4957413665212869
 31
0.0
  0
LINE
  5
10364
  8
0
 10
859.1872786439091669
 20
172.6427300163614973
 30
0.0
 11
859.1911034853144429
 21
172.6480497395139935
 31
0.0
  0
LINE
  5
10365
  8
0
 10
859.2252106360416519
 20
172.6592583688683931
 30
0.0
 11
859.2162379086721558
 21
172.6467787861161014
 31
0.0
  0
LINE
  5
10366
  8
0
 10
859.3378223370442583
 20
172.5730930701581087
 30
0.0
 11
859.3313134705916809
 21
172.5640403112844012
 31
0.0
  0
ARC
  5
10367
  8
0
 10
859.0347115253174479
 20
172.2936198076151015
 30
0.0
 40
0.412288089401292
 50
42.6765767834136724
 51
62.4803112058600192
  0
LINE
  5
10368
  8
0
 10
859.3038184184666761
 20
172.5595456358479964
 30
0.0
 11
859.2207325841300189
 21
172.6192837339615949
 31
0.0
  0
ARC
  5
10369
  8
0
 10
859.3153186068069544
 20
172.5755404996529023
 30
0.0
 40
0.0197
 50
234.284145335115312
 51
324.2841452341676813
  0
ARC
  5
1036A
  8
0
 10
859.2322327724702973
 20
172.6352785977665008
 30
0.0
 40
0.0197
 50
144.2841453017194908
 51
234.2841453350980885
  0
ARC
  5
1036B
  8
0
 10
859.2032735077872303
 20
172.6312298281227129
 30
0.0
 40
0.0197
 50
144.2841456988961113
 51
234.2841453582101963
  0
ARC
  5
1036C
  8
0
 10
859.3694693793064516
 20
172.5117362303307971
 30
0.0
 40
0.0197
 50
234.2841453582101963
 51
324.9787565733992096
  0
ARC
  5
1036D
  8
0
 10
859.1409002577248657
 20
172.5406919400018921
 30
0.0
 40
0.1185160798223079
 50
52.8130355094890973
 51
64.9380179988312136
  0
ARC
  5
1036E
  8
0
 10
858.9310228097522213
 20
172.0252231232325073
 30
0.0
 40
0.6576207180496147
 50
46.2709391957533711
 51
53.8433356588538814
  0
LINE
  5
1036F
  8
0
 10
859.0646013158678898
 20
172.7309341045175017
 30
0.0
 11
859.0693537195554654
 21
172.7375439136961859
 31
0.0
  0
ARC
  5
10370
  8
0
 10
859.0805961797243526
 20
172.719433916248903
 30
0.0
 40
0.0197
 50
144.2841455924472882
 51
234.2841453581795861
  0
ARC
  5
10371
  8
0
 10
858.67840422727636
 20
172.1295062678485124
 30
0.0
 40
0.7233324526177347
 50
48.3906673496482895
 51
54.332409129720233
  0
ARC
  5
10372
  8
0
 10
859.5482880895971221
 20
173.2176919625169944
 30
0.0
 40
0.671828989774822
 50
228.162687263388392
 51
234.5603892159832924
  0
LINE
  5
10373
  8
0
 10
860.5772716355659213
 20
171.7686079096166907
 30
0.0
 11
860.7606161927101311
 21
171.636784509410802
 31
0.0
  0
LINE
  5
10374
  8
0
 10
860.7770853104915432
 20
171.6394767501269882
 30
0.0
 11
860.7977273938663529
 21
171.6681864757537994
 31
0.0
  0
LINE
  5
10375
  8
0
 10
860.7506189047905991
 20
171.6584721500433091
 30
0.0
 11
860.7726423125573092
 21
171.6889534630126093
 31
0.0
  0
LINE
  5
10376
  8
0
 10
860.6723676426131533
 20
171.7146235779516132
 30
0.0
 11
860.6955609687402102
 21
171.7462145748434921
 31
0.0
  0
LINE
  5
10377
  8
0
 10
860.6682012333733383
 20
171.7177636267157084
 30
0.0
 11
860.690743540948688
 21
171.7491163355848016
 31
0.0
  0
LINE
  5
10378
  8
0
 10
860.5733987864264236
 20
171.7830295275574883
 30
0.0
 11
860.5812985781370799
 21
171.8005905702154905
 31
0.0
  0
ARC
  5
10379
  8
0
 10
860.5841600741009643
 20
171.7781885888487068
 30
0.0
 40
0.0118
 50
155.7795197405795022
 51
234.284140257313112
  0
ARC
  5
1037A
  8
0
 10
860.6586205452231297
 20
171.724652052847091
 30
0.0
 40
0.0118
 50
234.2841402573465928
 51
324.2842144357875895
  0
ARC
  5
1037B
  8
0
 10
860.6628558837076071
 20
171.7216068753477884
 30
0.0
 40
0.0118
 50
234.2841402572890956
 51
323.7148082920625143
  0
ARC
  5
1037C
  8
0
 10
860.7410542493124694
 20
171.6653828204582055
 30
0.0
 40
0.0118
 50
234.2841402573475875
 51
324.1510747012281968
  0
ARC
  5
1037D
  8
0
 10
860.7675046312454015
 20
171.6463651886427897
 30
0.0
 40
0.0118
 50
234.2841402573158973
 51
324.2841403735171752
  0
ARC
  5
1037E
  8
0
 10
860.3741612830957592
 20
171.2180849317024922
 30
0.0
 40
0.6182383665678194
 50
55.5739588779193099
 51
73.2305892892895116
  0
ARC
  5
1037F
  8
0
 10
860.838344284577488
 20
172.1870082814039904
 30
0.0
 40
0.4730725908090264
 50
251.6615132220541113
 51
255.9725010304098021
  0
ARC
  5
10380
  8
0
 10
860.838344284577488
 20
172.1870082814039904
 30
0.0
 40
0.4730725908090264
 50
232.832047136803709
 51
236.5481119334968128
  0
ARC
  5
10381
  8
0
 10
860.2366538473983155
 20
170.6878293449892965
 30
0.0
 40
1.1355761244722491
 50
60.0889922092467899
 51
66.7661843041353933
  0
ARC
  5
10382
  8
0
 10
860.9090699870962453
 20
172.0033895715563972
 30
0.0
 40
0.3478365197612303
 50
246.3611311151342989
 51
252.2304019791380085
  0
LINE
  5
10383
  8
0
 10
860.2862416185174652
 20
171.9162411358688018
 30
0.0
 11
860.4899385256874211
 21
171.7697845442515074
 31
0.0
  0
LINE
  5
10384
  8
0
 10
860.3809015424222935
 20
171.86163250546889
 30
0.0
 11
860.4043753719683991
 21
171.8896209916123041
 31
0.0
  0
LINE
  5
10385
  8
0
 10
860.2827094262416949
 20
171.9313581002651858
 30
0.0
 11
860.2930547559584511
 21
171.9508305187528094
 31
0.0
  0
LINE
  5
10386
  8
0
 10
860.4637968473119827
 20
171.8020748131563948
 30
0.0
 11
860.4867016980058452
 21
171.829551673499509
 31
0.0
  0
LINE
  5
10387
  8
0
 10
860.5059066659250675
 20
171.7718287112215023
 30
0.0
 11
860.527296099723344
 21
171.7975978829169037
 31
0.0
  0
ARC
  5
10388
  8
0
 10
860.2931300570553503
 20
171.9258218150988
 30
0.0
 40
0.0118
 50
152.019131800688001
 51
234.2841402407302951
  0
ARC
  5
10389
  8
0
 10
860.3718604210375815
 20
171.8692152572191958
 30
0.0
 40
0.0118
 50
234.284140240764799
 51
320.0135760017294047
  0
ARC
  5
1038A
  8
0
 10
860.4547330477225842
 20
171.8096304426470056
 30
0.0
 40
0.0118
 50
234.284140240764799
 51
320.1852409153117947
  0
ARC
  5
1038B
  8
0
 10
860.4968269642254199
 20
171.7793652234815909
 30
0.0
 40
0.0118
 50
234.2841402407235876
 51
320.305982353922218
  0
LINE
  5
1038C
  8
0
 10
860.4507287155023505
 20
171.8595913468419099
 30
0.0
 11
860.5294465352810676
 21
171.8029938080946124
 31
0.0
  0
LINE
  5
1038D
  8
0
 10
860.5457738919064923
 20
171.8054930449945061
 30
0.0
 11
860.5698649213013596
 21
171.8376041944605959
 31
0.0
  0
LINE
  5
1038E
  8
0
 10
860.4469082332637981
 20
171.8741277314371985
 30
0.0
 11
860.4561735695082234
 21
171.8941494527605016
 31
0.0
  0
LINE
  5
1038F
  8
0
 10
860.5365541368289541
 20
171.8124169379462103
 30
0.0
 11
860.5596635028185801
 21
171.8445583726808934
 31
0.0
  0
ARC
  5
10390
  8
0
 10
860.4576171540450105
 20
171.8691720260686111
 30
0.0
 40
0.0118
 50
155.166988882052209
 51
234.2841402127083938
  0
ARC
  5
10391
  8
0
 10
860.5269734446967504
 20
171.8193053585393102
 30
0.0
 40
0.0118
 50
234.2841402126350943
 51
324.2842475570803913
  0
ARC
  5
10392
  8
0
 10
860.5363349738237275
 20
171.8125744873213137
 30
0.0
 40
0.0118
 50
234.2841402126217076
 51
323.1213476963129096
  0
ARC
  5
10393
  8
0
 10
860.3277941934746877
 20
171.4934585665706948
 30
0.0
 40
0.4207546202554882
 50
50.3476035371318673
 51
76.3092411589005764
  0
ARC
  5
10394
  8
0
 10
860.7213614426030972
 20
172.2769479395466874
 30
0.0
 40
0.47625404357117
 50
250.5285637408854882
 51
254.7746736475648959
  0
ARC
  5
10395
  8
0
 10
860.7213614426030972
 20
172.2769479395466874
 30
0.0
 40
0.47625404357117
 50
231.8821710484708944
 51
235.5087400047297876
  0
ARC
  5
10396
  8
0
 10
859.9998197223853822
 20
171.0349162289269884
 30
0.0
 40
0.9319332314897291
 50
56.7546597884463324
 51
64.8905893860098217
  0
ARC
  5
10397
  8
0
 10
860.0479960991250437
 20
171.3733138286316091
 30
0.0
 40
0.6273589663482485
 50
52.771463874636197
 51
69.1588604153628097
  0
ARC
  5
10398
  8
0
 10
860.779576800195855
 20
172.7487236718502004
 30
0.0
 40
0.9438152848574596
 50
246.2939046944678125
 51
248.1128195802037055
  0
ARC
  5
10399
  8
0
 10
860.779576800195855
 20
172.7487236718502004
 30
0.0
 40
0.9438152848574596
 50
237.1674545262899869
 51
238.6603280799751872
  0
ARC
  5
1039A
  8
0
 10
860.5627410548914895
 20
171.9792859203082003
 30
0.0
 40
0.1729705028393948
 50
242.6957793917445088
 51
252.5004153300820917
  0
ARC
  5
1039B
  8
0
 10
861.1519978512774287
 20
172.9569820670187141
 30
0.0
 40
1.3169753090852401
 50
239.3991812734770974
 51
243.9241109558635117
  0
LINE
  5
1039C
  8
0
 10
860.2611062369327328
 20
171.9477009618532009
 30
0.0
 11
860.2847857150997015
 21
171.9756833574394079
 31
0.0
  0
LINE
  5
1039D
  8
0
 10
860.1629690104246038
 20
172.017511745180002
 30
0.0
 11
860.1737816583902259
 21
172.0376566599844921
 31
0.0
  0
LINE
  5
1039E
  8
0
 10
860.1664776113170774
 20
172.0023505188258923
 30
0.0
 11
860.2452102007058556
 21
171.9457427653975117
 31
0.0
  0
LINE
  5
1039F
  8
0
 10
860.2776348498433663
 20
171.9960395053988975
 30
0.0
 11
860.2885289638039694
 21
172.0187196789958932
 31
0.0
  0
LINE
  5
103A0
  8
0
 10
860.3763438678114426
 20
171.9270961856736903
 30
0.0
 11
860.400974059720852
 21
171.9589297069803138
 31
0.0
  0
ARC
  5
103A1
  8
0
 10
860.1879504827575147
 20
171.6939339922253964
 30
0.0
 40
0.3400026076085509
 50
45.7032690875461896
 51
78.2096874854700417
  0
ARC
  5
103A2
  8
0
 10
860.5032631197924502
 20
172.2858656723786908
 30
0.0
 40
0.3571711839993365
 50
251.7595714722233993
 51
257.4083791113839084
  0
ARC
  5
103A3
  8
0
 10
860.5032631197924502
 20
172.2858656723786908
 30
0.0
 40
0.3571711839993365
 50
226.5045774616341134
 51
231.7466680534315913
  0
LINE
  5
103A4
  8
0
 10
860.2813829869083975
 20
171.9813496912539961
 30
0.0
 11
860.3601227449438511
 21
171.9247363791791088
 31
0.0
  0
ARC
  5
103A5
  8
0
 10
860.2882714254418488
 20
171.9909303704876038
 30
0.0
 40
0.0118
 50
154.3433290618436047
 51
234.2841402697656008
  0
ARC
  5
103A6
  8
0
 10
860.3670111834769614
 20
171.9343170584126028
 30
0.0
 40
0.0118
 50
234.2841402697737863
 51
322.2702080794513222
  0
ARC
  5
103A7
  8
0
 10
860.1733660174064653
 20
172.0119312213859928
 30
0.0
 40
0.0118
 50
151.7756187891149011
 51
234.2843342930827077
  0
ARC
  5
103A8
  8
0
 10
860.2520986067953572
 20
171.9553234679576121
 30
0.0
 40
0.0118
 50
234.2843342930185884
 51
319.7611759372072129
  0
ARC
  5
103A9
  8
0
 10
860.0219784924615851
 20
171.6353533836914096
 30
0.0
 40
0.4299908456027094
 50
48.5355189155329825
 51
73.1992331625691435
  0
ARC
  5
103AA
  8
0
 10
860.8322886112756578
 20
173.0892446088589907
 30
0.0
 40
1.247766931716892
 50
243.7389208355635049
 51
245.0881180616036943
  0
ARC
  5
103AB
  8
0
 10
860.8322886112756578
 20
173.0892446088589907
 30
0.0
 40
1.247766931716892
 50
236.6466340164944029
 51
237.9666639200989096
  0
LINE
  5
103AC
  8
0
 10
860.0730208160888424
 20
172.1439323462718107
 30
0.0
 11
860.0845134844425957
 21
172.1678586347518944
 31
0.0
  0
LINE
  5
103AD
  8
0
 10
860.1717298340566913
 20
172.0749890265466036
 30
0.0
 11
860.194868455579126
 21
172.1048947537917968
 31
0.0
  0
ARC
  5
103AE
  8
0
 10
859.9890618755325704
 20
171.8723734416138029
 30
0.0
 40
0.3105197401251123
 50
42.3871235006345799
 51
77.5426075919102544
  0
ARC
  5
103AF
  8
0
 10
860.2327504935624347
 20
172.1622156654881906
 30
0.0
 40
0.0817760821445881
 50
235.8568640928891114
 51
259.9029867870003159
  0
ARC
  5
103B0
  8
0
 10
860.1124194441301825
 20
172.2083561764744957
 30
0.0
 40
0.0652086604655999
 50
210.1719448912340908
 51
237.6326283104550896
  0
LINE
  5
103B1
  8
0
 10
860.0767689531537599
 20
172.1292425321269093
 30
0.0
 11
860.1555087111889861
 21
172.0726292200519936
 31
0.0
  0
ARC
  5
103B2
  8
0
 10
860.0836573916869838
 20
172.1388232113604886
 30
0.0
 40
0.0118
 50
154.3433290618436047
 51
234.2841402697656008
  0
ARC
  5
103B3
  8
0
 10
860.1623971497222101
 20
172.0822098992854876
 30
0.0
 40
0.0118
 50
234.2841402697737863
 51
322.2702080794513222
  0
LINE
  5
103B4
  8
0
 10
860.0104567635801232
 20
172.1250559586156044
 30
0.0
 11
860.0240397720237979
 21
172.1492992610313024
 31
0.0
  0
LINE
  5
103B5
  8
0
 10
860.1091657815481994
 20
172.0561126388903972
 30
0.0
 11
860.1337481766860265
 21
172.0846727475961018
 31
0.0
  0
ARC
  5
103B6
  8
0
 10
859.9109849788370639
 20
171.8319477584371953
 30
0.0
 40
0.3368877594409663
 50
43.7563194932288368
 51
75.3620325229279899
  0
ARC
  5
103B7
  8
0
 10
860.2027257365049309
 20
172.2479221849526141
 30
0.0
 40
0.1892808338992312
 50
245.9255349431242905
 51
255.1812478713451071
  0
ARC
  5
103B8
  8
0
 10
860.1374762060653438
 20
172.2518600369934916
 30
0.0
 40
0.1697347824492712
 50
213.6119377179838068
 51
224.0190656501459046
  0
LINE
  5
103B9
  8
0
 10
860.0142049006451543
 20
172.1103661444707029
 30
0.0
 11
860.0929446586804943
 21
172.0537528323957872
 31
0.0
  0
ARC
  5
103BA
  8
0
 10
860.0210933391782646
 20
172.1199468237043106
 30
0.0
 40
0.0118
 50
154.3433290618436047
 51
234.2841402697656008
  0
ARC
  5
103BB
  8
0
 10
860.0998330972134909
 20
172.0633335116293949
 30
0.0
 40
0.0118
 50
234.2841402697737863
 51
322.2702080794513222
  0
LINE
  5
103BC
  8
0
 10
859.8330988128608396
 20
172.2515140834356941
 30
0.0
 11
859.8439929268215565
 21
172.2741942570328035
 31
0.0
  0
LINE
  5
103BD
  8
0
 10
859.9318078308289159
 20
172.1825707637106007
 30
0.0
 11
859.9564380227382117
 21
172.2144042850171957
 31
0.0
  0
ARC
  5
103BE
  8
0
 10
859.7434144457752154
 20
171.9494085702623067
 30
0.0
 40
0.3400026076085509
 50
45.7032690875461896
 51
78.2096874854700417
  0
ARC
  5
103BF
  8
0
 10
860.0587270828100372
 20
172.5413402504156011
 30
0.0
 40
0.3571711839993365
 50
251.7595714722233993
 51
257.4083791113839084
  0
ARC
  5
103C0
  8
0
 10
860.0587270828100372
 20
172.5413402504156011
 30
0.0
 40
0.3571711839993365
 50
226.5045774616341134
 51
231.7466680534315913
  0
LINE
  5
103C1
  8
0
 10
859.8368469499260982
 20
172.2368242692909064
 30
0.0
 11
859.9155867079614382
 21
172.1802109572159907
 31
0.0
  0
ARC
  5
103C2
  8
0
 10
859.8437353884590948
 20
172.2464049485244004
 30
0.0
 40
0.0118
 50
154.3433290618436047
 51
234.2841402697656008
  0
ARC
  5
103C3
  8
0
 10
859.9224751464944347
 20
172.1897916364495131
 30
0.0
 40
0.0118
 50
234.2841402697737863
 51
322.2702080794513222
  0
LINE
  5
103C4
  8
0
 10
859.8413814602087086
 20
172.3097477218072129
 30
0.0
 11
859.8522755741694255
 21
172.3324278954042938
 31
0.0
  0
LINE
  5
103C5
  8
0
 10
859.9400904781765576
 20
172.240804402082091
 30
0.0
 11
859.9647206700860806
 21
172.272637923388686
 31
0.0
  0
ARC
  5
103C6
  8
0
 10
859.751697093122857
 20
172.0076422086337971
 30
0.0
 40
0.3400026076085509
 50
45.7032690875461896
 51
78.2096874854700417
  0
ARC
  5
103C7
  8
0
 10
860.0670097301579062
 20
172.5995738887870914
 30
0.0
 40
0.3571711839993365
 50
251.7595714722233993
 51
257.4083791113839084
  0
ARC
  5
103C8
  8
0
 10
860.0670097301579062
 20
172.5995738887870914
 30
0.0
 40
0.3571711839993365
 50
226.5045774616341134
 51
231.7466680534315913
  0
LINE
  5
103C9
  8
0
 10
859.8451295972738535
 20
172.2950579076623967
 30
0.0
 11
859.9238693553089661
 21
172.2384445955875094
 31
0.0
  0
ARC
  5
103CA
  8
0
 10
859.8520180358069638
 20
172.3046385868958907
 30
0.0
 40
0.0118
 50
154.3433290618436047
 51
234.2841402697656008
  0
ARC
  5
103CB
  8
0
 10
859.9307577938423037
 20
172.2480252748210034
 30
0.0
 40
0.0118
 50
234.2841402697737863
 51
322.2702080794513222
  0
LINE
  5
103CC
  8
0
 10
859.6414217707852004
 20
172.3920918032083023
 30
0.0
 11
859.6523158847459172
 21
172.414771976805298
 31
0.0
  0
LINE
  5
103CD
  8
0
 10
859.7401307887532766
 20
172.3231484834830951
 30
0.0
 11
859.7647609806624587
 21
172.3549820047896901
 31
0.0
  0
ARC
  5
103CE
  8
0
 10
859.5517374036993488
 20
172.0899862900348012
 30
0.0
 40
0.3400026076085509
 50
45.7032690875461896
 51
78.2096874854700417
  0
ARC
  5
103CF
  8
0
 10
859.8670500407341706
 20
172.6819179701882092
 30
0.0
 40
0.3571711839993365
 50
251.7595714722233993
 51
257.4083791113839084
  0
ARC
  5
103D0
  8
0
 10
859.8670500407341706
 20
172.6819179701882092
 30
0.0
 40
0.3571711839993365
 50
226.5045774616341134
 51
231.7466680534315913
  0
LINE
  5
103D1
  8
0
 10
859.6451699078503452
 20
172.3774019890634008
 30
0.0
 11
859.7239096658854578
 21
172.3207886769885135
 31
0.0
  0
ARC
  5
103D2
  8
0
 10
859.6520583463834555
 20
172.3869826682970086
 30
0.0
 40
0.0118
 50
154.3433290618436047
 51
234.2841402697656008
  0
ARC
  5
103D3
  8
0
 10
859.7307981044186818
 20
172.3303693562220076
 30
0.0
 40
0.0118
 50
234.2841402697737863
 51
322.2702080794513222
  0
ARC
  5
103D4
  8
0
 10
864.2867770603589861
 20
179.2785042472656869
 30
0.0
 40
8.3736122993091282
 50
240.2208506863563002
 51
241.4230781482590089
  0
ARC
  5
103D5
  8
0
 10
864.2867770603589861
 20
179.2785042472656869
 30
0.0
 40
8.3736122993091282
 50
236.9119333958871039
 51
239.2466437641577102
  0
LINE
  5
103D6
  8
0
 10
860.1205352039706895
 20
171.9723322397719869
 30
0.0
 11
860.0081796062764852
 21
172.0531150956049089
 31
0.0
  0
LINE
  5
103D7
  8
0
 10
860.0071532701246042
 20
172.0854340312951933
 30
0.0
 11
860.0036849333287137
 21
172.0806101482519068
 31
0.0
  0
LINE
  5
103D8
  8
0
 10
860.1480302564984868
 20
171.976826912769809
 30
0.0
 11
860.159458595987644
 21
171.9927218436525038
 31
0.0
  0
LINE
  5
103D9
  8
0
 10
860.1301180706235527
 20
172.013668183050811
 30
0.0
 11
860.1187604878090269
 21
171.997871663073397
 31
0.0
  0
ARC
  5
103DA
  8
0
 10
859.5160395461982716
 20
171.1027236979257111
 30
0.0
 40
1.098595598543902
 50
56.0156211833832884
 51
63.4462115603239312
  0
ARC
  5
103DB
  8
0
 10
860.102765625066354
 20
172.0093718528916042
 30
0.0
 40
0.0197
 50
234.2841402439242131
 51
324.2841400415612725
  0
ARC
  5
103DC
  8
0
 10
860.0196797960379627
 20
172.0691099583879122
 30
0.0
 40
0.0197
 50
144.2841398770999888
 51
234.2841402439179035
  0
ARC
  5
103DD
  8
0
 10
860.1320353937322807
 20
171.9883271025549902
 30
0.0
 40
0.0197
 50
234.2841402439098033
 51
324.2841401596768947
  0
LINE
  5
103DE
  8
0
 10
859.8106697310937534
 20
172.1702529886694037
 30
0.0
 11
859.5217965500976334
 21
172.3779507004377081
 31
0.0
  0
LINE
  5
103DF
  8
0
 10
859.7154874634011321
 20
172.26295176069371
 30
0.0
 11
859.7193123053457384
 21
172.2682714834583919
 31
0.0
  0
LINE
  5
103E0
  8
0
 10
859.7190765687970497
 20
172.3041723961351011
 30
0.0
 11
859.7101038403351367
 21
172.2916928141681012
 31
0.0
  0
LINE
  5
103E1
  8
0
 10
859.6015371529225604
 20
172.3834840574490954
 30
0.0
 11
859.5950282856990725
 21
172.3744312991296965
 31
0.0
  0
ARC
  5
103E2
  8
0
 10
859.4331329081395552
 20
172.0071577641859051
 30
0.0
 40
0.4122880894012919
 50
46.08797438338744
 51
65.891708805824166
  0
LINE
  5
103E3
  8
0
 10
859.5995229587456379
 20
172.3469362466140069
 30
0.0
 11
859.6826087877849432
 21
172.2871981411325066
 31
0.0
  0
ARC
  5
103E4
  8
0
 10
859.6110231485042732
 20
172.3629311093991134
 30
0.0
 40
0.0197
 50
144.284140355075607
 51
234.2841402541278057
  0
ARC
  5
103E5
  8
0
 10
859.6941089775435785
 20
172.3031930039176132
 30
0.0
 40
0.0197
 50
234.2841402541440914
 51
324.2841402875238259
  0
ARC
  5
103E6
  8
0
 10
859.6994926006891546
 20
172.2744519505540097
 30
0.0
 40
0.0197
 50
234.2841402310386059
 51
324.2841398903478876
  0
ARC
  5
103E7
  8
0
 10
859.5332967398628625
 20
172.3939455632180966
 30
0.0
 40
0.0197
 50
143.5895290158420892
 51
234.2841402310386059
  0
ARC
  5
103E8
  8
0
 10
859.633529483149232
 20
172.1864951507423029
 30
0.0
 40
0.1185160798223079
 50
43.6302675904095523
 51
55.7552500797524004
  0
ARC
  5
103E9
  8
0
 10
859.2117257426333481
 20
171.8233997793645074
 30
0.0
 40
0.6576207180496146
 50
54.7249499303902383
 51
62.2973463934853484
  0
LINE
  5
103EA
  8
0
 10
859.8381647835921058
 20
172.1747476616191932
 30
0.0
 11
859.842917187925309
 21
172.1813574703338077
 31
0.0
  0
ARC
  5
103EB
  8
0
 10
859.8221699208587552
 20
172.186247851449906
 30
0.0
 40
0.0197
 50
234.2841402310577053
 51
324.2841399967966822
  0
ARC
  5
103EC
  8
0
 10
859.3910229190199743
 20
171.6171386705655948
 30
0.0
 40
0.7233324526177346
 50
54.2358764595174634
 51
60.1776182395939969
  0
ARC
  5
103ED
  8
0
 10
860.1455617425485798
 20
172.7882565996384017
 30
0.0
 40
0.6718289897748219
 50
234.0078963732615875
 51
240.405598325851912
  0
LINE
  5
103EE
  8
0
 10
859.5209252705054723
 20
172.4664983325378103
 30
0.0
 11
859.4421844543932139
 21
172.5231105427465934
 31
0.0
  0
LINE
  5
103EF
  8
0
 10
859.5366202162365425
 20
172.4682252793924988
 30
0.0
 11
859.5583936433486087
 21
172.4926402280744924
 31
0.0
  0
LINE
  5
103F0
  8
0
 10
859.4388233916838544
 20
172.5385386182429102
 30
0.0
 11
859.4549536241822807
 21
172.5668123075556082
 31
0.0
  0
ARC
  5
103F1
  8
0
 10
859.342156721133847
 20
172.3002917863381924
 30
0.0
 40
0.289406858189857
 50
35.9581828846723397
 51
72.7644674339506139
  0
ARC
  5
103F2
  8
0
 10
859.6235179523099532
 20
172.6927330684954995
 30
0.0
 40
0.2274340493725645
 50
210.6752331481459066
 51
218.6161777951658109
  0
ARC
  5
103F3
  8
0
 10
859.6235179523099532
 20
172.6927330684954995
 30
0.0
 40
0.2274340493725645
 50
250.103585489744205
 51
258.0474171704781838
  0
ARC
  5
103F4
  8
0
 10
859.5278135596370248
 20
172.4760791191883129
 30
0.0
 40
0.0118
 50
234.2850337386894068
 51
318.2731905458068127
  0
ARC
  5
103F5
  8
0
 10
859.4490727435244253
 20
172.5326913293970961
 30
0.0
 40
0.0118
 50
150.295099995919486
 51
234.2850337386985018
  0
LINE
  5
103F6
  8
0
 10
859.5940602854329882
 20
172.4875541016290867
 30
0.0
 11
859.6098666278717246
 21
172.5157939499858912
 31
0.0
  0
LINE
  5
103F7
  8
0
 10
859.6927693034010645
 20
172.4186107819039933
 30
0.0
 11
859.7144355309288812
 21
172.4430407663693074
 31
0.0
  0
ARC
  5
103F8
  8
0
 10
859.4806926093649508
 20
172.2186052229714903
 30
0.0
 40
0.3240479386164938
 50
38.3982217948912705
 51
71.874170325168393
  0
ARC
  5
103F9
  8
0
 10
859.75198908472521
 20
172.5210748349460061
 30
0.0
 40
0.1026700218186422
 50
241.766641328519114
 51
260.2789549374587068
  0
ARC
  5
103FA
  8
0
 10
859.6373048094661726
 20
172.5388935843940033
 30
0.0
 40
0.0571434290229323
 50
192.451748062401208
 51
227.9628804852783901
  0
LINE
  5
103FB
  8
0
 10
859.5978084224982467
 20
172.472864287484299
 30
0.0
 11
859.6765481805333593
 21
172.4162509754094117
 31
0.0
  0
ARC
  5
103FC
  8
0
 10
859.6046968610312433
 20
172.482444966717793
 30
0.0
 40
0.0118
 50
154.3433290618580997
 51
234.2841402697814033
  0
ARC
  5
103FD
  8
0
 10
859.6834366190663559
 20
172.4258316546429057
 30
0.0
 40
0.0118
 50
234.2841402697827959
 51
322.270208079462293
  0
LINE
  5
103FE
  8
0
 10
859.493213614221645
 20
172.4233718960097121
 30
0.0
 11
859.4101277798179126
 21
172.4831099941714001
 31
0.0
  0
LINE
  5
103FF
  8
0
 10
859.4056331044002945
 20
172.5106050463818974
 30
0.0
 11
859.4132010018895471
 21
172.5211307425709037
 31
0.0
  0
LINE
  5
10400
  8
0
 10
859.5207086663951941
 20
172.4278665715137038
 30
0.0
 11
859.5280642303505374
 21
172.4380969469480078
 31
0.0
  0
ARC
  5
10401
  8
0
 10
859.25894822993655
 20
172.1867842585718051
 30
0.0
 40
0.3682139174688033
 50
43.0407363477888012
 51
65.2334762452970836
  0
ARC
  5
10402
  8
0
 10
859.504713802562037
 20
172.4393667598145896
 30
0.0
 40
0.0197
 50
234.2841453350980885
 51
324.2841454765513731
  0
ARC
  5
10403
  8
0
 10
859.4216279681583046
 20
172.499104857976306
 30
0.0
 40
0.0197
 50
144.2841451012035918
 51
234.2841453350741006
  0
ARC
  5
10404
  8
0
 10
864.0447386589086136
 20
178.841440366055906
 30
0.0
 40
7.8740157479698576
 50
233.6884711101662901
 51
234.8798194758105922
  0
LINE
  5
10405
  8
0
 10
860.9485716246100537
 20
171.6017333053210905
 30
0.0
 11
858.1680942075944358
 21
173.6008759276516003
 31
0.0
  0
LINE
  5
10406
  8
0
 10
864.9915114613650076
 20
168.1519427415219923
 30
0.0
 11
865.0631765790154759
 21
167.9550444491576968
 31
0.0
  0
LINE
  5
10407
  8
0
 10
864.04697542955887
 20
167.8081597407461061
 30
0.0
 11
864.2351441027849432
 21
167.2911705599607046
 31
0.0
  0
LINE
  5
10408
  8
0
 10
864.2735955066725637
 20
167.2732403932664056
 30
0.0
 11
865.1783213513909914
 21
167.6025344328415088
 31
0.0
  0
LINE
  5
10409
  8
0
 10
865.1975625498502041
 20
167.0017829575805024
 30
0.0
 11
864.4923291864570274
 21
166.7450988363040096
 31
0.0
  0
LINE
  5
1040A
  8
0
 10
865.6165883269926553
 20
165.6166987081126933
 30
0.0
 11
865.1224141313781502
 21
166.9744311521185125
 31
0.0
  0
LINE
  5
1040B
  8
0
 10
865.0608519534861216
 20
165.4169157037055982
 30
0.0
 11
864.5674775870002122
 21
166.7724506352404035
 31
0.0
  0
ARC
  5
1040C
  8
0
 10
864.0751662081827362
 20
167.818420345045098
 30
0.0
 40
0.03
 50
110.0000000000039933
 51
199.9999999983027124
  0
ARC
  5
1040D
  8
0
 10
864.9633206827437562
 20
168.141682137215696
 30
0.0
 40
0.03
 50
20.0000000133421985
 51
110.0000000000033964
  0
ARC
  5
1040E
  8
0
 10
864.2633348814088095
 20
167.3014311642596965
 30
0.0
 40
0.03
 50
199.9999999982944132
 51
290.0000426078839268
  0
LINE
  5
1040F
  8
0
 10
864.240735435616898
 20
167.2817013631990051
 30
0.0
 11
864.2556431738768197
 21
167.2455072792824922
 31
0.0
  0
LINE
  5
10410
  8
0
 10
864.2556431738768197
 20
167.2455072792824922
 30
0.0
 11
865.0572182440804454
 21
167.5372567452729982
 31
0.0
  0
LINE
  5
10411
  8
0
 10
865.0511847968299435
 20
167.556260404224389
 30
0.0
 11
865.0572182440804454
 21
167.5372567452729982
 31
0.0
  0
LINE
  5
10412
  8
0
 10
864.2856568748693462
 20
167.1726378477004005
 30
0.0
 11
865.0810659829860469
 21
167.4621430870544998
 31
0.0
  0
LINE
  5
10413
  8
0
 10
864.3078529960170044
 20
167.1853251653444943
 30
0.0
 11
865.0559075225141896
 21
167.4575947244453005
 31
0.0
  0
LINE
  5
10414
  8
0
 10
864.2838846174547598
 20
167.2511777560937105
 30
0.0
 11
865.0319391612528079
 21
167.5234472676602877
 31
0.0
  0
LINE
  5
10415
  8
0
 10
864.2864729842738143
 20
167.2567284125915137
 30
0.0
 11
864.2879541495840385
 21
167.252658944242711
 31
0.0
  0
LINE
  5
10416
  8
0
 10
864.3119225313232619
 20
167.186806354942803
 30
0.0
 11
864.3134037036005566
 21
167.1827368674516094
 31
0.0
  0
ARC
  5
10417
  8
0
 10
864.2958688056897927
 20
167.2182514603383936
 30
0.0
 40
0.0350394309289067
 50
109.9999948609841027
 51
289.9999985017614108
  0
ARC
  5
10418
  8
0
 10
865.0439233408372957
 20
167.490520995672
 30
0.0
 40
0.0350394056365302
 50
289.9999985017614108
 51
109.9999948609841027
  0
LINE
  5
10419
  8
0
 10
865.0518379883358193
 20
167.4561135352574865
 30
0.0
 11
865.0533191536735558
 21
167.4520440670916912
 31
0.0
  0
LINE
  5
1041A
  8
0
 10
865.0278696223638235
 20
167.5219660770507915
 30
0.0
 11
865.0263884328433051
 21
167.5260356116581875
 31
0.0
  0
LINE
  5
1041B
  8
0
 10
865.0810659829860469
 20
167.4621430870544998
 30
0.0
 11
865.2155898853595772
 21
167.0384306975329878
 31
0.0
  0
LINE
  5
1041C
  8
0
 10
864.2856568748693462
 20
167.1726378477004005
 30
0.0
 11
864.4549627213805252
 21
166.7615848816911068
 31
0.0
  0
ARC
  5
1041D
  8
0
 10
865.1874729497635599
 20
167.0295038877613933
 30
0.0
 40
0.0295
 50
290.0000121089843788
 51
17.6140559621907684
  0
ARC
  5
1041E
  8
0
 10
864.4822395863703832
 20
166.7728197664849006
 30
0.0
 40
0.0295
 50
202.3859440183896936
 51
290.0000121089843788
  0
LINE
  5
1041F
  8
0
 10
864.931426864808941
 20
167.1144007841839141
 30
0.0
 11
864.6235934592175454
 21
167.002358587456996
 31
0.0
  0
LINE
  5
10420
  8
0
 10
864.9714178243212928
 20
166.9495869232393943
 30
0.0
 11
864.931426864808941
 21
167.1144007841839141
 31
0.0
  0
LINE
  5
10421
  8
0
 10
864.6992011237996394
 20
166.8505081467683908
 30
0.0
 11
864.6235934592175454
 21
167.002358587456996
 31
0.0
  0
ARC
  5
10422
  8
0
 10
864.7194440914724964
 20
166.8668217545416894
 30
0.0
 40
0.025998298766638
 50
218.8649979165384991
 51
275.3770150829341219
  0
ARC
  5
10423
  8
0
 10
864.6982713225040698
 20
167.1517541339003969
 30
0.0
 40
0.3117116365831054
 50
274.3437425313127278
 51
290.5941790498309842
  0
ARC
  5
10424
  8
0
 10
864.9504317650219036
 20
166.9480493658317926
 30
0.0
 40
0.0210423089925743
 50
317.9375665063822112
 51
4.1903258892733559
  0
ARC
  5
10425
  8
0
 10
864.8046233972911523
 20
167.1246235590568006
 30
0.0
 40
0.2498306267173301
 50
290.3641530458003217
 51
310.2526864059727814
  0
LINE
  5
10426
  8
0
 10
865.222422498206015
 20
167.635305053471086
 30
0.0
 11
866.1549567086417483
 21
167.635305053471086
 31
0.0
  0
ARC
  5
10427
  8
0
 10
865.2221935186412338
 20
167.6056457460302909
 30
0.0
 40
0.029660191326546
 50
89.5576682079373967
 51
155.141941458065503
  0
ARC
  5
10428
  8
0
 10
865.1680607261273508
 20
167.6307252038347997
 30
0.0
 40
0.03
 50
290.0000426078839268
 51
335.1419414580669809
  0
LINE
  5
10429
  8
0
 10
865.0913673576367273
 20
167.935305053463992
 30
0.0
 11
866.1549567086417483
 21
167.935305053463992
 31
0.0
  0
ARC
  5
1042A
  8
0
 10
865.0913673576367273
 20
167.9653050534639931
 30
0.0
 40
0.03
 50
200.0000000133634899
 51
270.0000000000130171
  0
ARC
  5
1042B
  8
0
 10
865.5618321998299507
 20
167.9561956702420105
 30
0.0
 40
0.498656949695841
 50
180.1322756416990956
 51
222.686334750677787
  0
LINE
  5
1042C
  8
0
 10
866.1549567086417483
 20
167.9988225873098884
 30
0.0
 11
866.1549567086417483
 21
167.571787519337704
 31
0.0
  0
ARC
  5
1042D
  8
0
 10
866.2149566665787006
 20
167.5717164730777995
 30
0.0
 40
0.0599999999999566
 50
179.9321558034143891
 51
203.4583386759142059
  0
ARC
  5
1042E
  8
0
 10
866.2149566665784732
 20
167.9988936336777954
 30
0.0
 40
0.0599999999998294
 50
156.5416613237798913
 51
180.0678442997296997
  0
ARC
  5
10430
  8
0
 10
861.4063985360355673
 20
164.0121194182540876
 30
0.0
 40
3.915160582138872
 50
1.446511861952229
 51
21.0270930963875813
  0
ARC
  5
10431
  8
0
 10
859.1021651247755244
 20
163.9539334694435126
 30
0.0
 40
6.2201285251277518
 50
340.9172621893035853
 51
1.446511861952229
  0
ARC
  5
10432
  8
0
 10
927.2254984394027133
 20
140.3870972858732955
 30
0.0
 40
65.8644350762359494
 50
160.9172621893036137
 51
163.1272187340277071
  0
ARC
  5
10433
  8
0
 10
873.5593022334138595
 20
156.2886434656103063
 30
0.0
 40
9.899626913248003
 50
161.0462322266425872
 51
177.9951590765350886
  0
ARC
  5
10434
  8
0
 10
874.4320441912976776
 20
156.7078482272200119
 30
0.0
 40
10.7665557078544207
 50
180.3878276624444084
 51
194.8826380291291969
  0
ARC
  5
10435
  8
0
 10
976.5473363991517317
 20
185.4092925212189868
 30
0.0
 40
116.8377361269971004
 50
195.6238001811796039
 51
197.401731125764087
  0
ARC
  5
10436
  8
0
 10
857.3121515925342919
 20
148.223624551684793
 30
0.0
 40
8.0632308751592845
 50
6.1171927647588262
 51
16.1517642754301214
  0
ARC
  5
10437
  8
0
 10
861.4915753293958005
 20
148.5623897581637891
 30
0.0
 40
3.8730260836980679
 50
342.426302715489328
 51
7.7229950745807212
  0
ARC
  5
10438
  8
0
 10
871.1662846500114483
 20
149.1398415727512941
 30
0.0
 40
6.2322586288112101
 50
178.4157779298741957
 51
196.2775483767372862
  0
ARC
  5
10439
  8
0
 10
861.3342129940218683
 20
163.9865801534236027
 30
0.0
 40
4.582141965803519
 50
355.8462775030911871
 51
20.8397054748105184
  0
ARC
  5
1043A
  8
0
 10
857.2988484303770065
 20
164.2178993639687974
 30
0.0
 40
8.6238817912958101
 50
339.6203868101359262
 51
356.2554128262361246
  0
ARC
  5
1043B
  8
0
 10
953.2197557924841931
 20
131.4155690511792898
 30
0.0
 40
92.7539683486456283
 50
161.260191515058807
 51
162.7447138142287031
  0
ARC
  5
1043C
  8
0
 10
872.0316832091041306
 20
156.5252792478140975
 30
0.0
 40
7.7723611688661478
 50
161.983888273524002
 51
186.9889455809264973
  0
ARC
  5
1043D
  8
0
 10
884.6328574499603974
 20
158.7132298851138898
 30
0.0
 40
20.5560452864763583
 50
188.768668422856905
 51
199.5604904126226131
  0
ARC
  5
1043E
  8
0
 10
848.2031831966285154
 20
146.0677110737470912
 30
0.0
 40
18.0071554718741709
 50
11.6570911911087993
 51
18.66637265581425
  0
ARC
  5
1043F
  8
0
 10
860.8752584487118611
 20
148.6421075700257859
 30
0.0
 40
5.0764334050756661
 50
347.2262138414643005
 51
12.0989010384215891
  0
ARC
  5
10440
  8
0
 10
864.7849189065120754
 20
147.7156537271721106
 30
0.0
 40
1.0594149398140651
 50
307.2532387270298955
 51
349.3407591686441265
  0
ARC
  5
10441
  8
0
 10
865.1693627183457238
 20
147.3200766623488107
 30
0.0
 40
0.5161374917929173
 50
271.9546604177634208
 51
299.8453539949306901
  0
ARC
  5
10442
  8
0
 10
865.2385645356138184
 20
147.4468594121487115
 30
0.0
 40
0.644687998450285
 50
195.1127503641220073
 51
265.4094702588940891
  0
ARC
  5
10443
  8
0
 10
870.2424087402246187
 20
149.0613812010932122
 30
0.0
 40
5.9018813695049914
 50
177.5648785154953941
 51
197.5801733536335121
  0
ARC
  5
10444
  8
0
 10
864.1170741751118385
 20
154.85487856681479
 30
0.0
 40
1.190887508245126
 50
233.6174094898944134
 51
269.4153695601518166
  0
ARC
  5
10445
  8
0
 10
864.1083067410137346
 20
154.722123350709893
 30
0.0
 40
1.081188393444356
 50
193.1472005975780064
 51
229.8156050581287957
  0
ARC
  5
10446
  8
0
 10
865.4326988947992731
 20
155.0300105362805141
 30
0.0
 40
2.4408972601125081
 50
171.4794631172825916
 51
193.1138538007407988
  0
ARC
  5
10447
  8
0
 10
868.1830665132288232
 20
154.7213140954947903
 30
0.0
 40
5.2076494885942086
 50
163.7116567849112982
 51
172.6041385309399914
  0
ARC
  5
10448
  8
0
 10
864.1605366433431072
 20
154.5866133906316122
 30
0.0
 40
0.7651255832481083
 50
121.0636559258048948
 51
155.5268134789367025
  0
ARC
  5
10449
  8
0
 10
864.1385902755639563
 20
154.5966025256969942
 30
0.0
 40
0.7410128090806042
 50
155.5268134789367025
 51
210.6641642753847066
  0
ARC
  5
1044A
  8
0
 10
864.1730862364727273
 20
154.6170555573118861
 30
0.0
 40
0.7811163977138155
 50
210.6641642753847066
 51
261.2287182910700949
  0
ARC
  5
1044B
  8
0
 10
866.9392576838631612
 20
254.4802069719061137
 30
0.0
 40
99.1728223808852647
 50
268.8249836630412233
 51
269.2636527248236007
  0
ARC
  5
1044C
  8
0
 10
865.151319327286501
 20
167.3095380651953974
 30
0.0
 40
11.9838193976518408
 50
266.1823865853421012
 51
268.8249836630412233
  0
ARC
  5
1044D
  8
0
 10
866.2883610856480345
 20
95.7529112214260749
 30
0.0
 40
58.1486843855609976
 50
90.6144710693691451
 51
91.6111602830894469
  0
ARC
  5
1044E
  8
0
 10
863.8940578202377765
 20
154.5412597049642898
 30
0.0
 40
0.4974380247316192
 50
119.6341185789220987
 51
151.7386237396636091
  0
ARC
  5
1044F
  8
0
 10
864.2437687671907725
 20
153.926509759516307
 30
0.0
 40
1.204696988511563
 50
111.8828404176741032
 51
119.6341185789217008
  0
ARC
  5
10450
  8
0
 10
864.4002910738591936
 20
154.3902971992538937
 30
0.0
 40
0.7586857215305435
 50
77.2949427827397528
 51
90.9137106054246971
  0
ARC
  5
10451
  8
0
 10
864.5038335158138807
 20
154.8495622325575027
 30
0.0
 40
0.2878934020294225
 50
22.2985127909376999
 51
77.2949427827397528
  0
ARC
  5
10452
  8
0
 10
863.9426550620992202
 20
154.6194231916778961
 30
0.0
 40
0.8944288379690808
 50
359.1982896840295894
 51
22.2985127909376999
  0
ARC
  5
10453
  8
0
 10
863.750381661970664
 20
154.6221137498766893
 30
0.0
 40
1.0867210622019301
 50
343.2633597567676134
 51
359.1982896840295894
  0
ARC
  5
10454
  8
0
 10
864.4618488180669829
 20
154.4081673483254917
 30
0.0
 40
0.3437819146664855
 50
294.1382526559693815
 51
343.2633597567676134
  0
ARC
  5
10455
  8
0
 10
864.1234745534816284
 20
154.9815152162092886
 30
0.0
 40
0.8783158166910139
 50
227.7370532692391123
 51
260.7613099525735834
  0
ARC
  5
10456
  8
0
 10
863.7575476734176618
 20
154.5788439955545925
 30
0.0
 40
0.3342141777512619
 50
202.003806374085201
 51
227.7370532692391123
  0
ARC
  5
10457
  8
0
 10
863.8240550850890713
 20
154.6057198737946976
 30
0.0
 40
0.4059466574129712
 50
155.0757309951312948
 51
202.003806374085201
  0
LINE
  5
10458
  8
0
 10
865.0761326110525715
 20
152.9878702005721038
 30
0.0
 11
865.0761326110525715
 21
152.9058930378720902
 31
0.0
  0
LINE
  5
10459
  8
0
 10
865.0761326110525715
 20
152.9058930378720902
 30
0.0
 11
864.9141902393619148
 21
152.9058930378720902
 31
0.0
  0
LINE
  5
1045A
  8
0
 10
864.3217350182379732
 20
152.9058930378720902
 30
0.0
 11
864.2061326110526807
 21
152.9058930378720902
 31
0.0
  0
LINE
  5
1045B
  8
0
 10
864.2061326110526807
 20
152.9058930378720902
 30
0.0
 11
864.2061326110526807
 21
152.9878702005721038
 31
0.0
  0
LINE
  5
1045C
  8
0
 10
864.7650240817250733
 20
153.4387445953720999
 30
0.0
 11
865.0761326110525715
 21
153.4387445953720999
 31
0.0
  0
LINE
  5
1045D
  8
0
 10
865.0761326110525715
 20
153.4387445953720999
 30
0.0
 11
865.0761326110525715
 21
153.3567674326720862
 31
0.0
  0
LINE
  5
1045E
  8
0
 10
864.1883767055526278
 20
153.3567674326720862
 30
0.0
 11
864.1921308289163335
 21
153.3567674326720862
 31
0.0
  0
LINE
  5
1045F
  8
0
 10
864.7869685100502011
 20
153.3567674326720862
 30
0.0
 11
865.0938884605526482
 21
153.3567674326720862
 31
0.0
  0
LINE
  5
10460
  8
0
 10
865.0938884605526482
 20
152.9878702005721038
 30
0.0
 11
864.8902321356237053
 21
152.9878702005721038
 31
0.0
  0
LINE
  5
10461
  8
0
 10
864.298024784389213
 20
152.9878702005721038
 30
0.0
 11
864.1883767055526278
 21
152.9878702005721038
 31
0.0
  0
LINE
  5
10462
  8
0
 10
864.1883767055526278
 20
152.9878702005721038
 30
0.0
 11
864.1883767055526278
 21
153.3567674326720862
 31
0.0
  0
LINE
  5
10463
  8
0
 10
864.2955667955526451
 20
152.9878702005721038
 30
0.0
 11
864.2955667955526451
 21
152.9963814495131942
 31
0.0
  0
LINE
  5
10464
  8
0
 10
864.2930361356526419
 20
152.9878702005721038
 30
0.0
 11
864.2930361356526419
 21
153.0051468661644947
 31
0.0
  0
LINE
  5
10465
  8
0
 10
864.2760024468526581
 20
152.9878702005721038
 30
0.0
 11
864.2760024468526581
 21
153.0642132068452099
 31
0.0
  0
LINE
  5
10466
  8
0
 10
864.2736883316525791
 20
152.9878702005721038
 30
0.0
 11
864.2736883316525791
 21
153.0722466929873065
 31
0.0
  0
LINE
  5
10467
  8
0
 10
864.2582169755526138
 20
152.9878702005721038
 30
0.0
 11
864.2582169755526138
 21
153.1260113627849933
 31
0.0
  0
LINE
  5
10468
  8
0
 10
864.2561306792526921
 20
152.9878702005721038
 30
0.0
 11
864.2561306792526921
 21
153.1332688929419135
 31
0.0
  0
LINE
  5
10469
  8
0
 10
864.2422970307526384
 20
152.9878702005721038
 30
0.0
 11
864.2422970307526384
 21
153.1814363135200097
 31
0.0
  0
LINE
  5
1046A
  8
0
 10
864.240448717552681
 20
152.9878702005721038
 30
0.0
 11
864.240448717552681
 21
153.1878778633476941
 31
0.0
  0
LINE
  5
1046B
  8
0
 10
864.228320172852591
 20
152.9878702005721038
 30
0.0
 11
864.228320172852591
 21
153.2301816379431898
 31
0.0
  0
LINE
  5
1046C
  8
0
 10
864.2267188475526609
 20
152.9878702005721038
 30
0.0
 11
864.2267188475526609
 21
153.2357714812519021
 31
0.0
  0
LINE
  5
1046D
  8
0
 10
864.2163544956526948
 20
152.9878702005721038
 30
0.0
 11
864.2163544956526948
 21
153.271976393739493
 31
0.0
  0
LINE
  5
1046E
  8
0
 10
864.2150079596526666
 20
152.9878702005721038
 30
0.0
 11
864.2150079596526666
 21
153.2766833734654028
 31
0.0
  0
LINE
  5
1046F
  8
0
 10
864.2064582947525651
 20
152.9878702005721038
 30
0.0
 11
864.2064582947525651
 21
153.3065871832829998
 31
0.0
  0
LINE
  5
10470
  8
0
 10
864.1986797833526452
 20
152.9878702005721038
 30
0.0
 11
864.1986797833526452
 21
153.3338199618465012
 31
0.0
  0
LINE
  5
10471
  8
0
 10
864.1930568577525946
 20
152.9878702005721038
 30
0.0
 11
864.1930568577525946
 21
153.3535215584898879
 31
0.0
  0
LINE
  5
10472
  8
0
 10
865.0938884605526482
 20
152.9878702005721038
 30
0.0
 11
865.0938884605526482
 21
153.3567674326720862
 31
0.0
  0
LINE
  5
10473
  8
0
 10
864.7889852958526262
 20
153.3493007514383066
 30
0.0
 11
864.7889852958526262
 21
153.3567674326720862
 31
0.0
  0
LINE
  5
10474
  8
0
 10
864.7908365759526532
 20
153.3424566209453133
 30
0.0
 11
864.7908365759526532
 21
153.3567674326720862
 31
0.0
  0
LINE
  5
10475
  8
0
 10
864.8089127373526708
 20
153.2761154067221128
 30
0.0
 11
864.8089127373526708
 21
153.3567674326720862
 31
0.0
  0
LINE
  5
10476
  8
0
 10
864.8125630674526292
 20
153.2628236240724959
 30
0.0
 11
864.8125630674526292
 21
153.3567674326720862
 31
0.0
  0
LINE
  5
10477
  8
0
 10
864.8171626571526076
 20
153.2461248286915918
 30
0.0
 11
864.8171626571526076
 21
153.3567674326720862
 31
0.0
  0
LINE
  5
10478
  8
0
 10
864.8189624250527459
 20
153.2396056961873114
 30
0.0
 11
864.8189624250527459
 21
153.3567674326720862
 31
0.0
  0
LINE
  5
10479
  8
0
 10
864.8378384009050706
 20
153.1717302083833943
 30
0.0
 11
864.8378384009050706
 21
153.3567674326720862
 31
0.0
  0
LINE
  5
1047A
  8
0
 10
864.8413769601527292
 20
153.1591054859646022
 30
0.0
 11
864.8413769601527292
 21
153.3567674326720862
 31
0.0
  0
LINE
  5
1047B
  8
0
 10
864.8444824175525127
 20
153.1480514156982053
 30
0.0
 11
864.8444824175525127
 21
153.3567674326720862
 31
0.0
  0
LINE
  5
1047C
  8
0
 10
864.845584501948224
 20
153.1441341685249995
 30
0.0
 11
864.845584501948224
 21
153.3567674326720862
 31
0.0
  0
LINE
  5
1047D
  8
0
 10
864.8658057333526585
 20
153.0727809444159107
 30
0.0
 11
864.8658057333526585
 21
153.3567674326720862
 31
0.0
  0
LINE
  5
1047E
  8
0
 10
864.8692152821525951
 20
153.060845779047014
 30
0.0
 11
864.8692152821525951
 21
153.3567674326720862
 31
0.0
  0
LINE
  5
1047F
  8
0
 10
864.8708114778527261
 20
153.0552676356846007
 30
0.0
 11
864.8708114778527261
 21
153.3567674326720862
 31
0.0
  0
LINE
  5
10480
  8
0
 10
864.8724822099525227
 20
153.0494353802122021
 30
0.0
 11
864.8724822099525227
 21
153.3567674326720862
 31
0.0
  0
LINE
  5
10481
  8
0
 10
864.8926784806526484
 20
152.9878702005721038
 30
0.0
 11
864.8926784806526484
 21
153.3567674326720862
 31
0.0
  0
LINE
  5
10482
  8
0
 10
864.8959424080526333
 20
152.9878702005721038
 30
0.0
 11
864.8959424080526333
 21
153.3567674326720862
 31
0.0
  0
LINE
  5
10483
  8
0
 10
864.8976154028526935
 20
152.9878702005721038
 30
0.0
 11
864.8976154028526935
 21
153.3567674326720862
 31
0.0
  0
LINE
  5
10484
  8
0
 10
864.9183257214526748
 20
152.9878702005721038
 30
0.0
 11
864.9183257214526748
 21
153.3567674326720862
 31
0.0
  0
LINE
  5
10485
  8
0
 10
864.9214281260525468
 20
152.9878702005721038
 30
0.0
 11
864.9214281260525468
 21
153.3567674326720862
 31
0.0
  0
LINE
  5
10486
  8
0
 10
864.9426225050526682
 20
152.9878702005721038
 30
0.0
 11
864.9426225050526682
 21
153.3567674326720862
 31
0.0
  0
LINE
  5
10487
  8
0
 10
864.9455482721525641
 20
152.9878702005721038
 30
0.0
 11
864.9455482721525641
 21
153.3567674326720862
 31
0.0
  0
LINE
  5
10488
  8
0
 10
864.9628863150685447
 20
152.9878702005721038
 30
0.0
 11
864.9628863150685447
 21
153.3567674326720862
 31
0.0
  0
LINE
  5
10489
  8
0
 10
864.9681853354525174
 20
152.9878702005721038
 30
0.0
 11
864.9681853354525174
 21
153.3567674326720862
 31
0.0
  0
LINE
  5
1048A
  8
0
 10
864.9866983705527446
 20
152.9878702005721038
 30
0.0
 11
864.9866983705527446
 21
153.3567674326720862
 31
0.0
  0
LINE
  5
1048B
  8
0
 10
864.9892290304526341
 20
152.9878702005721038
 30
0.0
 11
864.9892290304526341
 21
153.3567674326720862
 31
0.0
  0
LINE
  5
1048C
  8
0
 10
865.0062627192525042
 20
152.9878702005721038
 30
0.0
 11
865.0062627192525042
 21
153.3567674326720862
 31
0.0
  0
LINE
  5
1048D
  8
0
 10
865.0085768344525832
 20
152.9878702005721038
 30
0.0
 11
865.0085768344525832
 21
153.3567674326720862
 31
0.0
  0
LINE
  5
1048E
  8
0
 10
865.0240481905526622
 20
152.9878702005721038
 30
0.0
 11
865.0240481905526622
 21
153.3567674326720862
 31
0.0
  0
LINE
  5
1048F
  8
0
 10
865.0261344868526976
 20
152.9878702005721038
 30
0.0
 11
865.0261344868526976
 21
153.3567674326720862
 31
0.0
  0
LINE
  5
10490
  8
0
 10
865.0399681353526375
 20
152.9878702005721038
 30
0.0
 11
865.0399681353526375
 21
153.3567674326720862
 31
0.0
  0
LINE
  5
10491
  8
0
 10
865.0418164485527086
 20
152.9878702005721038
 30
0.0
 11
865.0418164485527086
 21
153.3567674326720862
 31
0.0
  0
LINE
  5
10492
  8
0
 10
865.0539449932525713
 20
152.9878702005721038
 30
0.0
 11
865.0539449932525713
 21
153.3567674326720862
 31
0.0
  0
LINE
  5
10493
  8
0
 10
865.055546318552615
 20
152.9878702005721038
 30
0.0
 11
865.055546318552615
 21
153.3567674326720862
 31
0.0
  0
LINE
  5
10494
  8
0
 10
865.0659106704526948
 20
152.9878702005721038
 30
0.0
 11
865.0659106704526948
 21
153.3567674326720862
 31
0.0
  0
LINE
  5
10495
  8
0
 10
865.0672572064524957
 20
152.9878702005721038
 30
0.0
 11
865.0672572064524957
 21
153.3567674326720862
 31
0.0
  0
LINE
  5
10496
  8
0
 10
865.0758068713527109
 20
152.9878702005721038
 30
0.0
 11
865.0758068713527109
 21
153.3567674326720862
 31
0.0
  0
LINE
  5
10497
  8
0
 10
865.0835853827526307
 20
152.9878702005721038
 30
0.0
 11
865.0835853827526307
 21
153.3567674326720862
 31
0.0
  0
LINE
  5
10498
  8
0
 10
865.0892083083525677
 20
152.9878702005721038
 30
0.0
 11
865.0892083083525677
 21
153.3567674326720862
 31
0.0
  0
LINE
  5
10499
  8
0
 10
864.9934948158525003
 20
153.4387445953720999
 30
0.0
 11
864.9934948158525003
 21
153.8871766516774926
 31
0.0
  0
ARC
  5
1049A
  8
0
 10
863.6020126259367089
 20
156.3419033016114099
 30
0.0
 40
2.752588023679253
 50
292.8583955804754169
 51
296.7343525942284828
  0
LINE
  5
1049B
  8
0
 10
864.3458570205525575
 20
152.8227215366001985
 30
0.0
 11
864.3458570205525575
 21
149.3121430740829965
 31
0.0
  0
LINE
  5
1049C
  8
0
 10
864.9364082016527391
 20
150.85415845731319
 30
0.0
 11
864.9364082016527391
 21
149.3121408895721913
 31
0.0
  0
ENDSEC
  0
EOF
