  0
SECTION
  2
HEADER
  9
$ACADVER
  1
AC1009
  9
$INSBASE
 10
3953.8774273383710351
 20
76.8595519488605134
 30
0.0
  9
$EXTMIN
 10
3947.7853081774701423
 20
68.8110353307427403
 30
0.0
  9
$EXTMAX
 10
3959.1529106303050867
 20
76.8595519488605134
 30
0.0
  9
$LIMMIN
 10
0.0
 20
0.0
  9
$LIMMAX
 10
11.6929133858000007
 20
8.2677165353999982
  9
$ORTHOMODE
 70
     0
  9
$REGENMODE
 70
     1
  9
$FILLMODE
 70
     1
  9
$QTEXTMODE
 70
     0
  9
$MIRRTEXT
 70
     0
  9
$DRAGMODE
 70
     2
  9
$LTSCALE
 40
0.6431102362
  9
$OSMODE
 70
  3839
  9
$ATTMODE
 70
     1
  9
$TEXTSIZE
 40
0.2
  9
$TRACEWID
 40
0.05
  9
$TEXTSTYLE
  7
STANDARD
  9
$CLAYER
  8
0
  9
$CELTYPE
  6
BYLAYER
  9
$CECOLOR
 62
   256
  9
$DIMSCALE
 40
1.0
  9
$DIMASZ
 40
0.1875
  9
$DIMEXO
 40
0.0625
  9
$DIMDLI
 40
0.4443307087
  9
$DIMRND
 40
0.0
  9
$DIMDLE
 40
0.0
  9
$DIMEXE
 40
0.125
  9
$DIMTP
 40
0.01
  9
$DIMTM
 40
0.01
  9
$DIMTXT
 40
2.0
  9
$DIMCEN
 40
0.1052362205
  9
$DIMTSZ
 40
0.0
  9
$DIMTOL
 70
     1
  9
$DIMLIM
 70
     0
  9
$DIMTIH
 70
     1
  9
$DIMTOH
 70
     1
  9
$DIMSE1
 70
     0
  9
$DIMSE2
 70
     0
  9
$DIMTAD
 70
     0
  9
$DIMZIN
 70
     0
  9
$DIMBLK
  1

  9
$DIMASO
 70
     1
  9
$DIMSHO
 70
     1
  9
$DIMPOST
  1
\X
  9
$DIMAPOST
  1

  9
$DIMALT
 70
     1
  9
$DIMALTD
 70
     2
  9
$DIMALTF
 40
25.3999999999999986
  9
$DIMLFAC
 40
1.0
  9
$DIMTOFL
 70
     0
  9
$DIMTVP
 40
0.0
  9
$DIMTIX
 70
     0
  9
$DIMSOXD
 70
     0
  9
$DIMSAH
 70
     0
  9
$DIMBLK1
  1

  9
$DIMBLK2
  1

  9
$DIMSTYLE
  2
STANDARD
  9
$DIMCLRD
 70
     0
  9
$DIMCLRE
 70
     0
  9
$DIMCLRT
 70
     0
  9
$DIMTFAC
 40
1.0
  9
$DIMGAP
 40
0.09
  9
$LUNITS
 70
     2
  9
$LUPREC
 70
     4
  9
$SKETCHINC
 40
0.1
  9
$FILLETRAD
 40
0.0
  9
$AUNITS
 70
     0
  9
$AUPREC
 70
     0
  9
$MENU
  1
.
  9
$ELEVATION
 40
0.0
  9
$PELEVATION
 40
0.0
  9
$THICKNESS
 40
0.0
  9
$LIMCHECK
 70
     0
  9
$BLIPMODE
 70
     0
  9
$CHAMFERA
 40
0.0
  9
$CHAMFERB
 40
0.0
  9
$SKPOLY
 70
     0
  9
$TDCREATE
 40
2458060.468368056230247
  9
$TDUPDATE
 40
2459121.5664699068292975
  9
$TDINDWG
 40
0.4267315972
  9
$TDUSRTIMER
 40
0.4267315972
  9
$USRTIMER
 70
     1
  9
$ANGBASE
 50
0.0
  9
$ANGDIR
 70
     0
  9
$PDMODE
 70
     0
  9
$PDSIZE
 40
0.3125
  9
$PLINEWID
 40
0.0
  9
$COORDS
 70
     1
  9
$SPLFRAME
 70
     0
  9
$SPLINETYPE
 70
     6
  9
$SPLINESEGS
 70
     8
  9
$ATTDIA
 70
     1
  9
$ATTREQ
 70
     1
  9
$HANDLING
 70
     1
  9
$HANDSEED
  5
8C1F
  9
$SURFTAB1
 70
     6
  9
$SURFTAB2
 70
     6
  9
$SURFTYPE
 70
     6
  9
$SURFU
 70
     6
  9
$SURFV
 70
     6
  9
$UCSNAME
  2

  9
$UCSORG
 10
0.0
 20
0.0
 30
0.0
  9
$UCSXDIR
 10
1.0
 20
0.0
 30
0.0
  9
$UCSYDIR
 10
0.0
 20
1.0
 30
0.0
  9
$PUCSNAME
  2

  9
$PUCSORG
 10
0.0
 20
0.0
 30
0.0
  9
$PUCSXDIR
 10
1.0
 20
0.0
 30
0.0
  9
$PUCSYDIR
 10
0.0
 20
1.0
 30
0.0
  9
$USERI1
 70
     0
  9
$USERI2
 70
     0
  9
$USERI3
 70
     0
  9
$USERI4
 70
     0
  9
$USERI5
 70
     0
  9
$USERR1
 40
0.0
  9
$USERR2
 40
0.0
  9
$USERR3
 40
0.0
  9
$USERR4
 40
0.0
  9
$USERR5
 40
0.0
  9
$WORLDVIEW
 70
     1
  9
$SHADEDGE
 70
     3
  9
$SHADEDIF
 70
    70
  9
$TILEMODE
 70
     1
  9
$MAXACTVP
 70
    64
  9
$PLIMCHECK
 70
     0
  9
$PEXTMIN
 10
1.0000000000000000E+20
 20
1.0000000000000000E+20
 30
1.0000000000000000E+20
  9
$PEXTMAX
 10
-1.0000000000000000E+20
 20
-1.0000000000000000E+20
 30
-1.0000000000000000E+20
  9
$PLIMMIN
 10
0.0
 20
0.0
  9
$PLIMMAX
 10
12.0
 20
9.0
  9
$UNITMODE
 70
     0
  9
$VISRETAIN
 70
     1
  9
$PLINEGEN
 70
     0
  9
$PSLTSCALE
 70
     1
  0
ENDSEC
  0
SECTION
  2
TABLES
  0
TABLE
  2
VPORT
 70
     1
  0
VPORT
  2
*ACTIVE
 70
     0
 10
0.0
 20
0.0
 11
1.0
 21
1.0
 12
0.0
 22
0.0
 13
0.0
 23
0.0
 14
1.0
 24
1.0
 15
0.0
 25
0.0
 16
0.0
 26
0.0
 36
57.8239365339331428
 17
3953.4691162109379547
 27
72.8352928161620952
 37
0.0
 40
13.92828420724274
 41
3.314341846758349
 42
50.0
 43
0.0
 44
0.0
 50
0.0
 51
0.0
 71
     0
 72
   100
 73
     1
 74
     1
 75
     0
 76
     0
 77
     0
 78
     0
  0
ENDTAB
  0
TABLE
  2
LTYPE
 70
     2
  0
LTYPE
  2
CONTINUOUS
 70
     0
  3
Solid line
 72
    65
 73
     0
 40
0.0
  0
LTYPE
  2
PHANTOM2
 70
     0
  3
___ _ _ ___ _ _ ___ _ _ ___ _ _
 72
    65
 73
     6
 40
1.25
 49
0.625
 49
-0.125
 49
0.125
 49
-0.125
 49
0.125
 49
-0.125
  0
ENDTAB
  0
TABLE
  2
LAYER
 70
     2
  0
LAYER
  2
0
 70
     0
 62
   255
  6
CONTINUOUS
  0
LAYER
  2
DEFPOINTS
 70
     0
 62
     7
  6
CONTINUOUS
  0
ENDTAB
  0
TABLE
  2
STYLE
 70
     1
  0
STYLE
  2
STANDARD
 70
     0
 40
0.0
 41
0.8
 50
0.0
 71
     0
 42
0.2
  3
txt
  4

  0
ENDTAB
  0
TABLE
  2
VIEW
 70
     0
  0
ENDTAB
  0
TABLE
  2
UCS
 70
     0
  0
ENDTAB
  0
TABLE
  2
APPID
 70
     9
  0
APPID
  2
ACAD
 70
     0
  0
APPID
  2
ACAD_MLEADERVER
 70
     0
  0
APPID
  2
ACAD_EXEMPT_FROM_CAD_STANDARDS
 70
     0
  0
APPID
  2
ACAD_NAV_VCDISPLAY
 70
     0
  0
APPID
  2
ACAECLAYERSTANDARD
 70
     0
  0
APPID
  2
ACCMTRANSPARENCY
 70
     0
  0
APPID
  2
ACAD_DSTYLE_DIMJAG
 70
     0
  0
APPID
  2
ACAD_DSTYLE_DIMTALN
 70
     0
  0
APPID
  2
ACDBATTR
 70
     0
  0
ENDTAB
  0
TABLE
  2
DIMSTYLE
 70
     1
  0
DIMSTYLE
  2
STANDARD
 70
     0
  3

  4

  5

  6

  7

 40
1.0
 41
0.1875
 42
0.0625
 43
0.38
 44
0.125
 45
0.0
 46
0.0
 47
0.01
 48
0.01
140
0.15625
141
0.09
142
0.0
143
25.3999999999999986
144
1.0
145
0.0
146
1.0
147
0.09
 71
     1
 72
     0
 73
     1
 74
     1
 75
     0
 76
     0
 77
     0
 78
     4
170
     0
171
     2
172
     0
173
     0
174
     0
175
     0
176
     0
177
     0
178
     0
  0
ENDTAB
  0
ENDSEC
  0
SECTION
  2
BLOCKS
  0
BLOCK
  8
0
  2
$MODEL_SPACE
 70
     0
 10
0.0
 20
0.0
 30
0.0
  3
$MODEL_SPACE
  1

  0
ENDBLK
  5
21
  8
0
  0
BLOCK
 67
     1
  8
0
  2
$PAPER_SPACE
 70
     0
 10
0.0
 20
0.0
 30
0.0
  3
$PAPER_SPACE
  1

  0
ENDBLK
  5
1D
 67
     1
  8
0
  0
ENDSEC
  0
SECTION
  2
ENTITIES
  0
ATTDEF
  5
3930
  8
DEFPOINTS
 10
3953.8709696765149602
 20
76.8551645287690235
 30
0.0
 40
0.001
  1
K-72667X-4
  3

  2
MODELNUMBER
 70
     0
1001
ACDBATTR
1070
     0
1070
     1
  0
ATTDEF
  5
3931
  8
DEFPOINTS
 10
3953.8709696765149602
 20
76.8534978621023726
 30
0.0
 40
0.001
  1
SINGULIER
  3

  2
TRADENAME
 70
     0
1001
ACDBATTR
1070
     0
1070
     1
  0
ATTDEF
  5
3932
  8
DEFPOINTS
 10
3953.8709696765149602
 20
76.8518311954356932
 30
0.0
 40
0.001
  1
BATH AND SHOWER FAUCET
  3

  2
PRODUCT
 70
     0
1001
ACDBATTR
1070
     0
1070
     1
  0
LINE
  5
89DA
  8
0
 10
3959.1528892776450448
 20
70.4687997062059139
 30
0.0
 11
3959.1528892776450448
 21
74.3200404476927616
 31
0.0
  0
LINE
  5
89DB
  8
0
 10
3958.7858266294788336
 20
70.4756689126141396
 30
0.0
 11
3958.7858266294788336
 21
72.0128291226436943
 31
0.0
  0
ARC
  5
89DC
  8
0
 10
3959.7741488536448742
 20
70.4679133770254111
 30
0.0
 40
0.988352653213073
 50
179.5503993274708137
 51
190.2504060851811971
  0
ARC
  5
89DD
  8
0
 10
3958.9993101919721994
 20
70.3110857534202864
 30
0.0
 40
0.1986548588773423
 50
185.5029034503205878
 51
235.8731800379626975
  0
ARC
  5
89DE
  8
0
 10
3958.9693597769992266
 20
70.2956520915374341
 30
0.0
 40
0.1698439935798282
 50
241.3241659031357926
 51
298.67583409686398
  0
ARC
  5
89DF
  8
0
 10
3958.9512673374129008
 20
70.299038745107282
 30
0.0
 40
0.1820148991602182
 50
303.0024038841261245
 51
343.3183310578501164
  0
ARC
  5
89E0
  8
0
 10
3958.2850278999771945
 20
70.4627117876278817
 30
0.0
 40
0.867882730327217
 50
345.5940359611448116
 51
0.4019147851232773
  0
LINE
  5
89E1
  8
0
 10
3958.492112502353848
 20
74.4107456567816996
 30
0.0
 11
3958.643560076178801
 21
74.4063232877110039
 31
0.0
  0
LINE
  5
89E2
  8
0
 10
3958.9262497996128332
 20
74.3980685612869195
 30
0.0
 11
3959.0762410487732268
 21
74.3936887178572732
 31
0.0
  0
ARC
  5
89E3
  8
0
 10
3959.0740379842741277
 20
74.3146865862025265
 30
0.0
 40
0.0790328431675166
 50
3.8843189333229691
 51
88.4026558400999392
  0
ARC
  5
89E4
  8
0
 10
3958.8105674668249776
 20
75.2810297989005761
 30
0.0
 40
0.8905071303744057
 50
259.190633635964673
 51
277.4641678175161132
  0
LINE
  5
89E5
  8
0
 10
3958.0801829651582011
 20
73.4855368247603735
 30
0.0
 11
3958.0801829651582011
 21
72.5445917587929614
 31
0.0
  0
LINE
  5
89E6
  8
0
 10
3958.0132538787138401
 20
72.5563502765680539
 30
0.0
 11
3958.0132538787138401
 21
74.4152416525482323
 31
0.0
  0
LINE
  5
89E7
  8
0
 10
3958.0801829651582011
 20
73.4855368247603735
 30
0.0
 11
3958.492112502353848
 21
74.4107456567816996
 31
0.0
  0
ARC
  5
89E8
  8
0
 10
3958.088712314131044
 20
71.6152404382146131
 30
0.0
 40
0.9293904598470522
 50
54.5475904674449907
 51
90.5258402129637432
  0
ARC
  5
89E9
  8
0
 10
3958.3247220050971009
 20
72.0245988430270501
 30
0.0
 40
0.4612548112969632
 50
358.5378396317951797
 51
48.925718318951688
  0
LINE
  5
89EA
  8
0
 10
3958.0034102665299542
 20
72.5465066373052139
 30
0.0
 11
3954.9991791506708978
 21
72.5465066373052139
 31
0.0
  0
ARC
  5
89EB
  8
0
 10
3958.0034102394170077
 20
72.5563502765680539
 30
0.0
 40
0.0098436393128143
 50
270.0001578171455208
 51
0.0
  0
LINE
  5
89EC
  8
0
 10
3958.0034108522058887
 20
74.4245668612605016
 30
0.0
 11
3957.6251550582201162
 21
74.4245666819692246
 31
0.0
  0
ARC
  5
89ED
  8
0
 10
3958.0033999060187853
 20
74.4146979039364851
 30
0.0
 40
0.0098689634944794
 50
3.1584153935530059
 51
89.9364504270284471
  0
LINE
  5
89EE
  8
0
 10
3957.5472713083709095
 20
74.9422291890481915
 30
0.0
 11
3950.2373712543899273
 21
74.9422291890481915
 31
0.0
  0
LINE
  5
89EF
  8
0
 10
3957.5472713083709095
 20
74.9422291890481915
 30
0.0
 11
3957.5472713083709095
 21
74.8740646405676529
 31
0.0
  0
ARC
  5
89F0
  8
0
 10
3960.2880438572101411
 20
74.8688014358739053
 30
0.0
 40
2.740777602396264
 50
179.8899729767406086
 51
188.2489841441231988
  0
ARC
  5
89F1
  8
0
 10
3957.6410964335168501
 20
74.4896025945962776
 30
0.0
 40
0.0669611632043513
 50
192.0983628129804117
 51
256.2274024836225976
  0
LINE
  5
89F2
  8
0
 10
3958.0211281257711562
 20
76.8595519488605134
 30
0.0
 11
3955.6392383619700013
 21
76.8595519488605134
 31
0.0
  0
LINE
  5
89F3
  8
0
 10
3958.011145630070132
 20
76.2876551531376919
 30
0.0
 11
3958.0211281257711562
 21
76.8595519488605134
 31
0.0
  0
LINE
  5
89F4
  8
0
 10
3957.9520995063699047
 20
76.229630688960512
 30
0.0
 11
3955.7082669813698885
 21
76.229630688960512
 31
0.0
  0
ARC
  5
89F5
  8
0
 10
3957.9520995063699047
 20
76.288685807060503
 30
0.0
 40
0.059055118099997
 50
270.0
 51
358.9999999999062084
  0
LINE
  5
89F6
  8
0
 10
3957.5878269530871876
 20
76.170077792545257
 30
0.0
 11
3957.5782147399709174
 21
75.6193944684605128
 31
0.0
  0
ARC
  5
89F7
  8
0
 10
3957.6469257834869495
 20
76.1705373578147089
 30
0.0
 40
0.0591006172107849
 50
90.8996894010097236
 51
180.4455353760480989
  0
LINE
  5
89F8
  8
0
 10
3957.5782147399709174
 20
75.6193944684605128
 30
0.0
 11
3956.0821517477711495
 21
75.6193944684605128
 31
0.0
  0
LINE
  5
89F9
  8
0
 10
3957.469947023370878
 20
75.4638383479605181
 30
0.0
 11
3957.469947023370878
 21
75.6193944684605128
 31
0.0
  0
LINE
  5
89FA
  8
0
 10
3957.420734424971215
 20
75.422544283866003
 30
0.0
 11
3957.469947023370878
 21
75.4638383479605181
 31
0.0
  0
LINE
  5
89FB
  8
0
 10
3957.420734424971215
 20
75.422544283866003
 30
0.0
 11
3957.420734424971215
 21
75.0091584527513646
 31
0.0
  0
LINE
  5
89FC
  8
0
 10
3957.420734424971215
 20
75.0091584527513646
 30
0.0
 11
3956.2396320627708519
 21
75.0091584527513646
 31
0.0
  0
LINE
  5
89FD
  8
0
 10
3957.251443086369818
 20
74.9422291890481915
 30
0.0
 11
3957.251443086369818
 21
75.0091584527513646
 31
0.0
  0
LINE
  5
89FE
  8
0
 10
3955.6492208576710254
 20
76.2876551531376919
 30
0.0
 11
3955.6392383619700013
 21
76.8595519488605134
 31
0.0
  0
ARC
  5
89FF
  8
0
 10
3955.7082669813698885
 20
76.288685807060503
 30
0.0
 40
0.059055118099997
 50
180.9999999998800035
 51
270.0
  0
LINE
  5
8A00
  8
0
 10
3956.0725395346539699
 20
76.170077792545257
 30
0.0
 11
3956.0821517477711495
 21
75.6193944684605128
 31
0.0
  0
ARC
  5
8A01
  8
0
 10
3956.0134407042551175
 20
76.1705373578147089
 30
0.0
 40
0.0591006172107849
 50
359.5544646239515032
 51
89.1003105989902764
  0
LINE
  5
8A02
  8
0
 10
3956.190419464371189
 20
75.4638383479605181
 30
0.0
 11
3956.190419464371189
 21
75.6193944684605128
 31
0.0
  0
LINE
  5
8A03
  8
0
 10
3956.2396320627708519
 20
75.422544283866003
 30
0.0
 11
3956.190419464371189
 21
75.4638383479605181
 31
0.0
  0
LINE
  5
8A04
  8
0
 10
3956.2396320627708519
 20
75.422544283866003
 30
0.0
 11
3956.2396320627708519
 21
75.0091584527513646
 31
0.0
  0
LINE
  5
8A05
  8
0
 10
3956.4089234013708847
 20
74.9422291890481915
 30
0.0
 11
3956.4089234013708847
 21
75.0091584527513646
 31
0.0
  0
LINE
  5
8A06
  8
0
 10
3952.1156163147711595
 20
76.8595519488605134
 30
0.0
 11
3949.7337265509709141
 21
76.8595519488605134
 31
0.0
  0
LINE
  5
8A07
  8
0
 10
3952.1056338190710449
 20
76.2876551531376919
 30
0.0
 11
3952.1156163147711595
 21
76.8595519488605134
 31
0.0
  0
LINE
  5
8A08
  8
0
 10
3952.0465876953708175
 20
76.229630688960512
 30
0.0
 11
3949.8027551703708014
 21
76.229630688960512
 31
0.0
  0
ARC
  5
8A09
  8
0
 10
3952.0465876953708175
 20
76.288685807060503
 30
0.0
 40
0.059055118099997
 50
270.0
 51
358.9999999999062084
  0
LINE
  5
8A0A
  8
0
 10
3951.6823151420871909
 20
76.170077792545257
 30
0.0
 11
3951.6727029289700113
 21
75.6193944684605128
 31
0.0
  0
ARC
  5
8A0B
  8
0
 10
3951.7414139724869528
 20
76.1705373578147089
 30
0.0
 40
0.0591006172107849
 50
90.8996894010097236
 51
180.4455353760480989
  0
LINE
  5
8A0C
  8
0
 10
3951.6727029289700113
 20
75.6193944684605128
 30
0.0
 11
3950.1766399367711529
 21
75.6193944684605128
 31
0.0
  0
LINE
  5
8A0D
  8
0
 10
3951.5644352123708813
 20
75.4638383479605181
 30
0.0
 11
3951.5644352123708813
 21
75.6193944684605128
 31
0.0
  0
LINE
  5
8A0E
  8
0
 10
3951.5152226139712184
 20
75.422544283866003
 30
0.0
 11
3951.5644352123708813
 21
75.4638383479605181
 31
0.0
  0
LINE
  5
8A0F
  8
0
 10
3951.5152226139712184
 20
75.422544283866003
 30
0.0
 11
3951.5152226139712184
 21
75.0091584527513646
 31
0.0
  0
LINE
  5
8A10
  8
0
 10
3951.5152226139712184
 20
75.0091584527513646
 30
0.0
 11
3950.3341202517699458
 21
75.0091584527513646
 31
0.0
  0
LINE
  5
8A11
  8
0
 10
3951.3459312753711856
 20
74.9422291890481915
 30
0.0
 11
3951.3459312753711856
 21
75.0091584527513646
 31
0.0
  0
LINE
  5
8A12
  8
0
 10
3949.7437090466710288
 20
76.2876551531376919
 30
0.0
 11
3949.7337265509709141
 21
76.8595519488605134
 31
0.0
  0
ARC
  5
8A13
  8
0
 10
3949.8027551703708014
 20
76.288685807060503
 30
0.0
 40
0.059055118099997
 50
180.9999999998800035
 51
270.0
  0
LINE
  5
8A14
  8
0
 10
3950.1670277236539732
 20
76.170077792545257
 30
0.0
 11
3950.1766399367711529
 21
75.6193944684605128
 31
0.0
  0
ARC
  5
8A15
  8
0
 10
3950.1079288932551208
 20
76.1705373578147089
 30
0.0
 40
0.0591006172107849
 50
359.5544646239515032
 51
89.1003105989902764
  0
LINE
  5
8A16
  8
0
 10
3950.2849076533711923
 20
75.4638383479605181
 30
0.0
 11
3950.2849076533711923
 21
75.6193944684605128
 31
0.0
  0
LINE
  5
8A17
  8
0
 10
3950.3341202517699458
 20
75.422544283866003
 30
0.0
 11
3950.2849076533711923
 21
75.4638383479605181
 31
0.0
  0
LINE
  5
8A18
  8
0
 10
3950.3341202517699458
 20
75.422544283866003
 30
0.0
 11
3950.3341202517699458
 21
75.0091584527513646
 31
0.0
  0
LINE
  5
8A19
  8
0
 10
3950.5034115903699785
 20
74.9422291890481915
 30
0.0
 11
3950.5034115903699785
 21
75.0091584527513646
 31
0.0
  0
LINE
  5
8A1A
  8
0
 10
3949.2284727907699562
 20
74.9619147722605135
 30
0.0
 11
3949.2284724841279058
 21
73.9094212902539027
 31
0.0
  0
LINE
  5
8A1B
  8
0
 10
3951.5842782051709037
 20
74.9619147722605135
 30
0.0
 11
3956.1428831245211768
 21
74.9619147722605135
 31
0.0
  0
LINE
  5
8A1C
  8
0
 10
3956.1428831245211768
 20
74.9619147722605135
 30
0.0
 11
3956.1428831245211768
 21
74.9422291890481915
 31
0.0
  0
LINE
  5
8A1D
  8
0
 10
3951.5842782051709037
 20
74.9619147722605135
 30
0.0
 11
3951.5842782051709037
 21
74.9422291890481915
 31
0.0
  0
LINE
  5
8A1E
  8
0
 10
3950.2373712543899273
 20
74.9619147722605135
 30
0.0
 11
3949.2284727907699562
 21
74.9619147722605135
 31
0.0
  0
LINE
  5
8A1F
  8
0
 10
3950.2373712543899273
 20
74.9422291890481915
 30
0.0
 11
3950.2373712543899273
 21
74.9619147722605135
 31
0.0
  0
LINE
  5
8A20
  8
0
 10
3954.4679791506709989
 20
72.0153066373052155
 30
0.0
 11
3954.4679791506709989
 21
68.8897357596780893
 31
0.0
  0
LINE
  5
8A21
  8
0
 10
3953.2868774203338944
 20
72.0153062241442967
 30
0.0
 11
3953.2868774203338944
 21
68.889735330742738
 31
0.0
  0
ARC
  5
8A22
  8
0
 10
3954.9991791506708978
 20
72.0153066373052155
 30
0.0
 40
0.5312000000000001
 50
90.0
 51
180.0
  0
LINE
  5
8A23
  8
0
 10
3952.7556774203339955
 20
72.5465062241442951
 30
0.0
 11
3950.5356030400789678
 21
72.5465062241442951
 31
0.0
  0
ARC
  5
8A24
  8
0
 10
3952.7556774203339955
 20
72.0153062241442967
 30
0.0
 40
0.5312000000000001
 50
0.0
 51
90.0
  0
LINE
  5
8A25
  8
0
 10
3953.2868774203338944
 20
71.4908690824964026
 30
0.0
 11
3951.0488797515740771
 21
72.5465062241442951
 31
0.0
  0
LINE
  5
8A26
  8
0
 10
3952.3409342382560681
 20
72.5465062241442951
 30
0.0
 11
3953.2794593306748538
 21
72.1037706260257778
 31
0.0
  0
CIRCLE
  5
8A27
  8
0
 10
3953.8774273383710351
 20
71.5170381752605095
 30
0.0
 40
0.2755905511999997
  0
LINE
  5
8A28
  8
0
 10
3954.3892791836460674
 20
68.8110357596781057
 30
0.0
 11
3953.3655774533099247
 21
68.8110353307427403
 31
0.0
  0
ARC
  5
8A29
  8
0
 10
3954.3892791506709727
 20
68.8897357596780751
 30
0.0
 40
0.0787
 50
270.0000240071727831
 51
0.0000000000048853
  0
ARC
  5
8A2A
  8
0
 10
3953.3655774203339206
 20
68.889735330742738
 30
0.0
 40
0.0787
 50
180.0
 51
270.0000240071727831
  0
LINE
  5
8A2B
  8
0
 10
3949.1457556568079781
 20
73.8108186192880282
 30
0.0
 11
3949.1893174175697823
 21
72.8706165761075937
 31
0.0
  0
LINE
  5
8A2C
  8
0
 10
3950.2737015567900016
 20
73.8446736686910015
 30
0.0
 11
3950.2866391002780802
 21
72.9030113920154008
 31
0.0
  0
ARC
  5
8A2D
  8
0
 10
3949.7334354785821233
 20
73.0378503891397202
 30
0.0
 40
1.007285193694603
 50
60.1935404198546209
 51
123.2446276631711015
  0
ARC
  5
8A2E
  8
0
 10
3949.2243713204829874
 20
73.8144610669491783
 30
0.0
 40
0.0787
 50
123.244627663204696
 51
182.6527504169918075
  0
ARC
  5
8A2F
  8
0
 10
3950.1950089835017934
 20
73.8435925076269655
 30
0.0
 40
0.0787
 50
0.7871399564957202
 51
60.1935404198219004
  0
ARC
  5
8A30
  8
0
 10
3948.763965685239782
 20
72.9376833404959939
 30
0.0
 40
0.4306066036211603
 50
323.6150382733832771
 51
351.0397324698062107
  0
ARC
  5
8A31
  8
0
 10
3947.7159976597099558
 20
73.6669556672233341
 30
0.0
 40
1.707232540544134
 50
302.3570318697315997
 51
324.7750485641905129
  0
ARC
  5
8A32
  8
0
 10
3950.2715373001419721
 20
69.5839089058197686
 30
0.0
 40
3.1096584360274711
 50
121.8691271548693038
 51
135.4299615465342868
  0
ARC
  5
8A33
  8
0
 10
3948.6413413361287894
 20
71.1410616365365911
 30
0.0
 40
0.8562432680139339
 50
133.1050181444580005
 51
178.7306814675766873
  0
ARC
  5
8A34
  8
0
 10
3948.7992676098638185
 20
71.3074382205248014
 30
0.0
 40
1.0246185507293371
 50
188.2716925251386044
 51
238.3119582272024104
  0
ARC
  5
8A35
  8
0
 10
3949.6060397850210393
 20
72.7337796014983553
 30
0.0
 40
2.6628541227406042
 50
239.6622434663530896
 51
268.293146092972222
  0
ARC
  5
8A36
  8
0
 10
3949.7090334493159389
 20
73.5470145460113542
 30
0.0
 40
3.479686648413542
 50
266.9967647273733178
 51
272.009025932371685
  0
ARC
  5
8A37
  8
0
 10
3949.7401055507948513
 20
73.4116668356380444
 30
0.0
 40
3.3434363469545412
 50
271.5581843401590731
 51
284.4498658050356994
  0
ARC
  5
8A38
  8
0
 10
3950.0610882913979367
 20
72.3372436864422212
 30
0.0
 40
2.2233159647070351
 50
283.3487544134713971
 51
308.9165699907940166
  0
ARC
  5
8A39
  8
0
 10
3950.8694542848111269
 20
71.3347309458063705
 30
0.0
 40
0.9354938409602661
 50
308.9660639243704736
 51
346.7197751091655959
  0
ARC
  5
8A3A
  8
0
 10
3947.5662257903641148
 20
71.6577957623111246
 30
0.0
 40
4.2479072796843003
 50
352.7244486247672057
 51
354.3683417018716
  0
ARC
  5
8A3B
  8
0
 10
3951.0096506932609373
 20
71.2246883804145483
 30
0.0
 40
0.7841474881292501
 50
1.1873160613243401
 51
33.5790602832511311
  0
ARC
  5
8A3C
  8
0
 10
3949.983531501869038
 20
70.361469471260321
 30
0.0
 40
2.1218916695370198
 50
37.677023780279022
 51
60.7319157335454278
  0
ARC
  5
8A3D
  8
0
 10
3946.8072885600331574
 20
65.1754060844693868
 30
0.0
 40
8.2021419965261604
 50
59.0878667642966704
 51
60.4330740495332677
  0
ARC
  5
8A3E
  8
0
 10
3951.6879477932770897
 20
73.763932443499499
 30
0.0
 40
1.676312927170013
 50
218.2925540366562984
 51
240.1877299143085054
  0
ARC
  5
8A3F
  8
0
 10
3950.7045166198558945
 20
72.9946906498643955
 30
0.0
 40
0.4278162078383143
 50
192.3742223960896069
 51
219.0512655234410886
  0
ARC
  5
8A40
  8
0
 10
3948.7714152389671654
 20
70.6814856939813012
 30
0.0
 40
0.9220547838436189
 50
190.3625240723330023
 51
234.980477037173614
  0
ARC
  5
8A41
  8
0
 10
3949.3798147982770388
 20
71.4382078687192177
 30
0.0
 40
1.8919937042331609
 50
233.0418677691183973
 51
257.2879125980588242
  0
ARC
  5
8A42
  8
0
 10
3949.7334341913438038
 20
72.6725609828766039
 30
0.0
 40
3.1747521745283138
 50
255.9643909876901944
 51
271.7614507511000284
  0
ARC
  5
8A43
  8
0
 10
3949.7595175216670214
 20
72.6321603309500432
 30
0.0
 40
3.1336672233641849
 50
271.3074711817657203
 51
289.1461752968177166
  0
ARC
  5
8A44
  8
0
 10
3950.0397625432551649
 20
71.723910798858924
 30
0.0
 40
2.1839945378265742
 50
290.0157173378549942
 51
309.0422262283018995
  0
ARC
  5
8A45
  8
0
 10
3950.8215119049250461
 20
70.7599841465094528
 30
0.0
 40
0.9429116817764349
 50
309.0422262283018995
 51
335.4749232098591278
  0
ARC
  5
8A46
  8
0
 10
3950.9284634392629414
 20
70.7111869814601732
 30
0.0
 40
0.8253540618026505
 50
335.4749232098587868
 51
357.4706429456302885
  0
LINE
  5
8A47
  8
0
 10
3951.7530133923269204
 20
70.6747630575185894
 30
0.0
 11
3951.7936298211111534
 21
71.2409367722118532
 31
0.0
  0
LINE
  5
8A48
  8
0
 10
3947.864401436675962
 20
70.5156213311313564
 30
0.0
 11
3947.7853081774701423
 21
71.1600291164722591
 31
0.0
  0
ARC
  5
8A4A
  8
0
 10
3958.01325385427117
 20
72.6941982368605295
 30
0.0
 40
0.0787401575000133
 50
270.0000177863083195
 51
317.9226379178982143
  0
ARC
  5
8A4B
  8
0
 10
3958.1593642265961535
 20
72.5622822084728796
 30
0.0
 40
0.1181102411445377
 50
132.0980463448281057
 51
137.9226379178984985
  0
ARC
  5
8A4C
  8
0
 10
3958.0132538545058196
 20
74.2768754029058016
 30
0.0
 40
0.0787401567400927
 50
42.0773618084656107
 51
89.9999823848477121
  0
ARC
  5
8A4D
  8
0
 10
3958.1593642221100708
 20
74.4087914257640932
 30
0.0
 40
0.1181102346945827
 50
222.0773618084656107
 51
266.2868006725842065
  0
ARC
  5
8A4E
  8
0
 10
3958.0994464427840285
 20
73.4855368540300731
 30
0.0
 40
0.8070865792358297
 50
67.2493986396627577
 51
86.2868006725841781
  0
LINE
  5
8A4F
  8
0
 10
3958.9032283612918945
 20
74.3953566606129613
 30
0.0
 11
3958.9026103830869943
 21
74.4067966620605432
 31
0.0
  0
LINE
  5
8A50
  8
0
 10
3958.6372696024218385
 20
74.406796662059719
 30
0.0
 11
3958.9325451927188624
 21
74.4067966620606285
 31
0.0
  0
LINE
  5
8A51
  8
0
 10
3958.6672044077649844
 20
74.4067966620598185
 30
0.0
 11
3958.6669549361467944
 21
74.4021791914137367
 31
0.0
  0
ARC
  5
8A52
  8
0
 10
3958.7849073975698957
 20
74.2884403627605252
 30
0.0
 40
0.1892224408999948
 50
38.7179883961830029
 51
141.2820116041592939
  0
ENDSEC
  0
EOF
