  0
SECTION
  2
HEADER
  9
$ACADVER
  1
AC1009
  9
$INSBASE
 10
4018.2908965968608754
 20
59.4436524502800125
 30
0.0
  9
$EXTMIN
 10
4012.0456922549069532
 20
49.219566882586399
 30
-0.0000000000000058
  9
$EXTMAX
 10
4032.6745964905207984
 20
59.443812610240002
 30
0.0000000000000104
  9
$LIMMIN
 10
0.0
 20
0.0
  9
$LIMMAX
 10
11.6929133858000007
 20
8.2677165353999982
  9
$ORTHOMODE
 70
     0
  9
$REGENMODE
 70
     1
  9
$FILLMODE
 70
     1
  9
$QTEXTMODE
 70
     0
  9
$MIRRTEXT
 70
     0
  9
$DRAGMODE
 70
     2
  9
$LTSCALE
 40
0.6431102362
  9
$OSMODE
 70
  4095
  9
$ATTMODE
 70
     1
  9
$TEXTSIZE
 40
0.2
  9
$TRACEWID
 40
0.05
  9
$TEXTSTYLE
  7
STANDARD
  9
$CLAYER
  8
0
  9
$CELTYPE
  6
BYLAYER
  9
$CECOLOR
 62
   256
  9
$DIMSCALE
 40
1.0
  9
$DIMASZ
 40
0.1875
  9
$DIMEXO
 40
0.0625
  9
$DIMDLI
 40
0.4443307087
  9
$DIMRND
 40
0.0
  9
$DIMDLE
 40
0.0
  9
$DIMEXE
 40
0.125
  9
$DIMTP
 40
0.01
  9
$DIMTM
 40
0.01
  9
$DIMTXT
 40
2.0
  9
$DIMCEN
 40
0.1052362205
  9
$DIMTSZ
 40
0.0
  9
$DIMTOL
 70
     1
  9
$DIMLIM
 70
     0
  9
$DIMTIH
 70
     1
  9
$DIMTOH
 70
     1
  9
$DIMSE1
 70
     0
  9
$DIMSE2
 70
     0
  9
$DIMTAD
 70
     0
  9
$DIMZIN
 70
     0
  9
$DIMBLK
  1

  9
$DIMASO
 70
     1
  9
$DIMSHO
 70
     1
  9
$DIMPOST
  1
\X
  9
$DIMAPOST
  1

  9
$DIMALT
 70
     1
  9
$DIMALTD
 70
     2
  9
$DIMALTF
 40
25.3999999999999986
  9
$DIMLFAC
 40
1.0
  9
$DIMTOFL
 70
     0
  9
$DIMTVP
 40
0.0
  9
$DIMTIX
 70
     0
  9
$DIMSOXD
 70
     0
  9
$DIMSAH
 70
     0
  9
$DIMBLK1
  1

  9
$DIMBLK2
  1

  9
$DIMSTYLE
  2
STANDARD
  9
$DIMCLRD
 70
     0
  9
$DIMCLRE
 70
     0
  9
$DIMCLRT
 70
     0
  9
$DIMTFAC
 40
1.0
  9
$DIMGAP
 40
0.09
  9
$LUNITS
 70
     2
  9
$LUPREC
 70
     4
  9
$SKETCHINC
 40
0.1
  9
$FILLETRAD
 40
0.0
  9
$AUNITS
 70
     0
  9
$AUPREC
 70
     0
  9
$MENU
  1
.
  9
$ELEVATION
 40
0.0
  9
$PELEVATION
 40
0.0
  9
$THICKNESS
 40
0.0
  9
$LIMCHECK
 70
     0
  9
$BLIPMODE
 70
     0
  9
$CHAMFERA
 40
0.0
  9
$CHAMFERB
 40
0.0
  9
$SKPOLY
 70
     0
  9
$TDCREATE
 40
2458060.468368056230247
  9
$TDUPDATE
 40
2459121.4675115738064051
  9
$TDINDWG
 40
0.4286065972
  9
$TDUSRTIMER
 40
0.4286065972
  9
$USRTIMER
 70
     1
  9
$ANGBASE
 50
0.0
  9
$ANGDIR
 70
     0
  9
$PDMODE
 70
     0
  9
$PDSIZE
 40
0.3125
  9
$PLINEWID
 40
0.0
  9
$COORDS
 70
     1
  9
$SPLFRAME
 70
     0
  9
$SPLINETYPE
 70
     6
  9
$SPLINESEGS
 70
     8
  9
$ATTDIA
 70
     1
  9
$ATTREQ
 70
     1
  9
$HANDLING
 70
     1
  9
$HANDSEED
  5
9DE1
  9
$SURFTAB1
 70
     6
  9
$SURFTAB2
 70
     6
  9
$SURFTYPE
 70
     6
  9
$SURFU
 70
     6
  9
$SURFV
 70
     6
  9
$UCSNAME
  2

  9
$UCSORG
 10
0.0
 20
0.0
 30
0.0
  9
$UCSXDIR
 10
1.0
 20
0.0
 30
0.0
  9
$UCSYDIR
 10
0.0
 20
1.0
 30
0.0
  9
$PUCSNAME
  2

  9
$PUCSORG
 10
0.0
 20
0.0
 30
0.0
  9
$PUCSXDIR
 10
1.0
 20
0.0
 30
0.0
  9
$PUCSYDIR
 10
0.0
 20
1.0
 30
0.0
  9
$USERI1
 70
     0
  9
$USERI2
 70
     0
  9
$USERI3
 70
     0
  9
$USERI4
 70
     0
  9
$USERI5
 70
     0
  9
$USERR1
 40
0.0
  9
$USERR2
 40
0.0
  9
$USERR3
 40
0.0
  9
$USERR4
 40
0.0
  9
$USERR5
 40
0.0
  9
$WORLDVIEW
 70
     1
  9
$SHADEDGE
 70
     3
  9
$SHADEDIF
 70
    70
  9
$TILEMODE
 70
     1
  9
$MAXACTVP
 70
    64
  9
$PLIMCHECK
 70
     0
  9
$PEXTMIN
 10
1.0000000000000000E+20
 20
1.0000000000000000E+20
 30
1.0000000000000000E+20
  9
$PEXTMAX
 10
-1.0000000000000000E+20
 20
-1.0000000000000000E+20
 30
-1.0000000000000000E+20
  9
$PLIMMIN
 10
0.0
 20
0.0
  9
$PLIMMAX
 10
12.0
 20
9.0
  9
$UNITMODE
 70
     0
  9
$VISRETAIN
 70
     1
  9
$PLINEGEN
 70
     0
  9
$PSLTSCALE
 70
     1
  0
ENDSEC
  0
SECTION
  2
TABLES
  0
TABLE
  2
VPORT
 70
     1
  0
VPORT
  2
*ACTIVE
 70
     0
 10
0.0
 20
0.0
 11
1.0
 21
1.0
 12
230.0022342164639042
 22
-65.8489666866922647
 13
0.0
 23
0.0
 14
1.0
 24
1.0
 15
0.0
 25
0.0
 16
0.0
 26
0.0
 36
5.1040778033513332
 17
3792.35791015625
 27
120.1806564331053977
 37
0.0
 40
10.3450045354605304
 41
2.6528599605522678
 42
50.0
 43
0.0
 44
0.0
 50
0.0
 51
0.0
 71
     0
 72
   100
 73
     1
 74
     1
 75
     0
 76
     0
 77
     0
 78
     0
  0
ENDTAB
  0
TABLE
  2
LTYPE
 70
     2
  0
LTYPE
  2
CONTINUOUS
 70
     0
  3
Solid line
 72
    65
 73
     0
 40
0.0
  0
LTYPE
  2
PHANTOM2
 70
     0
  3
___ _ _ ___ _ _ ___ _ _ ___ _ _
 72
    65
 73
     6
 40
1.25
 49
0.625
 49
-0.125
 49
0.125
 49
-0.125
 49
0.125
 49
-0.125
  0
ENDTAB
  0
TABLE
  2
LAYER
 70
     2
  0
LAYER
  2
0
 70
     0
 62
   255
  6
CONTINUOUS
  0
LAYER
  2
DEFPOINTS
 70
     0
 62
     7
  6
CONTINUOUS
  0
ENDTAB
  0
TABLE
  2
STYLE
 70
     1
  0
STYLE
  2
STANDARD
 70
     0
 40
0.0
 41
0.8
 50
0.0
 71
     0
 42
0.2
  3
txt
  4

  0
ENDTAB
  0
TABLE
  2
VIEW
 70
     0
  0
ENDTAB
  0
TABLE
  2
UCS
 70
     0
  0
ENDTAB
  0
TABLE
  2
APPID
 70
     9
  0
APPID
  2
ACAD
 70
     0
  0
APPID
  2
ACAD_MLEADERVER
 70
     0
  0
APPID
  2
ACAD_EXEMPT_FROM_CAD_STANDARDS
 70
     0
  0
APPID
  2
ACAD_NAV_VCDISPLAY
 70
     0
  0
APPID
  2
ACAECLAYERSTANDARD
 70
     0
  0
APPID
  2
ACCMTRANSPARENCY
 70
     0
  0
APPID
  2
ACAD_DSTYLE_DIMJAG
 70
     0
  0
APPID
  2
ACAD_DSTYLE_DIMTALN
 70
     0
  0
APPID
  2
ACDBATTR
 70
     0
  0
ENDTAB
  0
TABLE
  2
DIMSTYLE
 70
     1
  0
DIMSTYLE
  2
STANDARD
 70
     0
  3

  4

  5

  6

  7

 40
1.0
 41
0.1875
 42
0.0625
 43
0.38
 44
0.125
 45
0.0
 46
0.0
 47
0.01
 48
0.01
140
0.15625
141
0.09
142
0.0
143
25.3999999999999986
144
1.0
145
0.0
146
1.0
147
0.09
 71
     1
 72
     0
 73
     1
 74
     1
 75
     0
 76
     0
 77
     0
 78
     4
170
     0
171
     2
172
     0
173
     0
174
     0
175
     0
176
     0
177
     0
178
     0
  0
ENDTAB
  0
ENDSEC
  0
SECTION
  2
BLOCKS
  0
BLOCK
  8
0
  2
$MODEL_SPACE
 70
     0
 10
0.0
 20
0.0
 30
0.0
  3
$MODEL_SPACE
  1

  0
ENDBLK
  5
21
  8
0
  0
BLOCK
 67
     1
  8
0
  2
$PAPER_SPACE
 70
     0
 10
0.0
 20
0.0
 30
0.0
  3
$PAPER_SPACE
  1

  0
ENDBLK
  5
1D
 67
     1
  8
0
  0
ENDSEC
  0
SECTION
  2
ENTITIES
  0
ATTDEF
  5
3930
  8
DEFPOINTS
 10
4018.2859715283198057
 20
59.4387124068334671
 30
0.0
 40
0.001
  1
K-72668T-4
  3

  2
MODELNUMBER
 70
     0
1001
ACDBATTR
1070
     0
1070
     1
  0
ATTDEF
  5
3931
  8
DEFPOINTS
 10
4018.2859715283198057
 20
59.4370457401668091
 30
0.0
 40
0.001
  1
SINGULIER
  3

  2
TRADENAME
 70
     0
1001
ACDBATTR
1070
     0
1070
     1
  0
ATTDEF
  5
3932
  8
DEFPOINTS
 10
4018.2859715283198057
 20
59.4353790735001368
 30
0.0
 40
0.001
  1
BATH AND SHOWER FAUCET
  3

  2
PRODUCT
 70
     0
1001
ACDBATTR
1070
     0
1070
     1
  0
LINE
  5
9C60
  8
0
 10
4012.1345643131858196
 20
56.9020184006387524
 30
0.0
 11
4012.1345643131858196
 21
55.2960168213836596
 31
0.0
  0
LINE
  5
9C61
  8
0
 10
4014.0833832764860745
 20
56.9374184006387623
 30
0.0
 11
4014.0833832764860745
 21
55.0598168213836487
 31
0.0
  0
LINE
  5
9C62
  8
0
 10
4014.130629167483221
 20
55.0952168213836586
 30
0.0
 11
4014.130629167483221
 21
56.9020184006387595
 31
0.0
  0
LINE
  5
9C63
  8
0
 10
4012.370764313185191
 20
55.0598168213836487
 30
0.0
 11
4012.5185633653468358
 21
55.0598168213836487
 31
0.0
  0
LINE
  5
9C64
  8
0
 10
4013.3964216317058344
 20
55.0598168213836487
 30
0.0
 11
4014.0833832764860745
 21
55.0598168213836487
 31
0.0
  0
LINE
  5
9C65
  8
0
 10
4014.1660291674820655
 20
55.0598168213836487
 30
0.0
 11
4017.1680762315941138
 21
55.0598168213836487
 31
0.0
  0
LINE
  5
9C66
  8
0
 10
4014.5250958705350968
 20
56.937418400638748
 30
0.0
 11
4014.1660291674820655
 21
56.9374184006387623
 31
0.0
  0
LINE
  5
9C67
  8
0
 10
4014.0833832764860745
 20
56.9374184006387623
 30
0.0
 11
4012.1699643131860284
 21
56.937418400638748
 31
0.0
  0
LINE
  5
9C68
  8
0
 10
4014.6284232269667882
 20
57.5735740592836578
 30
0.0
 11
4014.5968506463009362
 21
57.0226879238268225
 31
0.0
  0
LINE
  5
9C69
  8
0
 10
4014.6284232269667882
 20
57.5735740592836578
 30
0.0
 11
4015.8690538093519535
 21
57.5735740592836578
 31
0.0
  0
ARC
  5
9C6A
  8
0
 10
4013.0889498953652037
 20
57.2346222409868872
 30
0.0
 40
1.5227215206550659
 50
350.7476792320455274
 51
351.9995272701702902
  0
ARC
  5
9C6B
  8
0
 10
4014.5300320157439273
 20
56.9998671946217499
 30
0.0
 40
0.0626435742870423
 50
265.4805615071422835
 51
350.7476792320446748
  0
ARC
  5
9C6C
  8
0
 10
4012.1699643131860284
 20
56.9020184006387524
 30
0.0
 40
0.0354
 50
90.0
 51
179.9999999999886029
  0
ARC
  5
9C6D
  8
0
 10
4012.370764313185191
 20
55.2960168213836596
 30
0.0
 40
0.2362
 50
180.0
 51
270.0
  0
ARC
  5
9C6E
  8
0
 10
4012.9574924985267899
 20
54.6114943548822325
 30
0.0
 40
0.6167493643097833
 50
48.0141561424045378
 51
131.9858438575957109
  0
ARC
  5
9C6F
  8
0
 10
4012.5185633653468358
 20
55.0992168213836493
 30
0.0
 40
0.0394
 50
270.0
 51
311.9858438575953983
  0
ARC
  5
9C70
  8
0
 10
4013.3964216317058344
 20
55.0992168213834006
 30
0.0
 40
0.0394
 50
228.0141561422194911
 51
270.0000000000782165
  0
LINE
  5
9C71
  8
0
 10
4017.7003440949110882
 20
51.4031545137871078
 30
0.0
 11
4017.7003440949110882
 21
54.5279531294306992
 31
0.0
  0
LINE
  5
9C72
  8
0
 10
4017.7789440949109121
 20
51.3245545137871204
 30
0.0
 11
4018.8028490988099293
 21
51.3245545137871204
 31
0.0
  0
ARC
  5
9C73
  8
0
 10
4017.7789440949109121
 20
51.4031545137871078
 30
0.0
 40
0.0786
 50
180.0
 51
270.0
  0
ARC
  5
9C74
  8
0
 10
4017.1684292008990269
 20
54.5279020420309308
 30
0.0
 40
0.5319148964648147
 50
0.0055029336774608
 51
90.038020467453407
  0
ARC
  5
9C75
  8
0
 10
4014.1660291674820655
 20
55.0952168213836586
 30
0.0
 40
0.0354
 50
180.0000000000171099
 51
270.0
  0
ARC
  5
9C76
  8
0
 10
4014.1660291674820655
 20
56.9020184006387595
 30
0.0
 40
0.0354
 50
90.0
 51
180.0
  0
LINE
  5
9C77
  8
0
 10
4014.130629167483221
 20
55.1897158319026317
 30
0.0
 11
4014.0833832764860745
 21
55.1897158319026317
 31
0.0
  0
LINE
  5
9C78
  8
0
 10
4014.130629167483221
 20
56.8078260680927869
 30
0.0
 11
4014.0833832764860745
 21
56.8078260680927869
 31
0.0
  0
LINE
  5
9C79
  8
0
 10
4014.0389274500189458
 20
59.4436524502800125
 30
0.0
 11
4016.6373525709518617
 21
59.4436524502800125
 31
0.0
  0
LINE
  5
9C7A
  8
0
 10
4014.0389274500189458
 20
58.695580721160411
 30
0.0
 11
4014.0389274500189458
 21
59.4436524502800125
 31
0.0
  0
LINE
  5
9C7B
  8
0
 10
4014.117627450018972
 20
58.6168807211604133
 30
0.0
 11
4016.5586525709518355
 21
58.6168807211604133
 31
0.0
  0
LINE
  5
9C7C
  8
0
 10
4014.5507385245568912
 20
58.2231949374776221
 30
0.0
 11
4014.5507385245568912
 21
58.5374685537918893
 31
0.0
  0
LINE
  5
9C7D
  8
0
 10
4014.5704385245571757
 20
58.2034949374776218
 30
0.0
 11
4016.1058414964140866
 21
58.2034949374776218
 31
0.0
  0
LINE
  5
9C7E
  8
0
 10
4014.7082188711087838
 20
57.6129437544782874
 30
0.0
 11
4014.7082188711087838
 21
58.0263295596015567
 31
0.0
  0
LINE
  5
9C7F
  8
0
 10
4014.7082188711087838
 20
58.0263295596015567
 30
0.0
 11
4014.6294786941671191
 21
58.0924004026361729
 31
0.0
  0
LINE
  5
9C80
  8
0
 10
4014.6294786941671191
 20
58.0924004026361729
 30
0.0
 11
4014.6294786941671191
 21
58.2034949374776218
 31
0.0
  0
LINE
  5
9C81
  8
0
 10
4014.7082188711087838
 20
57.6129437544782874
 30
0.0
 11
4015.9680611498620237
 21
57.6129437544782874
 31
0.0
  0
LINE
  5
9C82
  8
0
 10
4014.7082188711087838
 20
57.6326287918029934
 30
0.0
 11
4015.9680611498620237
 21
57.6326287918029934
 31
0.0
  0
ARC
  5
9C83
  8
0
 10
4014.5704385245571757
 20
58.2231949374776221
 30
0.0
 40
0.0197
 50
180.0
 51
270.0
  0
ARC
  5
9C84
  8
0
 10
4014.4716231482589137
 20
58.5378024510915225
 30
0.0
 40
0.0791160808826505
 50
359.7581912218353182
 51
88.228543234124615
  0
ARC
  5
9C85
  8
0
 10
4014.117627450018972
 20
58.695580721160411
 30
0.0
 40
0.0787
 50
180.0
 51
270.0
  0
LINE
  5
9C86
  8
0
 10
4016.6373525709518617
 20
58.695580721160411
 30
0.0
 11
4016.6373525709518617
 21
59.4436524502800125
 31
0.0
  0
LINE
  5
9C87
  8
0
 10
4016.1255414964130068
 20
58.2231949374776221
 30
0.0
 11
4016.1255414964130068
 21
58.5374685537918893
 31
0.0
  0
LINE
  5
9C88
  8
0
 10
4015.9680611498620237
 20
57.6129437544782874
 30
0.0
 11
4015.9680611498620237
 21
58.0263295596015567
 31
0.0
  0
LINE
  5
9C89
  8
0
 10
4015.9680611498620237
 20
58.0263295596015567
 30
0.0
 11
4016.0468013268041432
 21
58.0924004026361729
 31
0.0
  0
LINE
  5
9C8A
  8
0
 10
4016.0468013268041432
 20
58.0924004026361729
 30
0.0
 11
4016.0468013268041432
 21
58.2034949374776218
 31
0.0
  0
ARC
  5
9C8B
  8
0
 10
4016.1058414964140866
 20
58.2231949374776221
 30
0.0
 40
0.0197
 50
270.0
 51
0.0
  0
ARC
  5
9C8C
  8
0
 10
4016.2046568727109843
 20
58.5378024510915225
 30
0.0
 40
0.0791160808826505
 50
91.771456765875385
 51
180.2418087781647102
  0
ARC
  5
9C8D
  8
0
 10
4016.5586525709518355
 20
58.695580721160411
 30
0.0
 40
0.0787
 50
270.0
 51
0.0
  0
LINE
  5
9C8E
  8
0
 10
4014.9149118466330037
 20
57.6129437544782874
 30
0.0
 11
4014.9149118466330037
 21
57.5735740592836578
 31
0.0
  0
LINE
  5
9C8F
  8
0
 10
4015.76136853844082
 20
57.5735740592836578
 30
0.0
 11
4015.76136853844082
 21
57.6129437544782874
 31
0.0
  0
LINE
  5
9C90
  8
0
 10
4015.8696462505981799
 20
57.5932462660844635
 30
0.0
 11
4020.7121469431240257
 21
57.5932462660844635
 31
0.0
  0
LINE
  5
9C91
  8
0
 10
4015.8696462505981799
 20
57.5932462660844635
 30
0.0
 11
4015.8690538093519535
 21
57.5735740592836578
 31
0.0
  0
LINE
  5
9C92
  8
0
 10
4016.5979827097849011
 20
57.6129570993836566
 30
0.0
 11
4016.834203182184865
 21
57.6129570993836566
 31
0.0
  0
LINE
  5
9C93
  8
0
 10
4016.834203182184865
 20
57.6129570993836566
 30
0.0
 11
4016.834203182184865
 21
57.593272060083649
 31
0.0
  0
LINE
  5
9C94
  8
0
 10
4016.5979827097849011
 20
57.593272060083649
 30
0.0
 11
4016.5979827097849011
 21
57.6129570993836566
 31
0.0
  0
LINE
  5
9C95
  8
0
 10
4015.3381634175389081
 20
56.6613996494781418
 30
0.0
 11
4021.2436297761819333
 21
56.6613996494781418
 31
0.0
  0
ARC
  5
9C96
  8
0
 10
4001.3688634134241511
 20
21.5092057111058317
 30
0.0
 40
37.826156046919472
 50
68.3273831149180211
 51
69.5673360348524454
  0
LINE
  5
9C97
  8
0
 10
4024.4472288805359312
 20
56.9020184006387524
 30
0.0
 11
4024.4472288805359312
 21
55.2960168213836596
 31
0.0
  0
LINE
  5
9C98
  8
0
 10
4022.4984099172352217
 20
56.9374184006387623
 30
0.0
 11
4022.4984099172352217
 21
55.0598168213836487
 31
0.0
  0
LINE
  5
9C99
  8
0
 10
4022.4511640262389847
 20
55.0952168213836586
 30
0.0
 11
4022.4511640262389847
 21
56.9020184006387595
 31
0.0
  0
LINE
  5
9C9A
  8
0
 10
4024.2110288805361051
 20
55.0598168213836487
 30
0.0
 11
4024.0632298283740056
 21
55.0598168213836487
 31
0.0
  0
LINE
  5
9C9B
  8
0
 10
4023.1853715620150069
 20
55.0598168213836487
 30
0.0
 11
4022.4984099172352217
 21
55.0598168213836487
 31
0.0
  0
LINE
  5
9C9C
  8
0
 10
4022.4157640262387758
 20
55.0598168213836487
 30
0.0
 11
4019.4137169621280918
 21
55.0598168213836487
 31
0.0
  0
LINE
  5
9C9D
  8
0
 10
4022.0566973231861994
 20
56.937418400638748
 30
0.0
 11
4022.4157640262387758
 21
56.9374184006387623
 31
0.0
  0
LINE
  5
9C9E
  8
0
 10
4022.4984099172352217
 20
56.9374184006387623
 30
0.0
 11
4024.4118288805361772
 21
56.937418400638748
 31
0.0
  0
LINE
  5
9C9F
  8
0
 10
4021.9533699667540532
 20
57.5735740592836578
 30
0.0
 11
4021.9849425474199052
 21
57.0226879238268225
 31
0.0
  0
LINE
  5
9CA0
  8
0
 10
4021.9533699667540532
 20
57.5735740592836578
 30
0.0
 11
4020.7127393843697973
 21
57.5735740592836578
 31
0.0
  0
ARC
  5
9CA1
  8
0
 10
4023.4928432983560924
 20
57.2346222409868872
 30
0.0
 40
1.5227215206550659
 50
188.0004727298297098
 51
189.252320767954501
  0
ARC
  5
9CA2
  8
0
 10
4022.051761177976914
 20
56.9998671946217499
 30
0.0
 40
0.0626435742870423
 50
189.2523207679552968
 51
274.5194384928577165
  0
ARC
  5
9CA3
  8
0
 10
4024.4118288805361772
 20
56.9020184006387524
 30
0.0
 40
0.0354
 50
0.0000000000113991
 51
90.0
  0
ARC
  5
9CA4
  8
0
 10
4024.2110288805361051
 20
55.2960168213836596
 30
0.0
 40
0.2362
 50
270.0
 51
0.0
  0
ARC
  5
9CA5
  8
0
 10
4023.624300695194961
 20
54.6114943548822325
 30
0.0
 40
0.6167493643097833
 50
48.014156142404282
 51
131.9858438575953983
  0
ARC
  5
9CA6
  8
0
 10
4024.0632298283740056
 20
55.0992168213836493
 30
0.0
 40
0.0394
 50
228.014156142404488
 51
270.0
  0
ARC
  5
9CA7
  8
0
 10
4023.1853715620150069
 20
55.0992168213834006
 30
0.0
 40
0.0394
 50
269.9999999999218971
 51
311.9858438577804804
  0
LINE
  5
9CA8
  8
0
 10
4018.8814490988102079
 20
51.4031545137871078
 30
0.0
 11
4018.8814490988102079
 21
54.5279531294306992
 31
0.0
  0
ARC
  5
9CA9
  8
0
 10
4018.8028490988099293
 20
51.4031545137871078
 30
0.0
 40
0.0786
 50
270.0
 51
0.0
  0
ARC
  5
9CAA
  8
0
 10
4019.4133639928218145
 20
54.5279020420309308
 30
0.0
 40
0.5319148964648147
 50
89.9619795325466072
 51
179.9944970663225092
  0
ARC
  5
9CAB
  8
0
 10
4022.4157640262387758
 20
55.0952168213836586
 30
0.0
 40
0.0354
 50
270.0
 51
359.9999999999824922
  0
ARC
  5
9CAC
  8
0
 10
4022.4157640262387758
 20
56.9020184006387595
 30
0.0
 40
0.0354
 50
0.0
 51
90.0
  0
LINE
  5
9CAD
  8
0
 10
4022.4511640262389847
 20
55.1897158319026317
 30
0.0
 11
4022.4984099172352217
 21
55.1897158319026317
 31
0.0
  0
LINE
  5
9CAE
  8
0
 10
4022.4511640262389847
 20
56.8078260680927869
 30
0.0
 11
4022.4984099172352217
 21
56.8078260680927869
 31
0.0
  0
LINE
  5
9CAF
  8
0
 10
4022.5428657437018956
 20
59.4436524502800125
 30
0.0
 11
4019.9444406227698892
 21
59.4436524502800125
 31
0.0
  0
LINE
  5
9CB0
  8
0
 10
4022.5428657437018956
 20
58.695580721160411
 30
0.0
 11
4022.5428657437018956
 21
59.4436524502800125
 31
0.0
  0
LINE
  5
9CB1
  8
0
 10
4022.4641657437018694
 20
58.6168807211604133
 30
0.0
 11
4020.0231406227699154
 21
58.6168807211604133
 31
0.0
  0
LINE
  5
9CB2
  8
0
 10
4022.0310546691639502
 20
58.2231949374776221
 30
0.0
 11
4022.0310546691639502
 21
58.5374685537918893
 31
0.0
  0
LINE
  5
9CB3
  8
0
 10
4022.0113546691641204
 20
58.2034949374776218
 30
0.0
 11
4020.475951697308119
 21
58.2034949374776218
 31
0.0
  0
LINE
  5
9CB4
  8
0
 10
4021.8735743226120576
 20
57.6129437544782874
 30
0.0
 11
4021.8735743226120576
 21
58.0263295596015567
 31
0.0
  0
LINE
  5
9CB5
  8
0
 10
4021.8735743226120576
 20
58.0263295596015567
 30
0.0
 11
4021.9523144995550865
 21
58.0924004026361729
 31
0.0
  0
LINE
  5
9CB6
  8
0
 10
4021.9523144995550865
 20
58.0924004026361729
 30
0.0
 11
4021.9523144995550865
 21
58.2034949374776218
 31
0.0
  0
LINE
  5
9CB7
  8
0
 10
4021.8735743226120576
 20
57.6129437544782874
 30
0.0
 11
4020.6137320438601819
 21
57.6129437544782874
 31
0.0
  0
LINE
  5
9CB8
  8
0
 10
4021.8735743226120576
 20
57.6326287918029934
 30
0.0
 11
4020.6137320438601819
 21
57.6326287918029934
 31
0.0
  0
ARC
  5
9CB9
  8
0
 10
4022.0113546691641204
 20
58.2231949374776221
 30
0.0
 40
0.0197
 50
270.0
 51
0.0
  0
ARC
  5
9CBA
  8
0
 10
4022.1101700454619277
 20
58.5378024510915225
 30
0.0
 40
0.0791160808826505
 50
91.771456765875385
 51
180.2418087781647102
  0
ARC
  5
9CBB
  8
0
 10
4022.4641657437018694
 20
58.695580721160411
 30
0.0
 40
0.0787
 50
270.0
 51
0.0
  0
LINE
  5
9CBC
  8
0
 10
4019.9444406227698892
 20
58.695580721160411
 30
0.0
 11
4019.9444406227698892
 21
59.4436524502800125
 31
0.0
  0
LINE
  5
9CBD
  8
0
 10
4020.4562516973078345
 20
58.2231949374776221
 30
0.0
 11
4020.4562516973078345
 21
58.5374685537918893
 31
0.0
  0
LINE
  5
9CBE
  8
0
 10
4020.6137320438601819
 20
57.6129437544782874
 30
0.0
 11
4020.6137320438601819
 21
58.0263295596015567
 31
0.0
  0
LINE
  5
9CBF
  8
0
 10
4020.6137320438601819
 20
58.0263295596015567
 30
0.0
 11
4020.5349918669171529
 21
58.0924004026361729
 31
0.0
  0
LINE
  5
9CC0
  8
0
 10
4020.5349918669171529
 20
58.0924004026361729
 30
0.0
 11
4020.5349918669171529
 21
58.2034949374776218
 31
0.0
  0
ARC
  5
9CC1
  8
0
 10
4020.475951697308119
 20
58.2231949374776221
 30
0.0
 40
0.0197
 50
180.0
 51
270.0
  0
ARC
  5
9CC2
  8
0
 10
4020.3771363210098571
 20
58.5378024510915225
 30
0.0
 40
0.0791160808826505
 50
359.7581912218353182
 51
88.228543234124615
  0
ARC
  5
9CC3
  8
0
 10
4020.0231406227699154
 20
58.695580721160411
 30
0.0
 40
0.0787
 50
180.0
 51
270.0
  0
LINE
  5
9CC4
  8
0
 10
4021.6668813470901114
 20
57.6129437544782874
 30
0.0
 11
4021.6668813470901114
 21
57.5735740592836578
 31
0.0
  0
LINE
  5
9CC5
  8
0
 10
4020.8204246552809309
 20
57.5735740592836578
 30
0.0
 11
4020.8204246552809309
 21
57.6129437544782874
 31
0.0
  0
LINE
  5
9CC6
  8
0
 10
4020.7121469431240257
 20
57.5932462660844635
 30
0.0
 11
4020.7127393843697973
 21
57.5735740592836578
 31
0.0
  0
ARC
  5
9CC7
  8
0
 10
4035.212929780297145
 20
21.5092057111058317
 30
0.0
 40
37.826156046919472
 50
110.4326639651474977
 51
111.6726168850819931
  0
ARC
  5
9CC8
  8
0
 10
4012.1621245730689225
 20
55.7507595278892083
 30
0.0
 40
0.0314960700041794
 50
187.3096452924741868
 51
208.9505200839880104
  0
ARC
  5
9CC9
  8
0
 10
4014.0957305306669696
 20
55.9987910199468075
 30
0.0
 40
1.9809451255872419
 50
172.6903546938098089
 51
187.3096452924737889
  0
ARC
  5
9CCA
  8
0
 10
4012.1621245703881868
 20
56.2468225128187385
 30
0.0
 40
0.0314960672421202
 50
151.0494789263429993
 51
172.6903546938098089
  0
ARC
  5
9CCB
  8
0
 10
4024.4196686206528284
 20
55.750155987962323
 30
0.0
 40
0.0314960700041794
 50
331.0494799160121033
 51
352.6903547075257848
  0
ARC
  5
9CCC
  8
0
 10
4022.4860626630538718
 20
55.9981874800199293
 30
0.0
 40
1.9809451255872419
 50
352.6903547075261827
 51
7.309645306190208
  0
ARC
  5
9CCD
  8
0
 10
4024.4196686233340188
 20
56.2462189728918531
 30
0.0
 40
0.0314960672421202
 50
7.309645306190208
 51
28.9505210736569794
  0
ARC
  5
9CCE
  8
0
 10
4030.5174175846568687
 20
51.2444660791913407
 30
0.0
 40
2.0190286651054912
 50
257.8569596833402784
 51
270.00251968652492
  0
ARC
  5
9CCF
  8
0
 10
4030.5086478196039934
 20
51.203708184058712
 30
0.0
 40
1.9773379611687369
 50
234.7532851128731863
 51
257.8569596833402784
  0
ARC
  5
9CD0
  8
0
 10
4030.4757993747221008
 20
51.157223054937667
 30
0.0
 40
1.9204179509742969
 50
204.2160758169673045
 51
234.7532851128731863
  0
ARC
  5
9CD1
  8
0
 10
4030.9062365657709961
 20
51.353844529744201
 30
0.0
 40
2.393630432425744
 50
181.6727872518412141
 51
204.2822253745395074
  0
ARC
  5
9CD2
  8
0
 10
4030.4288651256329103
 20
51.2778280300079672
 30
0.0
 40
1.9152487676719869
 50
149.288941784721203
 51
179.8162329872311034
  0
ARC
  5
9CD3
  8
0
 10
4030.6964004428691624
 20
51.1009552465413819
 30
0.0
 40
2.2356470280046321
 50
127.9387707350917935
 51
148.8933821883055089
  0
ARC
  5
9CD4
  8
0
 10
4028.728263069327113
 20
53.6176450166323875
 30
0.0
 40
0.959247031114431
 50
308.2313709879143175
 51
312.7427081961515114
  0
ARC
  5
9CD5
  8
0
 10
4028.3272690710368806
 20
54.1981956565569618
 30
0.0
 40
1.660751289344859
 50
309.3068592248143887
 51
338.787672530330326
  0
ARC
  5
9CD6
  8
0
 10
4028.6768421382630549
 20
54.0809305843786916
 30
0.0
 40
1.2925477246213191
 50
338.0267886222308107
 51
359.9273943025118001
  0
ARC
  5
9CD7
  8
0
 10
4053.9793450296619994
 20
54.3497663700625111
 30
0.0
 40
24.0114796081985205
 50
180.4824972465569886
 51
180.6454133690085087
  0
LINE
  5
9CD8
  8
0
 10
4029.9532004656862227
 20
57.4204082412936785
 30
0.0
 11
4029.9687168158338864
 21
54.1475641142762925
 31
0.0
  0
ARC
  5
9CD9
  8
0
 10
4030.5169597138369681
 20
56.3112310102902001
 30
0.0
 40
1.2807496599307151
 50
89.9755371715098278
 51
102.8822113450898001
  0
ARC
  5
9CDA
  8
0
 10
4030.4938969496361096
 20
56.4120721858961787
 30
0.0
 40
1.1773048254044109
 50
102.8822113450898001
 51
115.1008825789783003
  0
ARC
  5
9CDB
  8
0
 10
4030.0251814348421249
 20
57.4126325431107034
 30
0.0
 40
0.0723997334449182
 50
115.1008825789784993
 51
173.8345678822091998
  0
ARC
  5
9CDC
  8
0
 10
4030.5200118881398339
 20
57.1553816358513629
 30
0.0
 40
0.5342947439421968
 50
90.2686651250883756
 51
122.0607226123865985
  0
ARC
  5
9CDD
  8
0
 10
4030.6998246806369934
 20
56.8682984901192086
 30
0.0
 40
0.8730415120581088
 50
122.0607226123865985
 51
130.4224268980846091
  0
ARC
  5
9CDE
  8
0
 10
4030.5140057557400723
 20
56.9718155689286405
 30
0.0
 40
0.6743460079622411
 50
89.7025546983345237
 51
123.1018589157301051
  0
LINE
  5
9CDF
  8
0
 10
4029.7138552698588683
 20
59.4436536266649824
 30
0.0
 11
4031.3211571753831777
 21
59.4436536266649824
 31
0.0
  0
LINE
  5
9CE0
  8
0
 10
4029.7332940057572159
 20
57.2189298108840987
 30
0.0
 11
4029.7138552698588683
 21
59.4436536266649824
 31
0.0
  0
LINE
  5
9CE1
  8
0
 10
4029.7726925018350812
 20
57.1798740591336525
 30
0.0
 11
4029.8678700526520515
 21
57.1798740591336525
 31
0.0
  0
ARC
  5
9CE2
  8
0
 10
4029.7726925018350812
 20
57.2192740591336602
 30
0.0
 40
0.0394
 50
180.5006147910426932
 51
270.0
  0
LINE
  5
9CE3
  8
0
 10
4029.9072700526521658
 20
57.2192740591336602
 30
0.0
 11
4029.9072700526521658
 21
58.2132418392163871
 31
0.0
  0
LINE
  5
9CE4
  8
0
 10
4029.9151440666819326
 20
57.185367893948623
 30
0.0
 11
4029.9151440666819326
 21
58.2289973479623484
 31
0.0
  0
ARC
  5
9CE5
  8
0
 10
4029.8678700526520515
 20
57.2192740591336602
 30
0.0
 40
0.0394
 50
270.0
 51
0.0000000000105849
  0
ARC
  5
9CE6
  8
0
 10
4029.95455217503104
 20
57.1878636658923725
 30
0.0
 40
0.0394870596685712
 50
183.6237841217345874
 51
269.9100022694249787
  0
LINE
  5
9CE7
  8
0
 10
4029.9269700526519955
 20
58.2329418392163873
 30
0.0
 11
4031.1080430096722012
 21
58.2329418392163873
 31
0.0
  0
ARC
  5
9CE8
  8
0
 10
4029.9269700526519955
 20
58.2132418392163871
 30
0.0
 40
0.0197
 50
90.0
 51
180.0000000000100897
  0
LINE
  5
9CE9
  8
0
 10
4029.9072700526521658
 20
57.4760284982011811
 30
0.0
 11
4029.9151440666819326
 21
57.4750842988133996
 31
0.0
  0
ARC
  5
9CEA
  8
0
 10
4029.9190810043851343
 20
58.1720000510836428
 30
0.0
 40
0.0118110236000187
 50
109.4708596236749969
 51
179.8001264450863061
  0
ARC
  5
9CEB
  8
0
 10
4028.9776734813258372
 20
39.2044404622839977
 30
0.0
 40
18.8407738028723983
 50
87.723079527168963
 51
99.3722779761855435
  0
ARC
  5
9CEC
  8
0
 10
4034.8124200191691671
 20
-4.4320964355240591
 30
0.0
 40
62.8594729659155078
 50
98.1423191968110871
 51
101.7791468024174009
  0
ARC
  5
9CED
  8
0
 10
4029.0062636955499329
 20
40.2945256156302491
 30
0.0
 40
17.2190199934993906
 50
87.5882382512236148
 51
97.3060932965770036
  0
ARC
  5
9CEE
  8
0
 10
4035.4181960736859764
 20
-9.7162372391240055
 30
0.0
 40
67.6391477019477634
 50
97.3060932965770036
 51
99.792506010022592
  0
ARC
  5
9CEF
  8
0
 10
4023.5571256204439123
 20
57.8304628745960088
 30
0.0
 40
0.9390384882633238
 50
251.9932485651528111
 51
288.0067514348472173
  0
ARC
  5
9CF0
  8
0
 10
4030.5184140651649614
 20
51.326714728941198
 30
0.0
 40
2.0521882332219761
 50
255.0582701413744928
 51
269.9746579021318098
  0
ARC
  5
9CF1
  8
0
 10
4030.5059852577269339
 20
51.2801403740923192
 30
0.0
 40
2.0039840240287412
 50
238.6458639793613941
 51
255.0582701413744928
  0
ARC
  5
9CF2
  8
0
 10
4030.4799503987837852
 20
51.2374115536446979
 30
0.0
 40
1.953948376965694
 50
218.387418086269804
 51
238.6458639793613941
  0
ARC
  5
9CF3
  8
0
 10
4030.5586860635221456
 20
51.2743725193828865
 30
0.0
 40
2.038712938913354
 50
198.7715749194670991
 51
217.827528267968404
  0
ARC
  5
9CF4
  8
0
 10
4030.5175952445629264
 20
51.2444660791878732
 30
0.0
 40
2.0190286651054912
 50
269.9974780727101233
 51
282.1430380759953778
  0
ARC
  5
9CF5
  8
0
 10
4030.5263650080228217
 20
51.2037081837122727
 30
0.0
 40
1.9773379611687361
 50
282.1430380759953778
 51
305.2467126464572971
  0
ARC
  5
9CF6
  8
0
 10
4030.5592134510870892
 20
51.1572230533066374
 30
0.0
 40
1.9204179509742969
 50
305.2467126464572971
 51
335.7839219423746044
  0
ARC
  5
9CF7
  8
0
 10
4030.1287820131919943
 20
51.353842608049213
 30
0.0
 40
2.3936243987450672
 50
335.7177580903219223
 51
358.3272526725904754
  0
ARC
  5
9CF8
  8
0
 10
4030.6061507864060331
 20
51.2778293395983127
 30
0.0
 40
1.9152454477399281
 50
0.1837258095244983
 51
30.7110692826036917
  0
ARC
  5
9CF9
  8
0
 10
4030.3386123807390504
 20
51.1009552535373714
 30
0.0
 40
2.2356470280046321
 50
31.1066155710320906
 51
52.061227024249952
  0
ARC
  5
9CFA
  8
0
 10
4032.3067498527020689
 20
53.6176449466606471
 30
0.0
 40
0.959247031114431
 50
227.2572895632065126
 51
231.7686267714294104
  0
ARC
  5
9CFB
  8
0
 10
4032.7077438736951081
 20
54.198195570903593
 30
0.0
 40
1.660751289344859
 50
201.2123252290089113
 51
230.6931385345336025
  0
ARC
  5
9CFC
  8
0
 10
4032.3581708018841709
 20
54.08093051239603
 30
0.0
 40
1.292547724621318
 50
180.0726034568280909
 51
201.9732091371070055
  0
ARC
  5
9CFD
  8
0
 10
4007.0556679209971662
 20
54.3497672875820115
 30
0.0
 40
24.0114796081985205
 50
359.3545843903318087
 51
359.5175005127833856
  0
LINE
  5
9CFE
  8
0
 10
4031.0818126050571664
 20
57.420408219225429
 30
0.0
 11
4031.0662961269181324
 21
54.1475640928148323
 31
0.0
  0
ARC
  5
9CFF
  8
0
 10
4030.5180533135298901
 20
56.3112310102688127
 30
0.0
 40
1.280749659930714
 50
77.1177864142366047
 51
90.0244605878031336
  0
ARC
  5
9D00
  8
0
 10
4030.5411160816738629
 20
56.4120721849728923
 30
0.0
 40
1.1773048254044109
 50
64.8991151803524957
 51
77.1177864142366047
  0
ARC
  5
9D01
  8
0
 10
4031.0098316355961288
 20
57.4126325238573898
 30
0.0
 40
0.0723997334449181
 50
6.1654298771284024
 51
64.8991151803523252
  0
ARC
  5
9D02
  8
0
 10
4030.5150011722389536
 20
57.1553816359493325
 30
0.0
 40
0.5342947439421967
 50
57.9392751469584226
 51
89.7313326343304567
  0
ARC
  5
9D03
  8
0
 10
4030.3351883685149915
 20
56.8682984972490999
 30
0.0
 40
0.8730415120581086
 50
49.5775708612587707
 51
57.9392751469584226
  0
ARC
  5
9D04
  8
0
 10
4030.5210072974600735
 20
56.9718155687917402
 30
0.0
 40
0.674346007962241
 50
56.8981388436045634
 51
90.2974430610266268
  0
LINE
  5
9D05
  8
0
 10
4031.3017190571072206
 20
57.2189297802159871
 30
0.0
 11
4031.3211571753831777
 21
59.4436536266649824
 31
0.0
  0
LINE
  5
9D06
  8
0
 10
4031.2623205595009495
 20
57.1798740300063031
 30
0.0
 11
4031.1671430086839791
 21
57.1798740337283888
 31
0.0
  0
ARC
  5
9D07
  8
0
 10
4031.2623205610429977
 20
57.2192740300062965
 30
0.0
 40
0.0394
 50
269.9999977593391804
 51
359.4993829682977093
  0
LINE
  5
9D08
  8
0
 10
4031.1277430102250037
 20
57.2192740352692084
 30
0.0
 11
4031.1277430490958977
 21
58.2132418153519424
 31
0.0
  0
LINE
  5
9D09
  8
0
 10
4031.1198689948691936
 20
57.1853678703920991
 30
0.0
 11
4031.1198690356809493
 21
58.228997327778508
 31
0.0
  0
ARC
  5
9D0A
  8
0
 10
4031.1671430102242084
 20
57.2192740337283894
 30
0.0
 40
0.0394
 50
179.9999977593298013
 51
269.9999977593391804
  0
ARC
  5
9D0B
  8
0
 10
4031.0804608866169474
 20
57.1878636438769803
 30
0.0
 40
0.0394870596685712
 50
270.0899954899114732
 51
356.3762136376046783
  0
ARC
  5
9D0C
  8
0
 10
4031.1080430096722012
 20
58.2132417997923497
 30
0.0
 40
0.0197000394240971
 50
0.0000452536448592
 51
90.0
  0
LINE
  5
9D0D
  8
0
 10
4031.1277430202658252
 20
57.4760284743367293
 30
0.0
 11
4031.1198690061978596
 21
57.4750842752568687
 31
0.0
  0
ARC
  5
9D0E
  8
0
 10
4031.1159320957490309
 20
58.1720000276810865
 30
0.0
 40
0.0118110236000187
 50
0.1998713142539163
 51
70.5291381356625777
  0
ARC
  5
9D0F
  8
0
 10
4030.516598767270807
 20
51.3267147289766967
 30
0.0
 40
2.0521882332219752
 50
270.025339856972721
 51
284.9417276179726173
  0
ARC
  5
9D10
  8
0
 10
4030.5290275728889355
 20
51.2801403736417569
 30
0.0
 40
2.0039840240287399
 50
284.9417276179726741
 51
301.3541337799924236
  0
ARC
  5
9D11
  8
0
 10
4030.5550624301608877
 20
51.2374115521760132
 30
0.0
 40
1.953948376965694
 50
301.3541337799927078
 51
321.6125796730706838
  0
ARC
  5
9D12
  8
0
 10
4030.4763267668681692
 20
51.2743725209933032
 30
0.0
 40
2.038712938913354
 50
322.1724694913684743
 51
341.2284761157509934
  0
LINE
  5
9D13
  8
0
 10
4030.3993958740861672
 20
59.3334174115836603
 30
0.0
 11
4030.6356163619861945
 21
59.3334174115836603
 31
0.0
  0
LINE
  5
9D14
  8
0
 10
4030.6356163619861945
 20
59.3334174115836603
 30
0.0
 11
4030.6356163619861945
 21
59.1365670363836529
 31
0.0
  0
LINE
  5
9D15
  8
0
 10
4030.6356163619861945
 20
59.1365670363836529
 30
0.0
 11
4030.3993958740861672
 21
59.1365670363836529
 31
0.0
  0
LINE
  5
9D16
  8
0
 10
4030.3993958740861672
 20
59.1365670363836529
 30
0.0
 11
4030.3993958740861672
 21
59.3334174115836603
 31
0.0
  0
LINE
  5
9D17
  8
0
 10
4030.6159313225848564
 20
59.3334174131253178
 30
0.0
 11
4030.6159313225848564
 21
59.1365670347836527
 31
0.0
  0
LINE
  5
9D18
  8
0
 10
4030.4190809134847768
 20
59.1365670347836527
 30
0.0
 11
4030.4190809134847768
 21
59.3334174131253178
 31
0.0
  0
LINE
  5
9D19
  8
0
 10
4030.6159313225848564
 20
59.3176693875125167
 30
0.0
 11
4030.4190809134847768
 21
59.3176693875125167
 31
0.0
  0
LINE
  5
9D1A
  8
0
 10
4030.6159313225848564
 20
59.3100765830597183
 30
0.0
 11
4030.4190809134847768
 21
59.3100765830597183
 31
0.0
  0
LINE
  5
9D1B
  8
0
 10
4030.6159313225848564
 20
59.3151934275208887
 30
0.0
 11
4030.4190809134847768
 21
59.3151934275208887
 31
0.0
  0
LINE
  5
9D1C
  8
0
 10
4030.6159313225848564
 20
59.1573827249559585
 30
0.0
 11
4030.4190809134847768
 21
59.1573827249559585
 31
0.0
  0
LINE
  5
9D1D
  8
0
 10
4030.6159313225848564
 20
59.266488286933658
 30
0.0
 11
4030.4190809134847768
 21
59.266488286933658
 31
0.0
  0
ENDSEC
  0
EOF
