  0
SECTION
  2
HEADER
  9
$ACADVER
  1
AC1009
  9
$INSBASE
 10
3446.222216118570941
 20
225.3802810191170067
 30
0.0
  9
$EXTMIN
 10
3440.3916557573797945
 20
201.9548494288135032
 30
-0.0015258207003583
  9
$EXTMAX
 10
3451.9793635870369144
 20
225.3923829314130103
 30
0.0000000349246037
  9
$LIMMIN
 10
0.0
 20
0.0
  9
$LIMMAX
 10
11.6929133858000007
 20
8.2677165353999982
  9
$ORTHOMODE
 70
     0
  9
$REGENMODE
 70
     1
  9
$FILLMODE
 70
     1
  9
$QTEXTMODE
 70
     0
  9
$MIRRTEXT
 70
     0
  9
$DRAGMODE
 70
     2
  9
$LTSCALE
 40
0.6431102362
  9
$OSMODE
 70
  2039
  9
$ATTMODE
 70
     1
  9
$TEXTSIZE
 40
0.2
  9
$TRACEWID
 40
0.05
  9
$TEXTSTYLE
  7
STANDARD
  9
$CLAYER
  8
0
  9
$CELTYPE
  6
BYLAYER
  9
$CECOLOR
 62
   256
  9
$DIMSCALE
 40
1.0
  9
$DIMASZ
 40
0.1875
  9
$DIMEXO
 40
0.0625
  9
$DIMDLI
 40
0.4443307087
  9
$DIMRND
 40
0.0
  9
$DIMDLE
 40
0.0
  9
$DIMEXE
 40
0.125
  9
$DIMTP
 40
0.01
  9
$DIMTM
 40
0.01
  9
$DIMTXT
 40
2.0
  9
$DIMCEN
 40
0.1052362205
  9
$DIMTSZ
 40
0.0
  9
$DIMTOL
 70
     1
  9
$DIMLIM
 70
     0
  9
$DIMTIH
 70
     1
  9
$DIMTOH
 70
     1
  9
$DIMSE1
 70
     0
  9
$DIMSE2
 70
     0
  9
$DIMTAD
 70
     0
  9
$DIMZIN
 70
     0
  9
$DIMBLK
  1

  9
$DIMASO
 70
     1
  9
$DIMSHO
 70
     1
  9
$DIMPOST
  1
\X
  9
$DIMAPOST
  1

  9
$DIMALT
 70
     1
  9
$DIMALTD
 70
     2
  9
$DIMALTF
 40
25.3999999999999986
  9
$DIMLFAC
 40
1.0
  9
$DIMTOFL
 70
     0
  9
$DIMTVP
 40
0.0
  9
$DIMTIX
 70
     0
  9
$DIMSOXD
 70
     0
  9
$DIMSAH
 70
     0
  9
$DIMBLK1
  1

  9
$DIMBLK2
  1

  9
$DIMSTYLE
  2
STANDARD
  9
$DIMCLRD
 70
     0
  9
$DIMCLRE
 70
     0
  9
$DIMCLRT
 70
     0
  9
$DIMTFAC
 40
1.0
  9
$DIMGAP
 40
0.09
  9
$LUNITS
 70
     2
  9
$LUPREC
 70
     4
  9
$SKETCHINC
 40
0.1
  9
$FILLETRAD
 40
0.0
  9
$AUNITS
 70
     0
  9
$AUPREC
 70
     0
  9
$MENU
  1
.
  9
$ELEVATION
 40
0.0
  9
$PELEVATION
 40
0.0
  9
$THICKNESS
 40
0.0
  9
$LIMCHECK
 70
     0
  9
$BLIPMODE
 70
     0
  9
$CHAMFERA
 40
0.0
  9
$CHAMFERB
 40
0.0
  9
$SKPOLY
 70
     0
  9
$TDCREATE
 40
2458060.468368056230247
  9
$TDUPDATE
 40
2459163.8315972220152617
  9
$TDINDWG
 40
0.5700533565
  9
$TDUSRTIMER
 40
0.5700533565
  9
$USRTIMER
 70
     1
  9
$ANGBASE
 50
0.0
  9
$ANGDIR
 70
     0
  9
$PDMODE
 70
     0
  9
$PDSIZE
 40
0.3125
  9
$PLINEWID
 40
0.0
  9
$COORDS
 70
     1
  9
$SPLFRAME
 70
     0
  9
$SPLINETYPE
 70
     6
  9
$SPLINESEGS
 70
     8
  9
$ATTDIA
 70
     1
  9
$ATTREQ
 70
     1
  9
$HANDLING
 70
     1
  9
$HANDSEED
  5
164EB
  9
$SURFTAB1
 70
     6
  9
$SURFTAB2
 70
     6
  9
$SURFTYPE
 70
     6
  9
$SURFU
 70
     6
  9
$SURFV
 70
     6
  9
$UCSNAME
  2

  9
$UCSORG
 10
0.0
 20
0.0
 30
0.0
  9
$UCSXDIR
 10
1.0
 20
0.0
 30
0.0
  9
$UCSYDIR
 10
0.0
 20
1.0
 30
0.0
  9
$PUCSNAME
  2

  9
$PUCSORG
 10
0.0
 20
0.0
 30
0.0
  9
$PUCSXDIR
 10
1.0
 20
0.0
 30
0.0
  9
$PUCSYDIR
 10
0.0
 20
1.0
 30
0.0
  9
$USERI1
 70
     0
  9
$USERI2
 70
     0
  9
$USERI3
 70
     0
  9
$USERI4
 70
     0
  9
$USERI5
 70
     0
  9
$USERR1
 40
0.0
  9
$USERR2
 40
0.0
  9
$USERR3
 40
0.0
  9
$USERR4
 40
0.0
  9
$USERR5
 40
0.0
  9
$WORLDVIEW
 70
     1
  9
$SHADEDGE
 70
     3
  9
$SHADEDIF
 70
    70
  9
$TILEMODE
 70
     1
  9
$MAXACTVP
 70
    64
  9
$PLIMCHECK
 70
     0
  9
$PEXTMIN
 10
1.0000000000000000E+20
 20
1.0000000000000000E+20
 30
1.0000000000000000E+20
  9
$PEXTMAX
 10
-1.0000000000000000E+20
 20
-1.0000000000000000E+20
 30
-1.0000000000000000E+20
  9
$PLIMMIN
 10
0.0
 20
0.0
  9
$PLIMMAX
 10
12.0
 20
9.0
  9
$UNITMODE
 70
     0
  9
$VISRETAIN
 70
     1
  9
$PLINEGEN
 70
     0
  9
$PSLTSCALE
 70
     1
  0
ENDSEC
  0
SECTION
  2
TABLES
  0
TABLE
  2
VPORT
 70
     1
  0
VPORT
  2
*ACTIVE
 70
     0
 10
0.0
 20
0.0
 11
1.0
 21
1.0
 12
142.4923944378332976
 22
18.412104604225469
 13
0.0
 23
0.0
 14
1.0
 24
1.0
 15
0.0
 25
0.0
 16
0.0
 26
0.0
 36
96.5995694866707311
 17
3303.693115234375
 27
195.2615115758877096
 37
0.0
 40
23.6325753902772107
 41
2.6486111111111108
 42
50.0
 43
0.0
 44
0.0
 50
0.0
 51
0.0
 71
     0
 72
   100
 73
     1
 74
     1
 75
     0
 76
     0
 77
     0
 78
     0
  0
ENDTAB
  0
TABLE
  2
LTYPE
 70
     2
  0
LTYPE
  2
CONTINUOUS
 70
     0
  3
Solid line
 72
    65
 73
     0
 40
0.0
  0
LTYPE
  2
PHANTOM2
 70
     0
  3
___ _ _ ___ _ _ ___ _ _ ___ _ _
 72
    65
 73
     6
 40
1.25
 49
0.625
 49
-0.125
 49
0.125
 49
-0.125
 49
0.125
 49
-0.125
  0
ENDTAB
  0
TABLE
  2
LAYER
 70
     2
  0
LAYER
  2
0
 70
     0
 62
   255
  6
CONTINUOUS
  0
LAYER
  2
DEFPOINTS
 70
     0
 62
     7
  6
CONTINUOUS
  0
ENDTAB
  0
TABLE
  2
STYLE
 70
     1
  0
STYLE
  2
STANDARD
 70
     0
 40
0.0
 41
0.8
 50
0.0
 71
     0
 42
0.2
  3
txt
  4

  0
ENDTAB
  0
TABLE
  2
VIEW
 70
     0
  0
ENDTAB
  0
TABLE
  2
UCS
 70
     0
  0
ENDTAB
  0
TABLE
  2
APPID
 70
     9
  0
APPID
  2
ACAD
 70
     0
  0
APPID
  2
ACAD_MLEADERVER
 70
     0
  0
APPID
  2
ACAD_EXEMPT_FROM_CAD_STANDARDS
 70
     0
  0
APPID
  2
ACAD_NAV_VCDISPLAY
 70
     0
  0
APPID
  2
ACAECLAYERSTANDARD
 70
     0
  0
APPID
  2
ACCMTRANSPARENCY
 70
     0
  0
APPID
  2
ACAD_DSTYLE_DIMJAG
 70
     0
  0
APPID
  2
ACAD_DSTYLE_DIMTALN
 70
     0
  0
APPID
  2
ACDBATTR
 70
     0
  0
ENDTAB
  0
TABLE
  2
DIMSTYLE
 70
     1
  0
DIMSTYLE
  2
STANDARD
 70
     0
  3

  4

  5

  6

  7

 40
1.0
 41
0.1875
 42
0.0625
 43
0.38
 44
0.125
 45
0.0
 46
0.0
 47
0.01
 48
0.01
140
0.15625
141
0.09
142
0.0
143
25.3999999999999986
144
1.0
145
0.0
146
1.0
147
0.09
 71
     1
 72
     0
 73
     1
 74
     1
 75
     0
 76
     0
 77
     0
 78
     4
170
     0
171
     2
172
     0
173
     0
174
     0
175
     0
176
     0
177
     0
178
     0
  0
ENDTAB
  0
ENDSEC
  0
SECTION
  2
BLOCKS
  0
BLOCK
  8
0
  2
$MODEL_SPACE
 70
     0
 10
0.0
 20
0.0
 30
0.0
  3
$MODEL_SPACE
  1

  0
ENDBLK
  5
21
  8
0
  0
BLOCK
 67
     1
  8
0
  2
$PAPER_SPACE
 70
     0
 10
0.0
 20
0.0
 30
0.0
  3
$PAPER_SPACE
  1

  0
ENDBLK
  5
1D
 67
     1
  8
0
  0
BLOCK
  8
0
  2
_FILLED
 70
     0
 10
0.0
 20
0.0
 30
0.0
  3
_FILLED
  1

  0
SOLID
  5
9E2C
  8
0
  6
BYBLOCK
 62
     0
 10
0.0
 20
0.0
 30
0.0
 11
-1.0
 21
0.1666666667
 31
0.0
 12
-1.0
 22
-0.1666666667
 32
0.0
 13
-1.0
 23
-0.1666666667
 33
0.0
  0
ENDBLK
  5
9E2D
  8
0
  6
BYBLOCK
 62
     0
  0
BLOCK
  8
0
  2
A$C6B0F1CD5
 70
     2
 10
0.0
 20
0.0
 30
0.0
  3
A$C6B0F1CD5
  1

  0
ATTDEF
  5
B779
  8
DEFPOINTS
 10
0.0005209962714616
 20
0.000347009907216
 30
0.0
 40
0.001
  1
BATH FAUCET
  3

  2
PRODUCT
 70
     0
1001
ACDBATTR
1070
     0
1070
     1
  0
ATTDEF
  5
B77A
  8
DEFPOINTS
 10
0.0005209962714616
 20
0.0020136765738812
 30
0.0
 40
0.001
  1
SINGULIER
  3

  2
TRADENAME
 70
     0
1001
ACDBATTR
1070
     0
1070
     1
  0
ATTDEF
  5
B77B
  8
DEFPOINTS
 10
0.0005209962714616
 20
0.0036803432405463
 30
0.0
 40
0.001
  1
K-10873W
  3

  2
MODELNUMBER
 70
     0
1001
ACDBATTR
1070
     0
1070
     1
  0
ENDBLK
  5
B77F
  8
0
  0
ENDSEC
  0
SECTION
  2
ENTITIES
  0
ATTDEF
  5
15B7A
  8
DEFPOINTS
 10
3446.2226605858732
 20
225.3843109897937893
 30
0.0
 40
0.001
  1
K-72677T-C7
  3

  2
MODELNUMBER
 70
     0
1001
ACDBATTR
1070
     0
1070
     1
  0
ATTDEF
  5
15B7B
  8
DEFPOINTS
 10
3446.2226605858732
 20
225.3826443231270957
 30
0.0
 40
0.001
  1
ELEVATION
  3

  2
TRADENAME
 70
     0
1001
ACDBATTR
1070
     0
1070
     1
  0
ATTDEF
  5
15B7C
  8
DEFPOINTS
 10
3446.2226605858732
 20
225.3809776564604874
 30
0.0
 40
0.001
  1
BATH AND SHOWER FAUCET
  3

  2
PRODUCT
 70
     0
1001
ACDBATTR
1070
     0
1070
     1
  0
LINE
  5
161BE
  8
0
 10
3447.462373598872091
 20
225.3802810191170067
 30
0.0
 11
3444.9820586382720649
 21
225.3802810191170067
 31
0.0
  0
LINE
  5
161BF
  8
0
 10
3447.4328732904218668
 20
224.9865802317169141
 30
0.0
 11
3445.011558946419882
 21
224.9865802317169141
 31
0.0
  0
LINE
  5
161C0
  8
0
 10
3447.4525665397250123
 20
225.0057645458352056
 30
0.0
 11
3447.462373598872091
 21
225.3802810191170067
 31
0.0
  0
LINE
  5
161C1
  8
0
 10
3444.9918656971181008
 20
225.0057645458352056
 30
0.0
 11
3444.9820586382720649
 21
225.3802810191170067
 31
0.0
  0
LINE
  5
161C2
  8
0
 10
3446.7143421026207761
 20
223.6283125151169884
 30
0.0
 11
3446.7143421026207761
 21
224.9865802317169141
 31
0.0
  0
LINE
  5
161C3
  8
0
 10
3445.7261531262711287
 20
223.6283125151169884
 30
0.0
 11
3445.7261531262711287
 21
224.9865802317169141
 31
0.0
  0
LINE
  5
161C4
  8
0
 10
3445.7261531262711287
 20
223.6283125151169884
 30
0.0
 11
3446.7143421026207761
 21
223.6283125151169884
 31
0.0
  0
ARC
  5
161C5
  8
0
 10
3447.4328732904218668
 20
225.006280231716886
 30
0.0
 40
0.0197
 50
270.0
 51
358.4999999998116209
  0
ARC
  5
161C6
  8
0
 10
3445.011558946419882
 20
225.006280231716886
 30
0.0
 40
0.0197
 50
181.5000000001884075
 51
270.0
  0
LINE
  5
161C7
  8
0
 10
3444.3915224176707852
 20
223.4905172396169064
 30
0.0
 11
3445.9072554884710371
 21
223.4905172396169064
 31
0.0
  0
LINE
  5
161C8
  8
0
 10
3446.5371767483711665
 20
223.4905172396169064
 30
0.0
 11
3447.050428895809091
 21
223.4905172396169064
 31
0.0
  0
LINE
  5
161C9
  8
0
 10
3444.3915224176707852
 20
221.9157140900169907
 30
0.0
 11
3445.8285153310707756
 21
221.9157140900169907
 31
0.0
  0
LINE
  5
161CA
  8
0
 10
3446.6159169057709732
 20
221.9157140900169907
 30
0.0
 11
3447.050428895809091
 21
221.9157140900169907
 31
0.0
  0
LINE
  5
161CB
  8
0
 10
3447.0922161184707875
 20
221.9157140900169907
 30
0.0
 11
3447.6810623019759987
 21
221.9157140900169907
 31
0.0
  0
LINE
  5
161CC
  8
0
 10
3444.3718126379558271
 20
221.9354140900169057
 30
0.0
 11
3444.3718126379558271
 21
223.4708172396169914
 31
0.0
  0
ARC
  5
161CD
  8
0
 10
3444.3915293371201187
 20
221.9354307950436862
 30
0.0
 40
0.0197167062409428
 50
180.0485439927726077
 51
269.9798924218343927
  0
ARC
  5
161CE
  8
0
 10
3444.3915293371201187
 20
223.4708005345900119
 30
0.0
 40
0.0197167062411189
 50
90.020107578347961
 51
179.9514560066280069
  0
LINE
  5
161CF
  8
0
 10
3447.0922161184707875
 20
223.4905172396169064
 30
0.0
 11
3447.0922161184707875
 21
221.9157140900169907
 31
0.0
  0
LINE
  5
161D0
  8
0
 10
3447.0922161184707875
 20
222.022013302616898
 30
0.0
 11
3447.050428895809091
 21
222.022013302616898
 31
0.0
  0
LINE
  5
161D1
  8
0
 10
3447.050428895809091
 20
223.384218027016999
 30
0.0
 11
3447.0922161184707875
 21
223.384218027016999
 31
0.0
  0
LINE
  5
161D2
  8
0
 10
3445.7694602129718078
 20
223.4905172396169064
 30
0.0
 11
3445.7694602129718078
 21
223.6283125151169884
 31
0.0
  0
ARC
  5
161D3
  8
0
 10
3446.2222161184708966
 20
222.7031156648168917
 30
0.0
 40
0.3937007874
 50
0.0
 51
180.0
  0
LINE
  5
161D4
  8
0
 10
3446.674972023970895
 20
223.4905172396169064
 30
0.0
 11
3446.674972023970895
 21
223.6283125151169884
 31
0.0
  0
LINE
  5
161D5
  8
0
 10
3445.9072554884710371
 20
223.2940471150000974
 30
0.0
 11
3445.9072554884710371
 21
223.6283125151169884
 31
0.0
  0
LINE
  5
161D6
  8
0
 10
3446.5371767483711665
 20
223.2940473281738036
 30
0.0
 11
3446.5371767483711665
 21
223.6283125151169884
 31
0.0
  0
ARC
  5
161D7
  8
0
 10
3446.2222161184708966
 20
222.7031156648168917
 30
0.0
 40
0.6496062992000005
 50
307.3052009553647963
 51
232.6947990335403915
  0
ARC
  5
161D8
  8
0
 10
3446.576622966963896
 20
223.2940287176498941
 30
0.0
 40
0.0394462229854254
 50
179.9729681467013904
 51
237.9307856444252991
  0
ARC
  5
161D9
  8
0
 10
3445.8678092697778084
 20
223.2940287176498941
 30
0.0
 40
0.0394462229854254
 50
302.0692071341591145
 51
0.0267222177490295
  0
LINE
  5
161DA
  8
0
 10
3445.7946311336158942
 20
222.2140763773493859
 30
0.0
 11
3445.5801455355740472
 21
222.6044560959036005
 31
0.0
  0
ARC
  5
161DB
  8
0
 10
3446.2222161184708966
 20
222.7031156648168917
 30
0.0
 40
0.4330708660999977
 50
335.3800226511424967
 51
204.6199773171260006
  0
CIRCLE
  5
161DC
  8
0
 10
3445.2485468529821446
 20
222.6929037198169965
 30
0.0
 40
0.2946361441033121
  0
ARC
  5
161DD
  8
0
 10
3445.1985940711720104
 20
222.7031156648191939
 30
0.0
 40
0.3188976378022504
 50
237.5050111000794004
 51
290.9724165455357934
  0
ARC
  5
161DE
  8
0
 10
3445.1985765031031406
 20
222.7030880831524087
 30
0.0
 40
0.3188649363439707
 50
122.6102378144879026
 51
237.5050111000794004
  0
ARC
  5
161DF
  8
0
 10
3445.1918745066700467
 20
222.7135635785164993
 30
0.0
 40
0.3064289900866274
 50
53.1028298165393409
 51
122.6102378144879026
  0
ARC
  5
161E0
  8
0
 10
3445.1494070037701931
 20
222.7031259311171993
 30
0.0
 40
0.2952512111996764
 50
91.3894832919845754
 51
114.5501104361123055
  0
LINE
  5
161E1
  8
0
 10
3445.142247551231776
 20
222.9982903259113982
 30
0.0
 11
3445.2485468529821446
 21
222.9875398639202899
 31
0.0
  0
ARC
  5
161E2
  8
0
 10
3445.1546887477079508
 20
222.7207143058082011
 30
0.0
 40
0.3134729657470079
 50
245.9155429313821912
 51
273.5417979855071735
  0
LINE
  5
161E3
  8
0
 10
3447.050428895809091
 20
221.9157140900169907
 30
0.0
 11
3447.050428895809091
 21
223.4905172396169064
 31
0.0
  0
ARC
  5
161E4
  8
0
 10
3446.2222161184708966
 20
206.9550841687170077
 30
0.0
 40
0.718503937
 50
123.2261593691807064
 51
56.7738406403520628
  0
ARC
  5
161E5
  8
0
 10
3446.2222161184208744
 20
206.9550841814628086
 30
0.0
 40
0.3937008001467527
 50
180.0146084663169859
 51
359.9853915336814225
  0
ARC
  5
161E6
  8
0
 10
3446.2222161184708966
 20
206.9550841687170077
 30
0.0
 40
0.4133858454000002
 50
162.2472017728098876
 51
17.7527982726722193
  0
LINE
  5
161E7
  8
0
 10
3446.6159169057709732
 20
206.9549838012102896
 30
0.0
 11
3446.6159169057709732
 21
222.7031156648168917
 31
0.0
  0
LINE
  5
161E8
  8
0
 10
3445.8285153310707756
 20
206.9549838012102896
 30
0.0
 11
3445.8285153310707756
 21
222.7031156648168917
 31
0.0
  0
LINE
  5
161E9
  8
0
 10
3447.8698538384710446
 20
225.3802810191170067
 30
0.0
 11
3450.4800900589721095
 21
225.3802817814170112
 31
0.0
  0
LINE
  5
161EA
  8
0
 10
3447.8698538501707844
 20
225.2621713004168953
 30
0.0
 11
3447.8698538384710446
 21
225.3802815232170076
 31
0.0
  0
LINE
  5
161EB
  8
0
 10
3448.5450507772711717
 20
224.4865808026169987
 30
0.0
 11
3448.5450508240710406
 21
224.014139857716998
 31
0.0
  0
LINE
  5
161EC
  8
0
 10
3449.8048932969709313
 20
224.4865809272170054
 30
0.0
 11
3449.8048933436712105
 21
224.0141399823170048
 31
0.0
  0
LINE
  5
161ED
  8
0
 10
3449.7458232885501275
 20
223.955084875515098
 30
0.0
 11
3448.6041209263498786
 21
223.9550847282187931
 31
0.0
  0
LINE
  5
161EE
  8
0
 10
3448.6041208501710571
 20
224.5456359093188041
 30
0.0
 11
3449.7458232123708513
 21
224.5456360567150966
 31
0.0
  0
LINE
  5
161EF
  8
0
 10
3448.6041208501710571
 20
224.5456359093188041
 30
0.0
 11
3448.5450507772711717
 21
224.4865808026169987
 31
0.0
  0
LINE
  5
161F0
  8
0
 10
3449.7458232123708513
 20
224.5456360567150966
 30
0.0
 11
3449.8048932969709313
 21
224.4865809272170054
 31
0.0
  0
LINE
  5
161F1
  8
0
 10
3449.8048933436712105
 20
224.0141399823170048
 30
0.0
 11
3449.7458232885501275
 21
223.955084875515098
 31
0.0
  0
LINE
  5
161F2
  8
0
 10
3448.6041209263498786
 20
223.9550847282187931
 30
0.0
 11
3448.5450508240710406
 21
224.014139857716998
 31
0.0
  0
ARC
  5
161F3
  8
0
 10
3449.1749724151140981
 20
223.8959880663211948
 30
0.0
 40
0.6299601652178436
 50
69.6372152962597255
 51
110.3628580449968979
  0
ARC
  5
161F4
  8
0
 10
3448.6635397492600532
 20
224.3536952555386108
 30
0.0
 40
0.1722530145312002
 50
50.4846778566226675
 51
129.5152215100268904
  0
LINE
  5
161F5
  8
0
 10
3449.3941753584708749
 20
224.4865808866169061
 30
0.0
 11
3449.5768027014710242
 21
224.4865807553269974
 31
0.0
  0
LINE
  5
161F6
  8
0
 10
3448.9557687157721375
 20
224.4865806060265072
 30
0.0
 11
3448.7731416805468143
 21
224.4865806109141033
 31
0.0
  0
LINE
  5
161F7
  8
0
 10
3448.5539380513719152
 20
224.4865808034170129
 30
0.0
 11
3448.5450507772711717
 21
224.4865808026169987
 31
0.0
  0
ARC
  5
161F8
  8
0
 10
3449.1749720254060776
 20
224.6047345775303938
 30
0.0
 40
0.6299620191695569
 50
249.6372468771012905
 51
290.3627644668703169
  0
ARC
  5
161F9
  8
0
 10
3448.6635398465300568
 20
224.1470250515999112
 30
0.0
 40
0.1722526445024974
 50
230.4846551704916067
 51
309.5152691520510189
  0
LINE
  5
161FA
  8
0
 10
3449.3941754052711985
 20
224.0141399417169055
 30
0.0
 11
3449.5768027482708931
 21
224.0141399766733059
 31
0.0
  0
LINE
  5
161FB
  8
0
 10
3448.9557687624710525
 20
224.0141398983168983
 30
0.0
 11
3448.7731414194709032
 21
224.0141398803170034
 31
0.0
  0
LINE
  5
161FC
  8
0
 10
3448.5539380980708302
 20
224.0141400250811046
 30
0.0
 11
3448.5450508240710406
 21
224.014139857716998
 31
0.0
  0
LINE
  5
161FD
  8
0
 10
3448.5539380513719152
 20
224.4865808034170129
 30
0.0
 11
3448.5539380980708302
 21
224.0141400250811046
 31
0.0
  0
LINE
  5
161FE
  8
0
 10
3448.7731414194709032
 20
224.0141398803170034
 30
0.0
 11
3448.7731416805468143
 21
224.4865806109141033
 31
0.0
  0
LINE
  5
161FF
  8
0
 10
3448.9557687157721375
 20
224.4865806060265072
 30
0.0
 11
3448.9557687624710525
 21
224.0141398983168983
 31
0.0
  0
LINE
  5
16200
  8
0
 10
3449.3941754052711985
 20
224.0141399417169055
 30
0.0
 11
3449.3941753584708749
 21
224.4865808866169061
 31
0.0
  0
ARC
  5
16201
  8
0
 10
3460.173884687330883
 20
221.2935118556391103
 30
0.0
 40
11.3980533668001396
 50
179.0623662059423111
 51
183.5550741280192995
  0
ARC
  5
16202
  8
0
 10
3450.6678871257531682
 20
220.6242030563383878
 30
0.0
 40
1.870497188757124
 50
181.1475576445492948
 51
217.1508245826092889
  0
ARC
  5
16203
  8
0
 10
3452.3119573782369116
 20
222.6519804045339868
 30
0.0
 40
4.4493891517152102
 50
225.2044372108381936
 51
233.9596025879887122
  0
ARC
  5
16204
  8
0
 10
3448.8304386329318731
 20
217.7498857288474881
 30
0.0
 40
1.5643498685113211
 50
2.9454696078890619
 51
56.4879849302376513
  0
ARC
  5
16205
  8
0
 10
3448.9446819138420324
 20
217.8596563576153073
 30
0.0
 40
1.448338051315301
 50
310.0059984787419012
 51
358.8374305485460241
  0
ARC
  5
16206
  8
0
 10
3448.3971627748551327
 20
218.4145110393544087
 30
0.0
 40
2.226209302444345
 50
287.7683558812664728
 51
311.6196321172708963
  0
ARC
  5
16207
  8
0
 10
3436.2936522688960395
 20
221.2934736926162032
 30
0.0
 40
11.3905513141783601
 50
356.442778165577181
 51
0.9384435309320902
  0
ARC
  5
16208
  8
0
 10
3445.7922467285147832
 20
220.6241495210435062
 30
0.0
 40
1.870385124396154
 50
322.8486318896269154
 51
358.854040722232412
  0
ARC
  5
16209
  8
0
 10
3444.1480764398847896
 20
222.6519804045339868
 30
0.0
 40
4.4493891517152102
 50
306.0403974120113162
 51
314.7955627891618064
  0
ARC
  5
1620A
  8
0
 10
3447.6295951980227983
 20
217.7498857168386053
 30
0.0
 40
1.5643498856086011
 50
123.5120152187666065
 51
130.38999700588829
  0
ARC
  5
1620B
  8
0
 10
3448.0628710432679327
 20
218.4145110393544087
 30
0.0
 40
2.226209302444345
 50
229.4611721126991881
 51
252.2316441187334988
  0
ARC
  5
1620C
  8
0
 10
3448.2300169090608506
 20
218.9004775035299986
 30
0.0
 40
2.7400236016119739
 50
252.0043319707253033
 51
287.9956680292746114
  0
ARC
  5
1620E
  8
0
 10
3446.2222161184708966
 20
206.9550841687170077
 30
0.0
 40
5.0
 50
94.5161536272887588
 51
85.483846372711227
  0
ARC
  5
1620F
  8
0
 10
3446.2222161184208744
 20
206.9550841814628086
 30
0.0
 40
4.7357819827941308
 50
94.7686860547356531
 51
85.2313139440356053
  0
ARC
  5
16210
  8
0
 10
3446.2222161184208744
 20
206.9550841814628086
 30
0.0
 40
4.1712899763063183
 50
95.4158353197943967
 51
84.5841646788445161
  0
ARC
  5
16211
  8
0
 10
3446.2143421026707983
 20
206.9550841687170077
 30
0.0
 40
0.5039370079000021
 50
139.9646447835974925
 51
37.1650800602984006
  0
ARC
  5
16212
  8
0
 10
3446.221790432094167
 20
206.9564118919770976
 30
0.0
 40
0.497390897693327
 50
270.0490593295390909
 51
339.7985155933030228
  0
ARC
  5
16213
  8
0
 10
3446.221792848997211
 20
206.9535892212547878
 30
0.0
 40
0.4945682259363301
 50
238.3337679862671052
 51
270.0490593295390909
  0
ARC
  5
16214
  8
0
 10
3446.2230174649939727
 20
206.9555746598956887
 30
0.0
 40
0.4969009605835749
 50
184.6064776528401126
 51
238.3337679862671052
  0
ARC
  5
16215
  8
0
 10
3446.2210830000958595
 20
206.9554187964241976
 30
0.0
 40
0.4949602267377373
 50
142.478958770623791
 51
184.6064776528401126
  0
ARC
  5
16216
  8
0
 10
3446.2143421026721626
 20
206.9550841687168088
 30
0.0
 40
0.5000000000003312
 50
140.5026086741958977
 51
175.7379906157900109
  0
ARC
  5
16217
  8
0
 10
3446.2143421026707983
 20
206.9550841687170077
 30
0.0
 40
0.5000000000000094
 50
184.2620093904531018
 51
222.4102869878362014
  0
ARC
  5
16218
  8
0
 10
3446.2143421026707983
 20
206.9550841687170077
 30
0.0
 40
0.4999999999999897
 50
222.4102869878362014
 51
270.9023563046858953
  0
ARC
  5
16219
  8
0
 10
3446.2144153503281814
 20
206.9504336392116954
 30
0.0
 40
0.4953488936908571
 50
270.9023563046858953
 51
297.1431802902492905
  0
LINE
  5
1621A
  8
0
 10
3445.7157247877657937
 20
206.9179254109714066
 30
0.0
 11
3445.7117639452048934
 21
206.9181016922046865
 31
0.0
  0
ARC
  5
1621B
  8
0
 10
3445.71843963741685
 20
206.9289359646928119
 30
0.0
 40
0.0130450668930166
 50
258.5964884052476123
 51
269.666353315414085
  0
ARC
  5
1621C
  8
0
 10
3445.728735715988023
 20
207.1542780964691133
 30
0.0
 40
0.2386125107887763
 50
267.5086739226597956
 51
269.7564870528937035
  0
ARC
  5
1621D
  8
0
 10
3445.7704171793589012
 20
207.4479332166044117
 30
0.0
 40
0.5306000219095556
 50
263.6341461190007749
 51
265.3561530480350257
  0
LINE
  5
1621E
  8
0
 10
3445.715724787770796
 20
206.9922429264169921
 30
0.0
 11
3445.7117640782489616
 21
206.9920684532077075
 31
0.0
  0
ARC
  5
1621F
  8
0
 10
3445.7785424205480922
 20
206.3735175374779942
 30
0.0
 40
0.619684771172765
 50
94.7330831060454557
 51
96.202799074505549
  0
ARC
  5
16220
  8
0
 10
3446.2222161184708966
 20
206.9550841687170077
 30
0.0
 40
0.5089826723003124
 50
176.080428436811701
 51
183.9191409426937867
  0
ARC
  5
16221
  8
0
 10
3445.7432442202812126
 20
206.9650139339559018
 30
0.0
 40
0.0431426186868503
 50
221.1184219549778049
 51
226.7573258370692884
  0
ARC
  5
16222
  8
0
 10
3445.7462834255529742
 20
206.9413707940225038
 30
0.0
 40
0.0479645450889649
 50
132.8126268172206039
 51
137.8112819393155917
  0
ARC
  5
16223
  8
0
 10
3445.7271890642900871
 20
206.8423659001092005
 30
0.0
 40
0.1521350446893592
 50
89.8195921196032856
 51
94.2687142760037347
  0
ARC
  5
16224
  8
0
 10
3448.0061136922809055
 20
225.2621713002914987
 30
0.0
 40
0.1362598421094474
 50
179.9999999472350964
 51
232.8518018749888938
  0
LINE
  5
16225
  8
0
 10
3447.9238292739792087
 20
225.1535618206112872
 30
0.0
 11
3448.1232917524830555
 21
225.0024401861932972
 31
0.0
  0
LINE
  5
16226
  8
0
 10
3450.4800900589721095
 20
225.3802817814170112
 30
0.0
 11
3450.4800900705708955
 21
225.2621715452170008
 31
0.0
  0
ARC
  5
16227
  8
0
 10
3450.3438302276417744
 20
225.2621715318344116
 30
0.0
 40
0.1362598429294175
 50
307.1482096951806966
 51
0.0000056272087362
  0
LINE
  5
16228
  8
0
 10
3450.4261146683711559
 20
225.1535620681169974
 30
0.0
 11
3449.6907460714751323
 21
224.5964338800710038
 31
0.0
  0
LINE
  5
16229
  8
0
 10
3449.6907460714751323
 20
224.5964338800710038
 30
0.0
 11
3449.6907202596707975
 21
224.5456360496011996
 31
0.0
  0
LINE
  5
1622A
  8
0
 10
3449.6907460714751323
 20
224.5964338800710038
 30
0.0
 11
3448.6592242021720267
 21
224.5964703482169966
 31
0.0
  0
LINE
  5
1622B
  8
0
 10
3448.6592242021720267
 20
224.5964703482169966
 30
0.0
 11
3448.659224196670948
 21
224.5456359320168929
 31
0.0
  0
LINE
  5
1622C
  8
0
 10
3448.6592242021720267
 20
224.5964703482169966
 30
0.0
 11
3448.5252889613711886
 21
224.6978855680168863
 31
0.0
  0
ARC
  5
1622D
  8
0
 10
3449.6864044060162087
 20
224.1478582755956097
 30
0.0
 40
0.1728962314429896
 50
230.6603802256861968
 51
309.3396223063791126
  0
LINE
  5
1622E
  8
0
 10
3449.7960060696709661
 20
224.0141399815169905
 30
0.0
 11
3449.8048933436712105
 21
224.0141399823953918
 31
0.0
  0
LINE
  5
1622F
  8
0
 10
3449.8048933436712105
 20
224.0141399823170048
 30
0.0
 11
3449.8048932969709313
 21
224.4865809272170054
 31
0.0
  0
LINE
  5
16230
  8
0
 10
3449.8048932969709313
 20
224.4865809272170054
 30
0.0
 11
3449.7960060228720067
 21
224.4865809263170036
 31
0.0
  0
ARC
  5
16231
  8
0
 10
3449.6864044658432249
 20
224.3536956793103911
 30
0.0
 40
0.1722526927971954
 50
50.4847509570424009
 51
129.5153384429395089
  0
LINE
  5
16232
  8
0
 10
3449.5768038613518911
 20
224.4865817119562053
 30
0.0
 11
3449.5768038613518911
 21
224.0141391851491903
 31
0.0
  0
LINE
  5
16233
  8
0
 10
3449.7960060696709661
 20
224.0141399815169905
 30
0.0
 11
3449.7960060696709661
 21
224.4865809263170036
 31
0.0
  0
LINE
  5
16234
  8
0
 10
3448.5450508240710406
 20
224.014139857716998
 30
0.0
 11
3448.5450507772711717
 21
224.4865808026169987
 31
0.0
  0
LINE
  5
16235
  8
0
 10
3447.0922161184707875
 20
223.4905096550170072
 30
0.0
 11
3448.6679566228708609
 21
223.4905172396169917
 31
0.0
  0
ARC
  5
16236
  8
0
 10
3448.6679567176220189
 20
223.4708322997111054
 30
0.0
 40
0.0196849399061498
 50
2.797491629892177
 51
90.0002757849637476
  0
ARC
  5
16237
  8
0
 10
3442.1971059463471647
 20
223.0683749637937865
 30
0.0
 40
6.5030374012817687
 50
359.5317714192188987
 51
3.5566463815781821
  0
ARC
  5
16238
  8
0
 10
3446.743779676430222
 20
223.0860562285770925
 30
0.0
 40
1.9574282389243649
 50
353.0439818903561218
 51
357.9264517659556191
  0
ARC
  5
16239
  8
0
 10
3448.664854650694906
 20
222.8516746453267956
 30
0.0
 40
0.022108166348219
 50
278.8016250472231263
 51
353.0439818903577134
  0
LINE
  5
1623A
  8
0
 10
3448.6682375066720851
 20
222.829826823817001
 30
0.0
 11
3448.5947239160318532
 21
222.8148566893312932
 31
0.0
  0
ARC
  5
1623B
  8
0
 10
3448.2301578552519459
 20
222.3696991048200005
 30
0.0
 40
0.5753900309535377
 50
50.6839105405030494
 51
90.0145857509181013
  0
ARC
  5
1623C
  8
0
 10
3448.2742721464601345
 20
222.4235653678360052
 30
0.0
 40
0.5057649996781103
 50
0.5600648331548794
 51
50.6839105405030494
  0
ARC
  5
1623D
  8
0
 10
3448.272137373471196
 20
222.6794588830169914
 30
0.0
 40
0.3910166525000338
 50
11.2542580013522908
 51
21.5701393091989289
  0
LINE
  5
1623E
  8
0
 10
3448.6423552313090113
 20
222.8052871797947034
 30
0.0
 11
3448.6400514278711853
 21
222.8240735883169066
 31
0.0
  0
LINE
  5
1623F
  8
0
 10
3448.6679358454989597
 20
223.4905172395170041
 30
0.0
 11
3448.6679566229231568
 21
222.8787359518194933
 31
0.0
  0
ARC
  5
16240
  8
0
 10
3448.5856791018459262
 20
222.8057629977857914
 30
0.0
 40
0.109975645008269
 50
23.1495014452280898
 51
41.5702166467575225
  0
LINE
  5
16241
  8
0
 10
3448.6679566229231568
 20
222.8787359518194933
 30
0.0
 11
3448.5437029703398366
 21
222.8521544380118939
 31
0.0
  0
ARC
  5
16242
  8
0
 10
3448.2322655037141885
 20
222.3535811035334859
 30
0.0
 40
0.5915123085874424
 50
90.2183422522809479
 51
113.6841146839717993
  0
ARC
  5
16243
  8
0
 10
3448.2060548720842235
 20
222.4133355966062027
 30
0.0
 40
0.526262046880646
 50
113.6841146839717993
 51
178.3547089664808141
  0
LINE
  5
16244
  8
0
 10
3447.6800097865721
 20
222.4284455269169882
 30
0.0
 11
3447.6826757494441154
 21
221.4800303875869929
 31
0.0
  0
LINE
  5
16245
  8
0
 10
3448.7800129815909713
 20
222.4285093116178871
 30
0.0
 11
3448.7773575232981784
 21
221.4800303584557071
 31
0.0
  0
ARC
  5
16246
  8
0
 10
3446.1528836805778155
 20
270.3024790191402076
 30
0.0
 40
48.6008357927011332
 50
270.5458807757086106
 51
271.8026664208704801
  0
ARC
  5
16247
  8
0
 10
3440.5036973175801904
 20
402.9453156942935834
 30
0.0
 40
181.3664121262548008
 50
272.6150105926461151
 51
273.0205996715906167
  0
LINE
  5
16248
  8
0
 10
3450.0607989936511331
 20
221.8308843115246134
 30
0.0
 11
3450.0607989936511331
 21
223.488733777919208
 31
0.0
  0
ARC
  5
16249
  8
0
 10
3440.1013030138719841
 20
34.272972789057782
 30
0.0
 40
189.4776920029509881
 50
86.9869794603378494
 51
87.0245999832922621
  0
ARC
  5
1624A
  8
0
 10
3449.9426889365909119
 20
223.6131980518632076
 30
0.0
 40
0.1181248798320554
 50
180.014920952665193
 51
267.0246019435589915
  0
LINE
  5
1624B
  8
0
 10
3449.8245640607651694
 20
223.6131672898117131
 30
0.0
 11
3449.8244842465092006
 21
223.9196503988258939
 31
0.0
  0
LINE
  5
1624C
  8
0
 10
3449.8244842465092006
 20
223.9196503988258939
 30
0.0
 11
3448.5253658611709398
 21
223.919650549916895
 31
0.0
  0
LINE
  5
1624D
  8
0
 10
3448.5252869845708119
 20
223.4905172395170041
 30
0.0
 11
3448.5252868808797757
 21
224.7271205313678877
 31
0.0
  0
ARC
  5
1624E
  8
0
 10
3448.2300084154808246
 20
224.7271205066082871
 30
0.0
 40
0.2952784653985608
 50
0.0000048043657552
 51
180.0087138431065057
  0
LINE
  5
1624F
  8
0
 10
3447.9347299534970261
 20
224.7270755991083888
 30
0.0
 11
3447.9349180163258097
 21
223.4905137112411921
 31
0.0
  0
LINE
  5
16250
  8
0
 10
3446.7143421026207761
 20
224.5216354282999021
 30
0.0
 11
3448.1232917524830555
 21
225.0024401861932972
 31
0.0
  0
LINE
  5
16251
  8
0
 10
3446.7143421026207761
 20
223.8976428317999137
 30
0.0
 11
3447.9347375877709965
 21
224.3141116693169863
 31
0.0
  0
ARC
  5
16252
  8
0
 10
3446.0463079095579815
 20
169.9244255150389051
 30
0.0
 40
53.6944421254071287
 50
87.9843186927810734
 51
89.3291488629780588
  0
LINE
  5
16253
  8
0
 10
3450.0844210427208054
 20
223.5021556982298989
 30
0.0
 11
3450.0844210427208054
 21
221.8184280550169944
 31
0.0
  0
ARC
  5
16254
  8
0
 10
3450.38633863767609
 20
221.8301617192535957
 30
0.0
 40
0.302145516299827
 50
182.225611499530487
 51
189.9826871083332094
  0
ARC
  5
16255
  8
0
 10
3450.1621348609728557
 20
221.7972021052729019
 30
0.0
 40
0.0758933540557606
 50
194.8240948563438906
 51
260.8371374030049878
  0
ARC
  5
16256
  8
0
 10
3450.1791171452859999
 20
221.9024862416115127
 30
0.0
 40
0.1825383133601861
 50
260.8371374030049878
 51
271.4406395354246229
  0
LINE
  5
16257
  8
0
 10
3450.1837063873717852
 20
221.7200056270206119
 30
0.0
 11
3451.6578133022530892
 21
221.7328701118987055
 31
0.0
  0
ARC
  5
16258
  8
0
 10
3451.6563328947181617
 20
221.9296345029057136
 30
0.0
 40
0.1967698171819662
 50
270.4948764789874076
 51
310.1503055221663772
  0
ARC
  5
16259
  8
0
 10
3451.6563421163509702
 20
221.9296235713588032
 30
0.0
 40
0.1967555155304694
 50
310.1503055221663772
 51
356.6857176848953941
  0
ARC
  5
1625A
  8
0
 10
3439.0569116266879064
 20
222.6592663844911897
 30
0.0
 40
12.8172954128010392
 50
356.6856595276552753
 51
3.3421694647942668
  0
ARC
  5
1625B
  8
0
 10
3451.6673753735399259
 20
223.3956938422354028
 30
0.0
 40
0.1853469759531391
 50
3.3421113075514288
 51
51.3211082331363215
  0
ARC
  5
1625C
  8
0
 10
3451.6563261731189414
 20
223.3899666010543115
 30
0.0
 40
0.1967879775662521
 50
49.8516608594671595
 51
89.5091004772336731
  0
ARC
  5
1625D
  8
0
 10
-40750.3392295964731602
 20
-5064755.415564451366663
 30
0.0
 40
5065171.8737294264137745
 50
89.4999932683638946
 51
89.5000099459329874
  0
ARC
  5
1625E
  8
0
 10
3450.1802180625049914
 20
223.4298433690418051
 30
0.0
 40
0.1698058492302359
 50
88.8229516223610744
 51
103.1383037739706054
  0
ARC
  5
1625F
  8
0
 10
3450.1637540722831545
 20
223.5204285756427964
 30
0.0
 40
0.077982748221339
 50
106.4884964487684016
 51
164.0679900197129086
  0
ARC
  5
16260
  8
0
 10
3450.443437378895851
 20
223.4829125837053994
 30
0.0
 40
0.3595316774603021
 50
170.5675105390562862
 51
176.9319077993253018
  0
LINE
  5
16261
  8
0
 10
3450.0607988773617762
 20
223.3290991984169125
 30
0.0
 11
3450.0845402332979575
 21
223.3290991984169125
 31
0.0
  0
LINE
  5
16262
  8
0
 10
3450.0607989812610867
 20
221.9905165212169038
 30
0.0
 11
3450.0844210427208054
 21
221.9905165212169038
 31
0.0
  0
CIRCLE
  5
16263
  8
0
 10
3451.600169074571113
 20
222.6598096517168983
 30
0.0
 40
0.0567104291811903
  0
LINE
  5
16264
  8
0
 10
3450.1051549824801441
 20
223.476360014318999
 30
0.0
 11
3451.8163446154708254
 21
223.315514488416909
 31
0.0
  0
ARC
  5
16265
  8
0
 10
3451.8118243032840837
 20
223.2674241774946893
 30
0.0
 40
0.0483022900788012
 50
8.5057435371106891
 51
84.6301852217914927
  0
ARC
  5
16266
  8
0
 10
3450.1041222590138204
 20
223.4564462015769948
 30
0.0
 40
0.0199405745559966
 50
87.0317188701187376
 51
171.1135481562168934
  0
LINE
  5
16267
  8
0
 10
3450.1051549824801441
 20
221.8432429462150139
 30
0.0
 11
3451.8163446154708254
 21
222.0040884721169903
 31
0.0
  0
ARC
  5
16268
  8
0
 10
3451.8118243032840837
 20
222.05217878303921
 30
0.0
 40
0.0483022900788012
 50
275.3698147782084789
 51
351.4942564628876767
  0
ARC
  5
16269
  8
0
 10
3450.1041222590138204
 20
221.8631567589569045
 30
0.0
 40
0.0199405745560002
 50
188.8864518437250979
 51
272.9682811298811771
  0
ARC
  5
1626A
  8
0
 10
3451.6295564771189675
 20
227.0124142945319932
 30
0.0
 40
4.5498674828486951
 50
226.9781621423989009
 51
227.8420100989991965
  0
ARC
  5
1626B
  8
0
 10
3450.4547607161161977
 20
225.714884494178591
 30
0.0
 40
2.7995164715153682
 50
227.8420100989991965
 51
235.7230677838979034
  0
ARC
  5
1626C
  8
0
 10
3449.2810065341250265
 20
223.9927362302863969
 30
0.0
 40
0.7154115023340452
 50
235.7230677838979034
 51
253.5264148466324059
  0
ARC
  5
1626D
  8
0
 10
3449.2153748631922099
 20
223.7707917306044862
 30
0.0
 40
0.4839663097534836
 50
253.5264148466324059
 51
286.7456584794937839
  0
ARC
  5
1626E
  8
0
 10
3449.1375954294430812
 20
224.029295471680399
 30
0.0
 40
0.7539178321873875
 50
286.7456584794937839
 51
307.0316418916037833
  0
ARC
  5
1626F
  8
0
 10
3445.5610879170731096
 20
228.7700317690324994
 30
0.0
 40
6.6924350399653987
 50
307.0316418916037833
 51
309.2376053893618177
  0
ARC
  5
16270
  8
0
 10
3447.3992438858258538
 20
226.3379456709488977
 30
0.0
 40
3.647812612650509
 50
311.0391735394291004
 51
311.672331901870109
  0
LINE
  5
16271
  8
0
 10
3446.6514900716711054
 20
223.1890809042170076
 30
0.0
 11
3446.8625977322471954
 21
222.8048492812737891
 31
0.0
  0
ARC
  5
16272
  8
0
 10
3446.8453452137277964
 20
222.7953702623541972
 30
0.0
 40
0.0196850500354232
 50
8.4215082385471813
 51
28.7856314596251792
  0
ARC
  5
16273
  8
0
 10
3446.6342375624708438
 20
223.1796018904169898
 30
0.0
 40
0.0196850393999137
 50
28.7856315545053896
 51
49.1460845940935229
  0
LINE
  5
16274
  8
0
 10
3450.4261145050300001
 20
225.1535619443669987
 30
0.0
 11
3447.9238291105398275
 21
225.1535619443669987
 31
0.0
  0
LINE
  5
16275
  8
0
 10
3449.5962319322720759
 20
223.9550848436099955
 30
0.0
 11
3449.5962319322720759
 21
223.9196504339460887
 31
0.0
  0
LINE
  5
16276
  8
0
 10
3448.7537122471708244
 20
223.9550847475182991
 30
0.0
 11
3448.7537122471708244
 21
223.9196505251879046
 31
0.0
  0
LINE
  5
16277
  8
0
 10
3444.5745788043709581
 20
225.3802810191170067
 30
0.0
 11
3441.9643425838708026
 21
225.3802817814170112
 31
0.0
  0
LINE
  5
16278
  8
0
 10
3444.5745787926712183
 20
225.2621713004168953
 30
0.0
 11
3444.5745788043709581
 21
225.3802815232170076
 31
0.0
  0
LINE
  5
16279
  8
0
 10
3443.899381865570831
 20
224.4865808026169987
 30
0.0
 11
3443.8993818187709621
 21
224.014139857716998
 31
0.0
  0
LINE
  5
1627A
  8
0
 10
3442.6395393458710714
 20
224.4865809272170054
 30
0.0
 11
3442.6395392991707922
 21
224.0141399823170048
 31
0.0
  0
LINE
  5
1627B
  8
0
 10
3442.6986093542918752
 20
223.955084875515098
 30
0.0
 11
3443.8403117164921241
 21
223.9550847282187931
 31
0.0
  0
LINE
  5
1627C
  8
0
 10
3443.8403117926709456
 20
224.5456359093188041
 30
0.0
 11
3442.6986094304711514
 21
224.5456360567150966
 31
0.0
  0
LINE
  5
1627D
  8
0
 10
3443.8403117926709456
 20
224.5456359093188041
 30
0.0
 11
3443.899381865570831
 21
224.4865808026169987
 31
0.0
  0
LINE
  5
1627E
  8
0
 10
3442.6986094304711514
 20
224.5456360567150966
 30
0.0
 11
3442.6395393458710714
 21
224.4865809272170054
 31
0.0
  0
LINE
  5
1627F
  8
0
 10
3442.6395392991707922
 20
224.0141399823170048
 30
0.0
 11
3442.6986093542918752
 21
223.955084875515098
 31
0.0
  0
LINE
  5
16280
  8
0
 10
3443.8403117164921241
 20
223.9550847282187931
 30
0.0
 11
3443.8993818187709621
 21
224.014139857716998
 31
0.0
  0
ARC
  5
16281
  8
0
 10
3443.2694602277279046
 20
223.8959880663211948
 30
0.0
 40
0.6299601652178436
 50
69.6371419550030737
 51
110.3627847037403029
  0
ARC
  5
16282
  8
0
 10
3443.7808928935819495
 20
224.3536952555386108
 30
0.0
 40
0.1722530145312002
 50
50.4847784899730812
 51
129.5153221433772899
  0
LINE
  5
16283
  8
0
 10
3443.0502572843711278
 20
224.4865808866169061
 30
0.0
 11
3442.8676299413709785
 21
224.4865807553269974
 31
0.0
  0
LINE
  5
16284
  8
0
 10
3443.4886639270707747
 20
224.4865806060265072
 30
0.0
 11
3443.6712909622960979
 21
224.4865806109141033
 31
0.0
  0
LINE
  5
16285
  8
0
 10
3443.890494591470997
 20
224.4865808034170129
 30
0.0
 11
3443.899381865570831
 21
224.4865808026169987
 31
0.0
  0
ARC
  5
16286
  8
0
 10
3443.2694606174368346
 20
224.6047345775303938
 30
0.0
 40
0.6299620191695569
 50
249.6372355331297115
 51
290.3627531228987095
  0
ARC
  5
16287
  8
0
 10
3443.7808927963128554
 20
224.1470250515999112
 30
0.0
 40
0.1722526445024974
 50
230.4847308479490096
 51
309.5153448295083081
  0
LINE
  5
16288
  8
0
 10
3443.0502572375708041
 20
224.0141399417169055
 30
0.0
 11
3442.8676298945711096
 21
224.0141399766733059
 31
0.0
  0
LINE
  5
16289
  8
0
 10
3443.4886638803709502
 20
224.0141398983168983
 30
0.0
 11
3443.6712912233710995
 21
224.0141398803170034
 31
0.0
  0
LINE
  5
1628A
  8
0
 10
3443.8904945447711725
 20
224.0141400250811046
 30
0.0
 11
3443.8993818187709621
 21
224.014139857716998
 31
0.0
  0
LINE
  5
1628B
  8
0
 10
3443.890494591470997
 20
224.4865808034170129
 30
0.0
 11
3443.8904945447711725
 21
224.0141400250811046
 31
0.0
  0
LINE
  5
1628C
  8
0
 10
3443.6712912233710995
 20
224.0141398803170034
 30
0.0
 11
3443.6712909622960979
 21
224.4865806109141033
 31
0.0
  0
LINE
  5
1628D
  8
0
 10
3443.4886639270707747
 20
224.4865806060265072
 30
0.0
 11
3443.4886638803709502
 21
224.0141398983168983
 31
0.0
  0
LINE
  5
1628E
  8
0
 10
3443.0502572375708041
 20
224.0141399417169055
 30
0.0
 11
3443.0502572843711278
 21
224.4865808866169061
 31
0.0
  0
ARC
  5
1628F
  8
0
 10
3444.438319098690954
 20
225.2621712655127908
 30
0.0
 40
0.136259693980239
 50
307.1482263007363258
 51
0.0000146768286562
  0
LINE
  5
16290
  8
0
 10
3441.9643425838708026
 20
225.3802817814170112
 30
0.0
 11
3441.9643425722711072
 21
225.2621715452170008
 31
0.0
  0
ARC
  5
16291
  8
0
 10
3442.1006024151997735
 20
225.2621715318344116
 30
0.0
 40
0.1362598429294175
 50
179.9999943727912068
 51
232.8517903048193887
  0
LINE
  5
16292
  8
0
 10
3442.0183179744708468
 20
225.1535620681169974
 30
0.0
 11
3442.7536865713668703
 21
224.5964338800710038
 31
0.0
  0
LINE
  5
16293
  8
0
 10
3442.7536865713668703
 20
224.5964338800710038
 30
0.0
 11
3442.7537123831712051
 21
224.5456360496011996
 31
0.0
  0
LINE
  5
16294
  8
0
 10
3442.7536865713668703
 20
224.5964338800710038
 30
0.0
 11
3443.7852084406708855
 21
224.5964703482169966
 31
0.0
  0
LINE
  5
16295
  8
0
 10
3443.7852084406708855
 20
224.5964703482169966
 30
0.0
 11
3443.7852084461710547
 21
224.5456359320168929
 31
0.0
  0
LINE
  5
16296
  8
0
 10
3443.7852084406708855
 20
224.5964703482169966
 30
0.0
 11
3444.5206034809498306
 21
225.1535619443669987
 31
0.0
  0
ARC
  5
16297
  8
0
 10
3442.758028236825794
 20
224.1478582755956097
 30
0.0
 40
0.1728962314429896
 50
230.6603776936208874
 51
309.3396197743138032
  0
LINE
  5
16298
  8
0
 10
3442.6484265731710366
 20
224.0141399815169905
 30
0.0
 11
3442.6395392991707922
 21
224.0141399823953918
 31
0.0
  0
LINE
  5
16299
  8
0
 10
3442.6395392991707922
 20
224.0141399823170048
 30
0.0
 11
3442.6395393458710714
 21
224.4865809272170054
 31
0.0
  0
LINE
  5
1629A
  8
0
 10
3442.6395393458710714
 20
224.4865809272170054
 30
0.0
 11
3442.6484266199709054
 21
224.4865809263170036
 31
0.0
  0
ARC
  5
1629B
  8
0
 10
3442.7580281769987778
 20
224.3536956793103911
 30
0.0
 40
0.1722526927971954
 50
50.4846615570604271
 51
129.5152490429574925
  0
LINE
  5
1629C
  8
0
 10
3442.8676287814901116
 20
224.4865817119562053
 30
0.0
 11
3442.8676287814901116
 21
224.0141391851491903
 31
0.0
  0
LINE
  5
1629D
  8
0
 10
3442.6484265731710366
 20
224.0141399815169905
 30
0.0
 11
3442.6484265731710366
 21
224.4865809263170036
 31
0.0
  0
LINE
  5
1629E
  8
0
 10
3443.8993818187709621
 20
224.014139857716998
 30
0.0
 11
3443.899381865570831
 21
224.4865808026169987
 31
0.0
  0
ARC
  5
1629F
  8
0
 10
3447.1013253717978841
 20
302.9910829505325864
 30
0.0
 40
81.2971983428198826
 50
266.6732462178301262
 51
269.1029256729779036
  0
LINE
  5
162A0
  8
0
 10
3442.3836336698209379
 20
221.8308843098386092
 30
0.0
 11
3442.3836336698209379
 21
223.488733777919208
 31
0.0
  0
ARC
  5
162A1
  8
0
 10
3452.3426057801489151
 20
34.2830193978973909
 30
0.0
 40
189.4676317462925113
 50
92.9753995173138037
 51
93.0130220316075764
  0
ARC
  5
162A2
  8
0
 10
3442.5017437062510908
 20
223.6131980518632076
 30
0.0
 40
0.1181248798320554
 50
272.9753980564410085
 51
359.985079047334807
  0
LINE
  5
162A3
  8
0
 10
3442.6198685820768333
 20
223.6131672898117131
 30
0.0
 11
3442.6199483963341663
 21
223.9196503988258939
 31
0.0
  0
LINE
  5
162A4
  8
0
 10
3442.6199483963341663
 20
223.9196503988258939
 30
0.0
 11
3443.9190667816710629
 21
223.919650549916895
 31
0.0
  0
ARC
  5
162A5
  8
0
 10
3446.3981247332840212
 20
169.9244255150389051
 30
0.0
 40
53.6944421254071287
 50
90.6708511370219128
 51
91.9525327948648226
  0
LINE
  5
162A6
  8
0
 10
3442.3600116018219524
 20
223.5021556982298989
 30
0.0
 11
3442.3600116018219524
 21
221.8184280550169944
 31
0.0
  0
ARC
  5
162A7
  8
0
 10
3442.0487658514048235
 20
221.8311593075900987
 30
0.0
 40
0.3115060223253643
 50
350.1340278218248159
 51
357.6576688291086725
  0
ARC
  5
162A8
  8
0
 10
3442.282297781869147
 20
221.7972021052729019
 30
0.0
 40
0.0758933540557606
 50
279.1628625969950122
 51
345.1759051436559957
  0
ARC
  5
162A9
  8
0
 10
3442.2653154975560028
 20
221.9024862416115127
 30
0.0
 40
0.1825383133601861
 50
268.5593604645753771
 51
279.1628625969950122
  0
LINE
  5
162AA
  8
0
 10
3442.2607262554711269
 20
221.7200056270206119
 30
0.0
 11
3440.7866193405889135
 21
221.7328701118987055
 31
0.0
  0
ARC
  5
162AB
  8
0
 10
3440.788099748123841
 20
221.9296345029057136
 30
0.0
 40
0.1967698171819662
 50
229.8496944778335944
 51
269.5051235210125924
  0
ARC
  5
162AC
  8
0
 10
3440.7880905264910325
 20
221.9296235713588032
 30
0.0
 40
0.1967555155304694
 50
183.3142823151029006
 51
229.8496944778335944
  0
ARC
  5
162AD
  8
0
 10
3453.3876785980519344
 20
222.6592663462218979
 30
0.0
 40
12.8174527289147306
 50
176.6578714308384974
 51
183.3142995767119032
  0
ARC
  5
162AE
  8
0
 10
3440.7770572693029862
 20
223.3956938422354028
 30
0.0
 40
0.1853469759531391
 50
128.6788917668635861
 51
176.6578886924486085
  0
ARC
  5
162AF
  8
0
 10
3440.7881064697230613
 20
223.3899666010543115
 30
0.0
 40
0.1967879775662521
 50
90.4908995227663127
 51
130.1483391405328121
  0
ARC
  5
162B0
  8
0
 10
47642.7836622393078869
 20
-5064755.415564451366663
 30
0.0
 40
5065171.8737294264137745
 50
90.4999900540669984
 51
90.5000067316360912
  0
ARC
  5
162B1
  8
0
 10
3442.2642145803370113
 20
223.4298433690418051
 30
0.0
 40
0.1698058492302359
 50
76.8616962260293946
 51
91.1770483776389256
  0
ARC
  5
162B2
  8
0
 10
3442.2806785705602124
 20
223.5204285756427964
 30
0.0
 40
0.077982748221339
 50
15.9320099802886794
 51
73.5115035512316126
  0
ARC
  5
162B3
  8
0
 10
3442.0009947182829819
 20
223.4829125085535111
 30
0.0
 40
0.3595322280616402
 50
3.0680994911435291
 51
9.4324870242521452
  0
LINE
  5
162B4
  8
0
 10
3442.3836337567358896
 20
223.3290991984169125
 30
0.0
 11
3442.3600116018219524
 21
223.3290991984169125
 31
0.0
  0
LINE
  5
162B5
  8
0
 10
3442.3836335795072046
 20
221.9905165212169038
 30
0.0
 11
3442.3600116018219524
 21
221.9905165212169038
 31
0.0
  0
CIRCLE
  5
162B6
  8
0
 10
3440.8442635682708897
 20
222.6598096517168983
 30
0.0
 40
0.0567104291811903
  0
LINE
  5
162B7
  8
0
 10
3442.3392776603632228
 20
223.476360014318999
 30
0.0
 11
3440.6280880273711773
 21
223.315514488416909
 31
0.0
  0
ARC
  5
162B8
  8
0
 10
3440.632608339557919
 20
223.2674241774946893
 30
0.0
 40
0.0483022900788012
 50
95.3698147782084931
 51
171.4942564628892967
  0
ARC
  5
162B9
  8
0
 10
3442.3403889962519315
 20
223.4566880807253142
 30
0.0
 40
0.0197033010116378
 50
8.2829050249514733
 51
93.2329971713181038
  0
LINE
  5
162BA
  8
0
 10
3442.3392776603632228
 20
221.8432429462150139
 30
0.0
 11
3440.6280880273711773
 21
222.0040884721169903
 31
0.0
  0
ARC
  5
162BB
  8
0
 10
3440.632608339557919
 20
222.05217878303921
 30
0.0
 40
0.0483022900788012
 50
188.5057435371107033
 51
264.6301852217915211
  0
ARC
  5
162BC
  8
0
 10
3442.3403103827499763
 20
221.8631567622763043
 30
0.0
 40
0.0199405778150781
 50
267.031722459673972
 51
351.113539966796111
  0
ARC
  5
162BD
  8
0
 10
3440.8148761657239447
 20
227.0124142945319932
 30
0.0
 40
4.5498674828486951
 50
312.1579899010006898
 51
313.0204641307025213
  0
ARC
  5
162BE
  8
0
 10
3441.9896719267271692
 20
225.714884494178591
 30
0.0
 40
2.7995164715153682
 50
304.276932216102125
 51
312.1579899010006898
  0
ARC
  5
162BF
  8
0
 10
3443.1634261087169762
 20
223.9927362302863969
 30
0.0
 40
0.7154115023340452
 50
286.4735851533675941
 51
304.276932216102125
  0
ARC
  5
162C0
  8
0
 10
3443.229057779651157
 20
223.7707917306044862
 30
0.0
 40
0.4839663097534836
 50
253.2543415205061876
 51
286.4735851533675941
  0
ARC
  5
162C1
  8
0
 10
3443.3068372133989214
 20
224.029295471680399
 30
0.0
 40
0.7539178321873875
 50
232.968358108396103
 51
253.2543415205061876
  0
ARC
  5
162C2
  8
0
 10
3446.8833447257688931
 20
228.7700317690324994
 30
0.0
 40
6.6924350399653987
 50
230.7623946106382107
 51
232.968358108396103
  0
ARC
  5
162C3
  8
0
 10
3445.0451887570170584
 20
226.3379456709488977
 30
0.0
 40
3.647812612650509
 50
228.3276680981298057
 51
228.9608264605710133
  0
LINE
  5
162C4
  8
0
 10
3442.0183181378120025
 20
225.1535619443669987
 30
0.0
 11
3444.5206034809498306
 21
225.1535619443669987
 31
0.0
  0
LINE
  5
162C5
  8
0
 10
3442.8482007105708362
 20
223.9550848436099955
 30
0.0
 11
3442.8482007105708362
 21
223.9196504339460887
 31
0.0
  0
LINE
  5
162C6
  8
0
 10
3443.6907203956720878
 20
223.9550847475182991
 30
0.0
 11
3443.6907203956720878
 21
223.9196505251879046
 31
0.0
  0
LINE
  5
162C7
  8
0
 10
3443.9190666485719703
 20
223.919651048817002
 30
0.0
 11
3443.9190666232711919
 21
223.6859603695912995
 31
0.0
  0
ARC
  5
162C8
  8
0
 10
3444.0369373800440371
 20
223.685960356830293
 30
0.0
 40
0.1178707567726769
 50
179.9999937970092958
 51
211.9416071069802001
  0
ARC
  5
162C9
  8
0
 10
3444.0373561072028679
 20
223.6862214136035902
 30
0.0
 40
0.1183641968123869
 50
211.9416071069802001
 51
272.2439802097674146
  0
ARC
  5
162CA
  8
0
 10
3447.3720574529102123
 20
141.9545372663822036
 30
0.0
 40
81.6813207173261446
 50
92.132695159310444
 51
92.3365511698814743
  0
LINE
  5
162CB
  8
0
 10
3444.3324524403719806
 20
223.5968163583169996
 30
0.0
 11
3444.3324524382378513
 21
223.5771313190168996
 31
0.0
  0
LINE
  5
162CC
  8
0
 10
3444.3324524382378513
 20
223.5771313190168996
 30
0.0
 11
3444.5686729106710118
 21
223.5771312926169969
 31
0.0
  0
LINE
  5
162CD
  8
0
 10
3444.5686729106710118
 20
223.5771312926169969
 30
0.0
 11
3444.5686729128037769
 21
223.5968163327169975
 31
0.0
  0
LINE
  5
162CE
  8
0
 10
3444.5686729128037769
 20
223.5968163327169975
 30
0.0
 11
3444.3324524403719806
 21
223.5968163579169072
 31
0.0
  0
ARC
  5
162CF
  8
0
 10
3448.067199009225078
 20
218.5598230224439931
 30
0.0
 40
2.306118103795884
 50
231.0001612400519946
 51
256.48504621945699
  0
ARC
  5
162D0
  8
0
 10
3448.2308103311529521
 20
219.1282631288109997
 30
0.0
 40
2.8971721397234909
 50
255.9661685313052999
 51
280.5215147730564809
  0
ARC
  5
162D1
  8
0
 10
3448.2780385153268981
 20
218.8890547644438129
 30
0.0
 40
2.6533630661584149
 50
280.4620560061197239
 51
291.7983746646975192
  0
ARC
  5
162D2
  8
0
 10
3448.4222386135170382
 20
218.5315317731152049
 30
0.0
 40
2.267857068968909
 50
291.7699234498454075
 51
303.2753555772586083
  0
ARC
  5
162D3
  8
0
 10
3448.768805957558925
 20
218.0487242408784141
 30
0.0
 40
1.6742446096608941
 50
302.4250274326230965
 51
321.8037046404112971
  0
ARC
  5
162D4
  8
0
 10
3448.8300746509921737
 20
218.0005169477254015
 30
0.0
 40
1.596284389625229
 50
321.8037046404112971
 51
339.915226232756595
  0
ARC
  5
162D5
  8
0
 10
3449.4717601444731372
 20
217.7658867477651938
 30
0.0
 40
0.9130482640589502
 50
339.915226232756595
 51
348.7922714783177867
  0
ARC
  5
162D6
  8
0
 10
3447.8884247304617929
 20
218.3440060441330957
 30
0.0
 40
1.98652010023216
 50
230.1655645864379949
 51
241.0562613373587908
  0
ARC
  5
162D7
  8
0
 10
3448.1400295886392087
 20
218.7989662377484876
 30
0.0
 40
2.5064179579240271
 50
241.0562613373587908
 51
260.4869375793286963
  0
ARC
  5
162D8
  8
0
 10
3448.2291760313028135
 20
219.3309393060274886
 30
0.0
 40
3.0458087565235692
 50
260.4869375793286963
 51
280.151186078382807
  0
ARC
  5
162D9
  8
0
 10
3448.3304519631660696
 20
218.7653067789678119
 30
0.0
 40
2.471181077027806
 50
280.151186078382807
 51
302.1690205539666749
  0
ARC
  5
162DA
  8
0
 10
3448.6994460897099088
 20
218.1786508305845871
 30
0.0
 40
1.7781285052868421
 50
302.1690205539666749
 51
321.8676239381916275
  0
ARC
  5
162DB
  8
0
 10
3449.0395811636899452
 20
217.911640361032994
 30
0.0
 40
1.3457091955862781
 50
321.8676239381916275
 51
342.4325495667529253
  0
ARC
  5
162DC
  8
0
 10
3449.2297620099329833
 20
217.8514303346761949
 30
0.0
 40
1.146224856472724
 50
342.4325495667529253
 51
2.3252943503935439
  0
ARC
  5
162DD
  8
0
 10
3449.1679681606319718
 20
217.8489211127022998
 30
0.0
 40
1.2080696299497371
 50
2.3252943503935439
 51
12.9221364027557595
  0
ARC
  5
162DE
  8
0
 10
3448.67322823746008
 20
217.7354093554228029
 30
0.0
 40
1.7156644591391459
 50
12.9221364027557595
 51
21.0676056390949
  0
ENDSEC
  0
EOF
