  0
SECTION
  2
HEADER
  9
$ACADVER
  1
AC1009
  9
$INSBASE
 10
3466.3181925136900645
 20
178.2613200866780119
 30
0.0
  9
$EXTMIN
 10
3460.6179904095788515
 20
154.8301888042186931
 30
-0.0000000000112498
  9
$EXTMAX
 10
3472.2064054617530928
 20
178.2787980714714138
 30
0.0000000000002956
  9
$LIMMIN
 10
0.0
 20
0.0
  9
$LIMMAX
 10
11.6929133858000007
 20
8.2677165353999982
  9
$ORTHOMODE
 70
     0
  9
$REGENMODE
 70
     1
  9
$FILLMODE
 70
     1
  9
$QTEXTMODE
 70
     0
  9
$MIRRTEXT
 70
     0
  9
$DRAGMODE
 70
     2
  9
$LTSCALE
 40
0.6431102362
  9
$OSMODE
 70
   575
  9
$ATTMODE
 70
     1
  9
$TEXTSIZE
 40
0.2
  9
$TRACEWID
 40
0.05
  9
$TEXTSTYLE
  7
STANDARD
  9
$CLAYER
  8
0
  9
$CELTYPE
  6
BYLAYER
  9
$CECOLOR
 62
   256
  9
$DIMSCALE
 40
1.0
  9
$DIMASZ
 40
0.1875
  9
$DIMEXO
 40
0.0625
  9
$DIMDLI
 40
0.4443307087
  9
$DIMRND
 40
0.0
  9
$DIMDLE
 40
0.0
  9
$DIMEXE
 40
0.125
  9
$DIMTP
 40
0.01
  9
$DIMTM
 40
0.01
  9
$DIMTXT
 40
2.0
  9
$DIMCEN
 40
0.1052362205
  9
$DIMTSZ
 40
0.0
  9
$DIMTOL
 70
     1
  9
$DIMLIM
 70
     0
  9
$DIMTIH
 70
     1
  9
$DIMTOH
 70
     1
  9
$DIMSE1
 70
     0
  9
$DIMSE2
 70
     0
  9
$DIMTAD
 70
     0
  9
$DIMZIN
 70
     0
  9
$DIMBLK
  1

  9
$DIMASO
 70
     1
  9
$DIMSHO
 70
     1
  9
$DIMPOST
  1
\X
  9
$DIMAPOST
  1

  9
$DIMALT
 70
     1
  9
$DIMALTD
 70
     2
  9
$DIMALTF
 40
25.3999999999999986
  9
$DIMLFAC
 40
1.0
  9
$DIMTOFL
 70
     0
  9
$DIMTVP
 40
0.0
  9
$DIMTIX
 70
     0
  9
$DIMSOXD
 70
     0
  9
$DIMSAH
 70
     0
  9
$DIMBLK1
  1

  9
$DIMBLK2
  1

  9
$DIMSTYLE
  2
STANDARD
  9
$DIMCLRD
 70
     0
  9
$DIMCLRE
 70
     0
  9
$DIMCLRT
 70
     0
  9
$DIMTFAC
 40
1.0
  9
$DIMGAP
 40
0.09
  9
$LUNITS
 70
     2
  9
$LUPREC
 70
     4
  9
$SKETCHINC
 40
0.1
  9
$FILLETRAD
 40
0.0
  9
$AUNITS
 70
     0
  9
$AUPREC
 70
     0
  9
$MENU
  1
.
  9
$ELEVATION
 40
0.0
  9
$PELEVATION
 40
0.0
  9
$THICKNESS
 40
0.0
  9
$LIMCHECK
 70
     0
  9
$BLIPMODE
 70
     0
  9
$CHAMFERA
 40
0.0
  9
$CHAMFERB
 40
0.0
  9
$SKPOLY
 70
     0
  9
$TDCREATE
 40
2458060.468368056230247
  9
$TDUPDATE
 40
2459383.0413888888433576
  9
$TDINDWG
 40
0.5787223379999999
  9
$TDUSRTIMER
 40
0.5787223379999999
  9
$USRTIMER
 70
     1
  9
$ANGBASE
 50
0.0
  9
$ANGDIR
 70
     0
  9
$PDMODE
 70
     0
  9
$PDSIZE
 40
0.3125
  9
$PLINEWID
 40
0.0
  9
$COORDS
 70
     2
  9
$SPLFRAME
 70
     0
  9
$SPLINETYPE
 70
     6
  9
$SPLINESEGS
 70
     8
  9
$ATTDIA
 70
     1
  9
$ATTREQ
 70
     1
  9
$HANDLING
 70
     1
  9
$HANDSEED
  5
17167
  9
$SURFTAB1
 70
     6
  9
$SURFTAB2
 70
     6
  9
$SURFTYPE
 70
     6
  9
$SURFU
 70
     6
  9
$SURFV
 70
     6
  9
$UCSNAME
  2

  9
$UCSORG
 10
0.0
 20
0.0
 30
0.0
  9
$UCSXDIR
 10
1.0
 20
0.0
 30
0.0
  9
$UCSYDIR
 10
0.0
 20
1.0
 30
0.0
  9
$PUCSNAME
  2

  9
$PUCSORG
 10
0.0
 20
0.0
 30
0.0
  9
$PUCSXDIR
 10
1.0
 20
0.0
 30
0.0
  9
$PUCSYDIR
 10
0.0
 20
1.0
 30
0.0
  9
$USERI1
 70
     0
  9
$USERI2
 70
     0
  9
$USERI3
 70
     0
  9
$USERI4
 70
     0
  9
$USERI5
 70
     0
  9
$USERR1
 40
0.0
  9
$USERR2
 40
0.0
  9
$USERR3
 40
0.0
  9
$USERR4
 40
0.0
  9
$USERR5
 40
0.0
  9
$WORLDVIEW
 70
     1
  9
$SHADEDGE
 70
     3
  9
$SHADEDIF
 70
    70
  9
$TILEMODE
 70
     1
  9
$MAXACTVP
 70
    64
  9
$PLIMCHECK
 70
     0
  9
$PEXTMIN
 10
1.0000000000000000E+20
 20
1.0000000000000000E+20
 30
1.0000000000000000E+20
  9
$PEXTMAX
 10
-1.0000000000000000E+20
 20
-1.0000000000000000E+20
 30
-1.0000000000000000E+20
  9
$PLIMMIN
 10
0.0
 20
0.0
  9
$PLIMMAX
 10
12.0
 20
9.0
  9
$UNITMODE
 70
     0
  9
$VISRETAIN
 70
     1
  9
$PLINEGEN
 70
     0
  9
$PSLTSCALE
 70
     1
  0
ENDSEC
  0
SECTION
  2
TABLES
  0
TABLE
  2
VPORT
 70
     1
  0
VPORT
  2
*ACTIVE
 70
     0
 10
0.0
 20
0.0
 11
1.0
 21
1.0
 12
162.7190824430059877
 22
-28.70701823008012
 13
0.0
 23
0.0
 14
1.0
 24
1.0
 15
0.0
 25
0.0
 16
0.0
 26
0.0
 36
96.5995694866707311
 17
3303.693115234375
 27
195.2615115758877096
 37
0.0
 40
32.1881470886956791
 41
2.3650546021840868
 42
50.0
 43
0.0
 44
0.0
 50
0.0
 51
0.0
 71
     0
 72
   100
 73
     1
 74
     1
 75
     0
 76
     0
 77
     0
 78
     0
  0
ENDTAB
  0
TABLE
  2
LTYPE
 70
     2
  0
LTYPE
  2
CONTINUOUS
 70
     0
  3
Solid line
 72
    65
 73
     0
 40
0.0
  0
LTYPE
  2
PHANTOM2
 70
     0
  3
___ _ _ ___ _ _ ___ _ _ ___ _ _
 72
    65
 73
     6
 40
1.25
 49
0.625
 49
-0.125
 49
0.125
 49
-0.125
 49
0.125
 49
-0.125
  0
ENDTAB
  0
TABLE
  2
LAYER
 70
     2
  0
LAYER
  2
0
 70
     0
 62
   255
  6
CONTINUOUS
  0
LAYER
  2
DEFPOINTS
 70
     0
 62
     7
  6
CONTINUOUS
  0
ENDTAB
  0
TABLE
  2
STYLE
 70
     1
  0
STYLE
  2
STANDARD
 70
     0
 40
0.0
 41
0.8
 50
0.0
 71
     0
 42
0.2
  3
txt
  4

  0
ENDTAB
  0
TABLE
  2
VIEW
 70
     3
  0
ENDTAB
  0
TABLE
  2
UCS
 70
     0
  0
ENDTAB
  0
TABLE
  2
APPID
 70
     9
  0
APPID
  2
ACAD
 70
     0
  0
APPID
  2
ACAD_MLEADERVER
 70
     0
  0
APPID
  2
ACAD_EXEMPT_FROM_CAD_STANDARDS
 70
     0
  0
APPID
  2
ACAD_NAV_VCDISPLAY
 70
     0
  0
APPID
  2
ACAECLAYERSTANDARD
 70
     0
  0
APPID
  2
ACCMTRANSPARENCY
 70
     0
  0
APPID
  2
ACAD_DSTYLE_DIMJAG
 70
     0
  0
APPID
  2
ACAD_DSTYLE_DIMTALN
 70
     0
  0
APPID
  2
ACDBATTR
 70
     0
  0
ENDTAB
  0
TABLE
  2
DIMSTYLE
 70
     1
  0
DIMSTYLE
  2
STANDARD
 70
     0
  3

  4

  5

  6

  7

 40
1.0
 41
0.1875
 42
0.0625
 43
0.38
 44
0.125
 45
0.0
 46
0.0
 47
0.01
 48
0.01
140
0.15625
141
0.09
142
0.0
143
25.3999999999999986
144
1.0
145
0.0
146
1.0
147
0.09
 71
     1
 72
     0
 73
     1
 74
     1
 75
     0
 76
     0
 77
     0
 78
     4
170
     0
171
     2
172
     0
173
     0
174
     0
175
     0
176
     0
177
     0
178
     0
  0
ENDTAB
  0
ENDSEC
  0
SECTION
  2
BLOCKS
  0
BLOCK
  8
0
  2
$MODEL_SPACE
 70
     0
 10
0.0
 20
0.0
 30
0.0
  3
$MODEL_SPACE
  1

  0
ENDBLK
  5
21
  8
0
  0
BLOCK
 67
     1
  8
0
  2
$PAPER_SPACE
 70
     0
 10
0.0
 20
0.0
 30
0.0
  3
$PAPER_SPACE
  1

  0
ENDBLK
  5
1D
 67
     1
  8
0
  0
ENDSEC
  0
SECTION
  2
ENTITIES
  0
ATTDEF
  5
15B77
  8
DEFPOINTS
 10
3466.318130159249904
 20
178.264773605868811
 30
0.0
 40
0.001
  1
K-72677X-C7
  3

  2
MODELNUMBER
 70
     0
1001
ACDBATTR
1070
     0
1070
     1
  0
ATTDEF
  5
15B78
  8
DEFPOINTS
 10
3466.318130159249904
 20
178.2631069392020891
 30
0.0
 40
0.001
  1
ELEVATION
  3

  2
TRADENAME
 70
     0
1001
ACDBATTR
1070
     0
1070
     1
  0
ATTDEF
  5
15B79
  8
DEFPOINTS
 10
3466.318130159249904
 20
178.2614402725353955
 30
0.0
 40
0.001
  1
BATH AND SHOWER FAUCET
  3

  2
PRODUCT
 70
     0
1001
ACDBATTR
1070
     0
1070
     1
  0
LINE
  5
16F9C
  8
0
 10
3467.5583499939898502
 20
178.2613200866780119
 30
0.0
 11
3465.0780350333898241
 21
178.2613200866780119
 31
0.0
  0
LINE
  5
16F9D
  8
0
 10
3467.5288496855409903
 20
177.8676192992780045
 30
0.0
 11
3465.1075353415390055
 21
177.8676192992780045
 31
0.0
  0
LINE
  5
16F9E
  8
0
 10
3467.5485429348432262
 20
177.8868036133962107
 30
0.0
 11
3467.5583499939898502
 21
178.2613200866780119
 31
0.0
  0
LINE
  5
16F9F
  8
0
 10
3465.08784209223586
 20
177.8868036133962107
 30
0.0
 11
3465.0780350333898241
 21
178.2613200866780119
 31
0.0
  0
LINE
  5
16FA0
  8
0
 10
3466.8103184977398996
 20
176.5093515826779935
 30
0.0
 11
3466.8103184977398996
 21
177.8676192992780045
 31
0.0
  0
LINE
  5
16FA1
  8
0
 10
3465.8221295213897974
 20
176.5093515826779935
 30
0.0
 11
3465.8221295213897974
 21
177.8676192992780045
 31
0.0
  0
LINE
  5
16FA2
  8
0
 10
3465.8221295213897974
 20
176.5093515826779935
 30
0.0
 11
3466.8103184977398996
 21
176.5093515826779935
 31
0.0
  0
ARC
  5
16FA3
  8
0
 10
3467.5288496855409903
 20
177.8873192992780048
 30
0.0
 40
0.0197
 50
270.0
 51
358.4999999998116209
  0
ARC
  5
16FA4
  8
0
 10
3465.1075353415390055
 20
177.8873192992780048
 30
0.0
 40
0.0197
 50
181.5000000001884075
 51
270.0
  0
LINE
  5
16FA5
  8
0
 10
3464.4874988127899087
 20
176.3715563071779968
 30
0.0
 11
3466.0032318835901606
 21
176.3715563071779968
 31
0.0
  0
LINE
  5
16FA6
  8
0
 10
3466.6331531434889257
 20
176.3715563071779968
 30
0.0
 11
3467.1464052909268503
 21
176.3715563071779968
 31
0.0
  0
LINE
  5
16FA7
  8
0
 10
3464.4874988127899087
 20
174.7967531575779958
 30
0.0
 11
3465.9244917261898991
 21
174.7967531575779958
 31
0.0
  0
LINE
  5
16FA8
  8
0
 10
3466.7118933008900967
 20
174.7967531575779958
 30
0.0
 11
3467.1464052909268503
 21
174.7967531575779958
 31
0.0
  0
LINE
  5
16FA9
  8
0
 10
3467.1881925135890015
 20
174.7967531575779958
 30
0.0
 11
3467.7770386970942127
 21
174.7967531575779958
 31
0.0
  0
LINE
  5
16FAA
  8
0
 10
3464.4677890330740411
 20
174.8164531575779961
 30
0.0
 11
3464.4677890330740411
 21
176.3518563071779965
 31
0.0
  0
ARC
  5
16FAB
  8
0
 10
3464.4875057322387875
 20
174.8164698626046913
 30
0.0
 40
0.0197167062409428
 50
180.0485439927726077
 51
269.9798924218343927
  0
ARC
  5
16FAC
  8
0
 10
3464.4875057322387875
 20
176.3518396021509886
 30
0.0
 40
0.0197167062411189
 50
90.020107578347961
 51
179.9514560066280069
  0
LINE
  5
16FAD
  8
0
 10
3467.1881925135890015
 20
176.3715563071779968
 30
0.0
 11
3467.1881925135890015
 21
174.7967531575779958
 31
0.0
  0
LINE
  5
16FAE
  8
0
 10
3467.1881925135890015
 20
174.9030523701779885
 30
0.0
 11
3467.1464052909268503
 21
174.9030523701779885
 31
0.0
  0
LINE
  5
16FAF
  8
0
 10
3467.1464052909268503
 20
176.2652570945780042
 30
0.0
 11
3467.1881925135890015
 21
176.2652570945780042
 31
0.0
  0
LINE
  5
16FB0
  8
0
 10
3465.8654366080900218
 20
176.3715563071779968
 30
0.0
 11
3465.8654366080900218
 21
176.5093515826779935
 31
0.0
  0
ARC
  5
16FB1
  8
0
 10
3466.3181925135900201
 20
175.5841547323780105
 30
0.0
 40
0.3937007874
 50
0.0
 51
180.0
  0
LINE
  5
16FB2
  8
0
 10
3466.7709484190891089
 20
176.3715563071779968
 30
0.0
 11
3466.7709484190891089
 21
176.5093515826779935
 31
0.0
  0
LINE
  5
16FB3
  8
0
 10
3466.0032318835901606
 20
176.1750861825611878
 30
0.0
 11
3466.0032318835901606
 21
176.5093515826779935
 31
0.0
  0
LINE
  5
16FB4
  8
0
 10
3466.6331531434889257
 20
176.175086395734894
 30
0.0
 11
3466.6331531434889257
 21
176.5093515826779935
 31
0.0
  0
ARC
  5
16FB5
  8
0
 10
3466.3181925135900201
 20
175.5841547323780105
 30
0.0
 40
0.6496062992000005
 50
307.3052009553617836
 51
232.6947990335343945
  0
ARC
  5
16FB6
  8
0
 10
3466.6725993620830195
 20
176.175067785211013
 30
0.0
 40
0.0394462229854254
 50
179.9729681467013904
 51
237.9307856444252991
  0
ARC
  5
16FB7
  8
0
 10
3465.9637856648969318
 20
176.175067785211013
 30
0.0
 40
0.0394462229854254
 50
302.0692071341547944
 51
0.0267222177490295
  0
LINE
  5
16FB8
  8
0
 10
3465.8906075287350177
 20
175.095115444910391
 30
0.0
 11
3465.6761219306918065
 21
175.4854951634646056
 31
0.0
  0
ARC
  5
16FB9
  8
0
 10
3466.3181925135900201
 20
175.5841547323780105
 30
0.0
 40
0.4330708660999977
 50
335.3800226511455094
 51
204.6199773171304059
  0
CIRCLE
  5
16FBA
  8
0
 10
3465.3445232481008134
 20
175.5739427873780016
 30
0.0
 40
0.2946361441033121
  0
ARC
  5
16FBB
  8
0
 10
3465.2945704662911339
 20
175.584154732380199
 30
0.0
 40
0.3188976378022504
 50
237.5050111000794004
 51
290.9724165455345997
  0
ARC
  5
16FBC
  8
0
 10
3465.2945528982218093
 20
175.5841271507134991
 30
0.0
 40
0.3188649363439707
 50
122.6102378144860978
 51
237.5050111000794004
  0
ARC
  5
16FBD
  8
0
 10
3465.2878509017878059
 20
175.5946026460775897
 30
0.0
 40
0.3064289900866274
 50
53.1028298165363992
 51
122.6102378144860978
  0
ARC
  5
16FBE
  8
0
 10
3465.2453833988888618
 20
175.5841649986782897
 30
0.0
 40
0.2952512111996764
 50
91.3894832919845754
 51
114.5501104361109981
  0
LINE
  5
16FBF
  8
0
 10
3465.23822394634999
 20
175.8793293934724886
 30
0.0
 11
3465.3445232481008134
 21
175.8685789314812951
 31
0.0
  0
ARC
  5
16FC0
  8
0
 10
3465.2506651428261648
 20
175.6017533733692915
 30
0.0
 40
0.3134729657470079
 50
245.9155429313802017
 51
273.5417979855071735
  0
LINE
  5
16FC1
  8
0
 10
3467.1464052909268503
 20
174.7967531575779958
 30
0.0
 11
3467.1464052909268503
 21
176.3715563071779968
 31
0.0
  0
ARC
  5
16FC2
  8
0
 10
3466.3181925135900201
 20
159.8361232362780129
 30
0.0
 40
0.718503937
 50
123.2261593691807064
 51
56.7738406403502722
  0
ARC
  5
16FC3
  8
0
 10
3466.3181925135399979
 20
159.836123249023899
 30
0.0
 40
0.3937008001467527
 50
180.0146084663169859
 51
359.9853915336814225
  0
ARC
  5
16FC4
  8
0
 10
3466.3181925135900201
 20
159.8361232362780129
 30
0.0
 40
0.4133858454000002
 50
162.247201772814492
 51
17.7527982726784188
  0
LINE
  5
16FC5
  8
0
 10
3466.7118933008900967
 20
159.8360228687712947
 30
0.0
 11
3466.7118933008900967
 21
175.5841547323780105
 31
0.0
  0
LINE
  5
16FC6
  8
0
 10
3465.9244917261898991
 20
159.8360228687712947
 30
0.0
 11
3465.9244917261898991
 21
175.5841547323780105
 31
0.0
  0
LINE
  5
16FC7
  8
0
 10
3467.9658302335901681
 20
178.2613200866780119
 30
0.0
 11
3470.5760664540898688
 21
178.2613208489779879
 31
0.0
  0
LINE
  5
16FC8
  8
0
 10
3467.9658302452889984
 20
178.1432103679780141
 30
0.0
 11
3467.9658302335901681
 21
178.2613205907780127
 31
0.0
  0
LINE
  5
16FC9
  8
0
 10
3468.6410271723898404
 20
177.3676198701780038
 30
0.0
 11
3468.641027219190164
 21
176.8951789252780031
 31
0.0
  0
LINE
  5
16FCA
  8
0
 10
3469.9008696920900547
 20
177.3676199947780106
 30
0.0
 11
3469.9008697387898792
 21
176.8951790498780099
 31
0.0
  0
LINE
  5
16FCB
  8
0
 10
3469.8417996836678867
 20
176.8361239430761884
 30
0.0
 11
3468.7000973214680926
 21
176.8361237957799119
 31
0.0
  0
LINE
  5
16FCC
  8
0
 10
3468.7000972452901806
 20
177.4266749768798093
 30
0.0
 11
3469.8417996074899747
 21
177.426675124276187
 31
0.0
  0
LINE
  5
16FCD
  8
0
 10
3468.7000972452901806
 20
177.4266749768798093
 30
0.0
 11
3468.6410271723898404
 21
177.3676198701780038
 31
0.0
  0
LINE
  5
16FCE
  8
0
 10
3469.8417996074899747
 20
177.426675124276187
 30
0.0
 11
3469.9008696920900547
 21
177.3676199947780106
 31
0.0
  0
LINE
  5
16FCF
  8
0
 10
3469.9008697387898792
 20
176.8951790498780099
 30
0.0
 11
3469.8417996836678867
 21
176.8361239430761884
 31
0.0
  0
LINE
  5
16FD0
  8
0
 10
3468.7000973214680926
 20
176.8361237957799119
 30
0.0
 11
3468.641027219190164
 21
176.8951789252780031
 31
0.0
  0
ARC
  5
16FD1
  8
0
 10
3469.2709488102332216
 20
176.7770271338821999
 30
0.0
 40
0.6299601652178436
 50
69.6372152962597255
 51
110.362858044996301
  0
ARC
  5
16FD2
  8
0
 10
3468.7595161443791767
 20
177.2347343230995875
 30
0.0
 40
0.1722530145312002
 50
50.4846778566268171
 51
129.5152215100249009
  0
LINE
  5
16FD3
  8
0
 10
3469.4901517535899984
 20
177.3676199541779965
 30
0.0
 11
3469.6727790965887834
 21
177.3676198228880878
 31
0.0
  0
LINE
  5
16FD4
  8
0
 10
3469.0517451108908062
 20
177.3676196735875124
 30
0.0
 11
3468.8691180756659378
 21
177.3676196784751937
 31
0.0
  0
LINE
  5
16FD5
  8
0
 10
3468.6499144464901292
 20
177.3676198709779896
 30
0.0
 11
3468.6410271723898404
 21
177.3676198701780038
 31
0.0
  0
ARC
  5
16FD6
  8
0
 10
3469.2709484205238368
 20
177.485773645091399
 30
0.0
 40
0.6299620191695569
 50
249.6372468771006936
 51
290.3627644668708854
  0
ARC
  5
16FD7
  8
0
 10
3468.7595162416491803
 20
177.0280641191608879
 30
0.0
 40
0.1722526445024974
 50
230.4846551704916067
 51
309.5152691520510189
  0
LINE
  5
16FD8
  8
0
 10
3469.4901518003898673
 20
176.8951790092779959
 30
0.0
 11
3469.672779143389107
 21
176.8951790442343963
 31
0.0
  0
LINE
  5
16FD9
  8
0
 10
3469.0517451575901759
 20
176.8951789658779887
 30
0.0
 11
3468.8691178145900267
 21
176.8951789478780086
 31
0.0
  0
LINE
  5
16FDA
  8
0
 10
3468.6499144931899536
 20
176.895179092642195
 30
0.0
 11
3468.641027219190164
 21
176.8951789252780031
 31
0.0
  0
LINE
  5
16FDB
  8
0
 10
3468.6499144464901292
 20
177.3676198709779896
 30
0.0
 11
3468.6499144931899536
 21
176.895179092642195
 31
0.0
  0
LINE
  5
16FDC
  8
0
 10
3468.8691178145900267
 20
176.8951789478780086
 30
0.0
 11
3468.8691180756659378
 21
177.3676196784751937
 31
0.0
  0
LINE
  5
16FDD
  8
0
 10
3469.0517451108908062
 20
177.3676196735875124
 30
0.0
 11
3469.0517451575901759
 21
176.8951789658779887
 31
0.0
  0
LINE
  5
16FDE
  8
0
 10
3469.4901518003898673
 20
176.8951790092779959
 30
0.0
 11
3469.4901517535899984
 21
177.3676199541779965
 31
0.0
  0
ARC
  5
16FDF
  8
0
 10
3480.269861082449097
 20
174.174550923200087
 30
0.0
 40
11.3980533668001396
 50
179.0623662059423111
 51
183.5550741280192995
  0
ARC
  5
16FE0
  8
0
 10
3470.763863520871837
 20
173.5052421238993929
 30
0.0
 40
1.870497188757124
 50
181.1475576445492948
 51
217.1508245826092889
  0
ARC
  5
16FE1
  8
0
 10
3472.4079337733560351
 20
175.5330194720949919
 30
0.0
 40
4.4493891517152102
 50
225.2044372108416042
 51
233.959602587983909
  0
ARC
  5
16FE2
  8
0
 10
3468.9264150280500871
 20
170.6309247964084932
 30
0.0
 40
1.5643498685113211
 50
2.9454696078890619
 51
56.4879849302376513
  0
ARC
  5
16FE3
  8
0
 10
3469.0406583089611559
 20
170.7406954251763977
 30
0.0
 40
1.448338051315301
 50
310.005998478740878
 51
358.8374305485460241
  0
ARC
  5
16FE4
  8
0
 10
3468.4931391699738015
 20
171.2955501069154991
 30
0.0
 40
2.226209302444345
 50
287.7683558812664728
 51
311.6196321172654962
  0
ARC
  5
16FE5
  8
0
 10
3456.3896286640137987
 20
174.1745127601772083
 30
0.0
 40
11.3905513141783601
 50
356.442778165577181
 51
0.9384435309320902
  0
ARC
  5
16FE6
  8
0
 10
3465.8882231236329972
 20
173.5051885886045966
 30
0.0
 40
1.870385124396154
 50
322.8486318896282228
 51
358.854040722232412
  0
ARC
  5
16FE7
  8
0
 10
3464.2440528350039131
 20
175.5330194720949919
 30
0.0
 40
4.4493891517152102
 50
306.040397412016091
 51
314.7955627891583958
  0
ARC
  5
16FE8
  8
0
 10
3467.7255715931419218
 20
170.6309247843996104
 30
0.0
 40
1.5643498856086011
 50
123.5120152187621017
 51
130.3899970058915017
  0
ARC
  5
16FE9
  8
0
 10
3468.1588474383870562
 20
171.2955501069154991
 30
0.0
 40
2.226209302444345
 50
229.4611721126981934
 51
252.2316441187334988
  0
ARC
  5
16FEA
  8
0
 10
3468.3259933041799741
 20
171.7815165710910037
 30
0.0
 40
2.7400236016119739
 50
252.0043319707253033
 51
287.9956680292746114
  0
ARC
  5
16FEB
  8
0
 10
3466.3181925135900201
 20
159.8361232362780129
 30
0.0
 40
5.0
 50
94.5161536272886451
 51
85.4838463727113549
  0
ARC
  5
16FEC
  8
0
 10
3466.3181925135399979
 20
159.836123249023899
 30
0.0
 40
4.7357819827941308
 50
94.7686860547356531
 51
85.2313139440354632
  0
ARC
  5
16FED
  8
0
 10
3466.3181925135399979
 20
159.836123249023899
 30
0.0
 40
4.1712899763063183
 50
95.4158353197943967
 51
84.5841646788446582
  0
ARC
  5
16FEE
  8
0
 10
3466.3103184977890123
 20
159.8361232362780129
 30
0.0
 40
0.5039370079000021
 50
139.9646447835962135
 51
37.1650800602984006
  0
ARC
  5
16FEF
  8
0
 10
3466.3177668272128358
 20
159.837450959538188
 30
0.0
 40
0.497390897693327
 50
270.0490593295390909
 51
339.7985155933016017
  0
ARC
  5
16FF0
  8
0
 10
3466.3177692441158797
 20
159.8346282888159067
 30
0.0
 40
0.4945682259363301
 50
238.3337679862706011
 51
270.0490593295390909
  0
ARC
  5
16FF1
  8
0
 10
3466.3189938601121867
 20
159.8366137274566938
 30
0.0
 40
0.4969009605835749
 50
184.6064776528384073
 51
238.3337679862706011
  0
ARC
  5
16FF2
  8
0
 10
3466.3170593952149829
 20
159.836457863985288
 30
0.0
 40
0.4949602267377373
 50
142.4789587706198972
 51
184.6064776528384073
  0
ARC
  5
16FF3
  8
0
 10
3466.3103184977899218
 20
159.8361232362778992
 30
0.0
 40
0.5000000000003312
 50
140.5026086742020937
 51
175.7379906157900109
  0
ARC
  5
16FF4
  8
0
 10
3466.3103184977890123
 20
159.8361232362780129
 30
0.0
 40
0.5000000000000094
 50
184.2620093904531018
 51
222.4102869878325066
  0
ARC
  5
16FF5
  8
0
 10
3466.3103184977890123
 20
159.8361232362780129
 30
0.0
 40
0.4999999999999897
 50
222.4102869878325066
 51
270.9023563046858953
  0
ARC
  5
16FF6
  8
0
 10
3466.3103917454468501
 20
159.8314727067727006
 30
0.0
 40
0.4953488936908571
 50
270.9023563046858953
 51
297.1431802902470167
  0
LINE
  5
16FF7
  8
0
 10
3465.8117011828849172
 20
159.7989644785324117
 30
0.0
 11
3465.8077403403240169
 21
159.7991407597658053
 31
0.0
  0
ARC
  5
16FF8
  8
0
 10
3465.8144160325359735
 20
159.8099750322537886
 30
0.0
 40
0.0130450668930166
 50
258.5964884052478965
 51
269.666353315414085
  0
ARC
  5
16FF9
  8
0
 10
3465.8247121111071465
 20
160.03531716403009
 30
0.0
 40
0.2386125107887763
 50
267.5086739226597956
 51
269.7564870528937035
  0
ARC
  5
16FFA
  8
0
 10
3465.8663935744771152
 20
160.3289722841653884
 30
0.0
 40
0.5306000219095556
 50
263.6341461190007749
 51
265.3561530480350825
  0
LINE
  5
16FFB
  8
0
 10
3465.8117011828890099
 20
159.8732819939779972
 30
0.0
 11
3465.8077404733680851
 21
159.8731075207687127
 31
0.0
  0
ARC
  5
16FFC
  8
0
 10
3465.8745188156672157
 20
159.2545566050389994
 30
0.0
 40
0.619684771172765
 50
94.7330831060454557
 51
96.202799074505549
  0
ARC
  5
16FFD
  8
0
 10
3466.3181925135900201
 20
159.8361232362780129
 30
0.0
 40
0.5089826723003124
 50
176.080428436811701
 51
183.9191409426921098
  0
ARC
  5
16FFE
  8
0
 10
3465.8392206153998814
 20
159.8460530015169923
 30
0.0
 40
0.0431426186868503
 50
221.1184219549789987
 51
226.7573258370670999
  0
ARC
  5
16FFF
  8
0
 10
3465.8422598206711882
 20
159.8224098615835089
 30
0.0
 40
0.0479645450889649
 50
132.812626817217307
 51
137.8112819393095947
  0
ARC
  5
17000
  8
0
 10
3465.8231654594078464
 20
159.7234049676702057
 30
0.0
 40
0.1521350446893592
 50
89.8195921196032856
 51
94.2687142760037347
  0
ARC
  5
17001
  8
0
 10
3468.1020900873991195
 20
178.1432103678525039
 30
0.0
 40
0.1362598421094474
 50
179.9999999472350964
 51
232.8518018749917928
  0
LINE
  5
17002
  8
0
 10
3468.0198056690969679
 20
178.0346008881722923
 30
0.0
 11
3468.2192681476021789
 21
177.8834792537543024
 31
0.0
  0
LINE
  5
17003
  8
0
 10
3470.5760664540898688
 20
178.2613208489779879
 30
0.0
 11
3470.576066465690019
 21
178.143210612778006
 31
0.0
  0
ARC
  5
17004
  8
0
 10
3470.4398066227599884
 20
178.143210599395502
 30
0.0
 40
0.1362598429294175
 50
307.1482096951796734
 51
0.0000056272087362
  0
LINE
  5
17005
  8
0
 10
3470.5220910634898246
 20
178.0346011356780025
 30
0.0
 11
3469.7867224665938011
 21
177.4774729476320942
 31
0.0
  0
LINE
  5
17006
  8
0
 10
3469.7867224665938011
 20
177.4774729476320942
 30
0.0
 11
3469.786696654789921
 21
177.42667511716229
 31
0.0
  0
LINE
  5
17007
  8
0
 10
3469.7867224665938011
 20
177.4774729476320942
 30
0.0
 11
3468.7552005972897859
 21
177.4775094157780018
 31
0.0
  0
LINE
  5
17008
  8
0
 10
3468.7552005972897859
 20
177.4775094157780018
 30
0.0
 11
3468.7552005917900715
 21
177.4266749995780117
 31
0.0
  0
LINE
  5
17009
  8
0
 10
3468.7552005972897859
 20
177.4775094157780018
 30
0.0
 11
3468.6212653564898574
 21
177.5789246355780051
 31
0.0
  0
ARC
  5
1700A
  8
0
 10
3469.7823808011348774
 20
177.0288973431567001
 30
0.0
 40
0.1728962314429896
 50
230.660380225685202
 51
309.3396223063758725
  0
LINE
  5
1700B
  8
0
 10
3469.8919824647900896
 20
176.8951790490779956
 30
0.0
 11
3469.9008697387898792
 21
176.8951790499565107
 31
0.0
  0
LINE
  5
1700C
  8
0
 10
3469.9008697387898792
 20
176.8951790498780099
 30
0.0
 11
3469.9008696920900547
 21
177.3676199947780106
 31
0.0
  0
LINE
  5
1700D
  8
0
 10
3469.9008696920900547
 20
177.3676199947780106
 30
0.0
 11
3469.8919824179902207
 21
177.3676199938780087
 31
0.0
  0
ARC
  5
1700E
  8
0
 10
3469.7823808609609841
 20
177.23473474687151
 30
0.0
 40
0.1722526927971954
 50
50.4847509570392887
 51
129.5153384429426922
  0
LINE
  5
1700F
  8
0
 10
3469.6727802564710146
 20
177.3676207795172104
 30
0.0
 11
3469.6727802564710146
 21
176.8951782527101955
 31
0.0
  0
LINE
  5
17010
  8
0
 10
3469.8919824647900896
 20
176.8951790490779956
 30
0.0
 11
3469.8919824647900896
 21
177.3676199938780087
 31
0.0
  0
LINE
  5
17011
  8
0
 10
3468.641027219190164
 20
176.8951789252780031
 30
0.0
 11
3468.6410271723898404
 21
177.3676198701780038
 31
0.0
  0
LINE
  5
17012
  8
0
 10
3467.1881925135890015
 20
176.3715487225780123
 30
0.0
 11
3468.7639330179899844
 21
176.3715563071779968
 31
0.0
  0
ARC
  5
17013
  8
0
 10
3468.7639331127397782
 20
176.3518713672721105
 30
0.0
 40
0.0196849399061498
 50
2.797491629892177
 51
90.0002757849637476
  0
ARC
  5
17014
  8
0
 10
3462.2930823414658335
 20
175.9494140313547916
 30
0.0
 40
6.5030374012817687
 50
359.5317714192188987
 51
3.5566463815765559
  0
ARC
  5
17015
  8
0
 10
3466.8397560715488908
 20
175.9670952961380976
 30
0.0
 40
1.9574282389243649
 50
353.0439818903528817
 51
357.9264517659556191
  0
ARC
  5
17016
  8
0
 10
3468.7608310458140295
 20
175.7327137128878007
 30
0.0
 40
0.022108166348219
 50
278.8016250472231263
 51
353.0439818903561218
  0
LINE
  5
17017
  8
0
 10
3468.7642139017898444
 20
175.7108658913780062
 30
0.0
 11
3468.6907003111509766
 21
175.6958957568922983
 31
0.0
  0
ARC
  5
17018
  8
0
 10
3468.3261342503710694
 20
175.2507381723810056
 30
0.0
 40
0.5753900309535377
 50
50.6839105405030494
 51
90.0145857509181013
  0
ARC
  5
17019
  8
0
 10
3468.3702485415788033
 20
175.3046044353970103
 30
0.0
 40
0.5057649996781103
 50
0.5600648331548794
 51
50.6839105405030494
  0
ARC
  5
1701A
  8
0
 10
3468.3681137685889553
 20
175.5604979505779966
 30
0.0
 40
0.3910166525000338
 50
11.2542580013491005
 51
21.5701393092049791
  0
LINE
  5
1701B
  8
0
 10
3468.7383316264281348
 20
175.6863262473557086
 30
0.0
 11
3468.736027822989854
 21
175.705112655877997
 31
0.0
  0
LINE
  5
1701C
  8
0
 10
3468.7639122406180832
 20
176.3715563070780092
 30
0.0
 11
3468.7639330180418256
 21
175.7597750193806121
 31
0.0
  0
ARC
  5
1701D
  8
0
 10
3468.6816554969650497
 20
175.6868020653469102
 30
0.0
 40
0.109975645008269
 50
23.1495014452355683
 51
41.5702166467575225
  0
LINE
  5
1701E
  8
0
 10
3468.7639330180418256
 20
175.7597750193806121
 30
0.0
 11
3468.6396793654580506
 21
175.7331935055728991
 31
0.0
  0
ARC
  5
1701F
  8
0
 10
3468.3282418988328573
 20
175.2346201710946048
 30
0.0
 40
0.5915123085874424
 50
90.2183422522809479
 51
113.6841146839731067
  0
ARC
  5
17020
  8
0
 10
3468.3020312672028922
 20
175.2943746641672078
 30
0.0
 40
0.526262046880646
 50
113.6841146839731067
 51
178.3547089664808141
  0
LINE
  5
17021
  8
0
 10
3467.7759861816912235
 20
175.3094845944779934
 30
0.0
 11
3467.7786521445627841
 21
174.3610694551481117
 31
0.0
  0
LINE
  5
17022
  8
0
 10
3468.8759893767100948
 20
175.3095483791788922
 30
0.0
 11
3468.8733339184168472
 21
174.3610694260167122
 31
0.0
  0
ARC
  5
17023
  8
0
 10
3466.2488600756960295
 20
223.1835180867012127
 30
0.0
 40
48.6008357927011332
 50
270.5458807757086106
 51
271.8026664208704801
  0
ARC
  5
17024
  8
0
 10
3460.5996737126979497
 20
355.8263547618547022
 30
0.0
 40
181.3664121262548008
 50
272.6150105926461151
 51
273.0205996715906167
  0
LINE
  5
17025
  8
0
 10
3470.1567753887698018
 20
174.7119233790855901
 30
0.0
 11
3470.1567753887698018
 21
176.3697728454802132
 31
0.0
  0
ARC
  5
17026
  8
0
 10
3460.1972794089911076
 20
-12.8459881433811596
 30
0.0
 40
189.4776920029509881
 50
86.9869794603378494
 51
87.0245999832922621
  0
ARC
  5
17027
  8
0
 10
3470.0386653317100354
 20
176.4942371194242128
 30
0.0
 40
0.1181248798320554
 50
180.014920952665193
 51
267.0246019435589915
  0
LINE
  5
17028
  8
0
 10
3469.9205404558838381
 20
176.4942063573728035
 30
0.0
 11
3469.9204606416278693
 21
176.8006894663870128
 31
0.0
  0
LINE
  5
17029
  8
0
 10
3469.9204606416278693
 20
176.8006894663870128
 30
0.0
 11
3468.6213422562900632
 21
176.8006896174780138
 31
0.0
  0
LINE
  5
1702A
  8
0
 10
3468.6212633796899354
 20
176.3715563070780092
 30
0.0
 11
3468.6212632759979897
 21
177.6081595989288928
 31
0.0
  0
ARC
  5
1702B
  8
0
 10
3468.3259848105999481
 20
177.6081595741692922
 30
0.0
 40
0.2952784653985608
 50
0.0000048043657552
 51
180.0087138431065057
  0
LINE
  5
1702C
  8
0
 10
3468.0307063486161496
 20
177.608114666669394
 30
0.0
 11
3468.0308944114449332
 21
176.3715527788021973
 31
0.0
  0
LINE
  5
1702D
  8
0
 10
3466.8103184977398996
 20
177.4026744958609072
 30
0.0
 11
3468.2192681476021789
 21
177.8834792537543024
 31
0.0
  0
LINE
  5
1702E
  8
0
 10
3466.8103184977398996
 20
176.7786818993608904
 30
0.0
 11
3468.03071398289012
 21
177.1951507368779914
 31
0.0
  0
ARC
  5
1702F
  8
0
 10
3466.142284304677105
 20
122.8054645825999955
 30
0.0
 40
53.6944421254071287
 50
87.9843186927810734
 51
89.3291488629780588
  0
LINE
  5
17030
  8
0
 10
3470.1803974378399289
 20
176.3831947657909041
 30
0.0
 11
3470.1803974378399289
 21
174.6994671225779996
 31
0.0
  0
ARC
  5
17031
  8
0
 10
3470.4823150327952135
 20
174.7112007868146009
 30
0.0
 40
0.302145516299827
 50
182.225611499530487
 51
189.982687108334801
  0
ARC
  5
17032
  8
0
 10
3470.2581112560919792
 20
174.6782411728339071
 30
0.0
 40
0.0758933540557606
 50
194.8240948563407926
 51
260.8371374030047036
  0
ARC
  5
17033
  8
0
 10
3470.2750935404051233
 20
174.7835253091724894
 30
0.0
 40
0.1825383133601861
 50
260.8371374030047036
 51
271.4406395354246229
  0
LINE
  5
17034
  8
0
 10
3470.2796827824909087
 20
174.6010446945817023
 30
0.0
 11
3471.7537896973722127
 21
174.6139091794597107
 31
0.0
  0
ARC
  5
17035
  8
0
 10
3471.7523092898368304
 20
174.810673570466804
 30
0.0
 40
0.1967698171819662
 50
270.4948764789874076
 51
310.1503055221663772
  0
ARC
  5
17036
  8
0
 10
3471.7523185114700937
 20
174.8106626389198084
 30
0.0
 40
0.1967555155304694
 50
310.1503055221663772
 51
356.6857176848936888
  0
ARC
  5
17037
  8
0
 10
3459.1528880218070299
 20
175.5403054520523085
 30
0.0
 40
12.8172954128010392
 50
356.6856595276569237
 51
3.3421694647942668
  0
ARC
  5
17038
  8
0
 10
3471.7633517686590494
 20
176.2767329097964932
 30
0.0
 40
0.1853469759531391
 50
3.342111307549803
 51
51.3211082331373376
  0
ARC
  5
17039
  8
0
 10
3471.7523025682380649
 20
176.2710056686152882
 30
0.0
 40
0.1967879775662521
 50
49.8516608594703214
 51
89.5091004772336731
  0
ARC
  5
1703A
  8
0
 10
-40730.2432532013626769
 20
-5064802.5345253841951489
 30
0.0
 40
5065171.8737294264137745
 50
89.4999932683638946
 51
89.5000099459329874
  0
ARC
  5
1703B
  8
0
 10
3470.2761944576232054
 20
176.3108824366028102
 30
0.0
 40
0.1698058492302359
 50
88.8229516223610744
 51
103.1383037739709039
  0
ARC
  5
1703C
  8
0
 10
3470.2597304674009138
 20
176.4014676432038016
 30
0.0
 40
0.077982748221339
 50
106.4884964487684016
 51
164.0679900197129086
  0
ARC
  5
1703D
  8
0
 10
3470.5394137740149745
 20
176.3639516512664045
 30
0.0
 40
0.3595316774603021
 50
170.5675105390562862
 51
176.9319077993253018
  0
LINE
  5
1703E
  8
0
 10
3470.1567752724808997
 20
176.2101382659780029
 30
0.0
 11
3470.1805166284170809
 21
176.2101382659780029
 31
0.0
  0
LINE
  5
1703F
  8
0
 10
3470.1567753763802102
 20
174.8715555887779942
 30
0.0
 11
3470.1803974378399289
 21
174.8715555887779942
 31
0.0
  0
CIRCLE
  5
17040
  8
0
 10
3471.6961454696897817
 20
175.5408487192779887
 30
0.0
 40
0.0567104291811903
  0
LINE
  5
17041
  8
0
 10
3470.2011313775979033
 20
176.3573990818800041
 30
0.0
 11
3471.9123210105899489
 21
176.1965535559779994
 31
0.0
  0
ARC
  5
17042
  8
0
 10
3471.9078006984032072
 20
176.1484632450558081
 30
0.0
 40
0.0483022900788012
 50
8.5057435371139096
 51
84.6301852217913506
  0
ARC
  5
17043
  8
0
 10
3470.2000986541329439
 20
176.3374852691379999
 30
0.0
 40
0.0199405745559966
 50
87.0317188701187376
 51
171.1135481562168934
  0
LINE
  5
17044
  8
0
 10
3470.2011313775979033
 20
174.7242820137759907
 30
0.0
 11
3471.9123210105899489
 21
174.8851275396779954
 31
0.0
  0
ARC
  5
17045
  8
0
 10
3471.9078006984032072
 20
174.9332178506001867
 30
0.0
 40
0.0483022900788012
 50
275.3698147782085925
 51
351.4942564628844934
  0
ARC
  5
17046
  8
0
 10
3470.2000986541329439
 20
174.7441958265179949
 30
0.0
 40
0.0199405745560002
 50
188.8864518437266895
 51
272.9682811298811771
  0
ARC
  5
17047
  8
0
 10
3471.7255328722380909
 20
179.893453362093112
 30
0.0
 40
4.5498674828486951
 50
226.9781621423921933
 51
227.8420100989937964
  0
ARC
  5
17048
  8
0
 10
3470.5507371112348665
 20
178.5959235617395962
 30
0.0
 40
2.7995164715153682
 50
227.8420100989937964
 51
235.7230677838996939
  0
ARC
  5
17049
  8
0
 10
3469.37698292924415
 20
176.873775297847402
 30
0.0
 40
0.7154115023340452
 50
235.7230677838996939
 51
253.5264148466310132
  0
ARC
  5
1704A
  8
0
 10
3469.3113512583108786
 20
176.6518307981654914
 30
0.0
 40
0.4839663097534836
 50
253.5264148466310132
 51
286.7456584794942955
  0
ARC
  5
1704B
  8
0
 10
3469.2335718245622047
 20
176.9103345392414042
 30
0.0
 40
0.7539178321873875
 50
286.7456584794942955
 51
307.0316418916087855
  0
ARC
  5
1704C
  8
0
 10
3465.6570643121917783
 20
181.6510708365935045
 30
0.0
 40
6.6924350399653987
 50
307.0316418916087855
 51
309.2376053893668768
  0
ARC
  5
1704D
  8
0
 10
3467.4952202809449773
 20
179.2189847385099029
 30
0.0
 40
3.647812612650509
 50
311.0391735394291004
 51
311.672331901874486
  0
LINE
  5
1704E
  8
0
 10
3466.7474664667897741
 20
176.0701199717780128
 30
0.0
 11
3466.9585741273658641
 21
175.6858883488349079
 31
0.0
  0
ARC
  5
1704F
  8
0
 10
3466.9413216088469198
 20
175.6764093299152876
 30
0.0
 40
0.0196850500354232
 50
8.4215082385455702
 51
28.7856314596323202
  0
ARC
  5
17050
  8
0
 10
3466.7302139575890578
 20
176.0606409579781086
 30
0.0
 40
0.0196850393999137
 50
28.7856315545025296
 51
49.1460845940892597
  0
LINE
  5
17051
  8
0
 10
3470.5220909001491236
 20
178.0346010119280038
 30
0.0
 11
3468.019805505658951
 21
178.0346010119280038
 31
0.0
  0
LINE
  5
17052
  8
0
 10
3469.6922083273898352
 20
176.8361239111710859
 30
0.0
 11
3469.6922083273898352
 21
176.8006895015070938
 31
0.0
  0
LINE
  5
17053
  8
0
 10
3468.8496886422899479
 20
176.8361238150793042
 30
0.0
 11
3468.8496886422899479
 21
176.8006895927489097
 31
0.0
  0
LINE
  5
17054
  8
0
 10
3464.6705551994900816
 20
178.2613200866780119
 30
0.0
 11
3462.0603189789899261
 21
178.2613208489779879
 31
0.0
  0
LINE
  5
17055
  8
0
 10
3464.670555187789887
 20
178.1432103679780141
 30
0.0
 11
3464.6705551994900816
 21
178.2613205907780127
 31
0.0
  0
LINE
  5
17056
  8
0
 10
3463.995358260689045
 20
177.3676198701780038
 30
0.0
 11
3463.9953582138891761
 21
176.8951789252780031
 31
0.0
  0
LINE
  5
17057
  8
0
 10
3462.7355157409901949
 20
177.3676199947780106
 30
0.0
 11
3462.7355156942899157
 21
176.8951790498780099
 31
0.0
  0
LINE
  5
17058
  8
0
 10
3462.7945857494109987
 20
176.8361239430761884
 30
0.0
 11
3463.9362881116107928
 21
176.8361237957799119
 31
0.0
  0
LINE
  5
17059
  8
0
 10
3463.9362881877891596
 20
177.4266749768798093
 30
0.0
 11
3462.7945858255898202
 21
177.426675124276187
 31
0.0
  0
LINE
  5
1705A
  8
0
 10
3463.9362881877891596
 20
177.4266749768798093
 30
0.0
 11
3463.995358260689045
 21
177.3676198701780038
 31
0.0
  0
LINE
  5
1705B
  8
0
 10
3462.7945858255898202
 20
177.426675124276187
 30
0.0
 11
3462.7355157409901949
 21
177.3676199947780106
 31
0.0
  0
LINE
  5
1705C
  8
0
 10
3462.7355156942899157
 20
176.8951790498780099
 30
0.0
 11
3462.7945857494109987
 21
176.8361239430761884
 31
0.0
  0
LINE
  5
1705D
  8
0
 10
3463.9362881116107928
 20
176.8361237957799119
 30
0.0
 11
3463.9953582138891761
 21
176.8951789252780031
 31
0.0
  0
ARC
  5
1705E
  8
0
 10
3463.365436622847028
 20
176.7770271338821999
 30
0.0
 40
0.6299601652178436
 50
69.6371419550036563
 51
110.3627847037403029
  0
ARC
  5
1705F
  8
0
 10
3463.8768692887001635
 20
177.2347343230995875
 30
0.0
 40
0.1722530145312002
 50
50.4847784899751488
 51
129.5153221433731972
  0
LINE
  5
17060
  8
0
 10
3463.1462336794897965
 20
177.3676199541779965
 30
0.0
 11
3462.963606336490102
 21
177.3676198228880878
 31
0.0
  0
LINE
  5
17061
  8
0
 10
3463.5846403221898981
 20
177.3676196735875124
 30
0.0
 11
3463.7672673574138571
 21
177.3676196784751937
 31
0.0
  0
LINE
  5
17062
  8
0
 10
3463.9864709865901204
 20
177.3676198709779896
 30
0.0
 11
3463.995358260689045
 21
177.3676198701780038
 31
0.0
  0
ARC
  5
17063
  8
0
 10
3463.3654370125550486
 20
177.485773645091399
 30
0.0
 40
0.6299620191695569
 50
249.6372355331290862
 51
290.362753122899278
  0
ARC
  5
17064
  8
0
 10
3463.8768691914319788
 20
177.0280641191608879
 30
0.0
 40
0.1722526445024974
 50
230.4847308479490096
 51
309.5153448295083081
  0
LINE
  5
17065
  8
0
 10
3463.1462336326899276
 20
176.8951790092779959
 30
0.0
 11
3462.9636062896897784
 21
176.8951790442343963
 31
0.0
  0
LINE
  5
17066
  8
0
 10
3463.5846402754900737
 20
176.8951789658779887
 30
0.0
 11
3463.767267618490223
 21
176.8951789478780086
 31
0.0
  0
LINE
  5
17067
  8
0
 10
3463.9864709398898412
 20
176.895179092642195
 30
0.0
 11
3463.9953582138891761
 21
176.8951789252780031
 31
0.0
  0
LINE
  5
17068
  8
0
 10
3463.9864709865901204
 20
177.3676198709779896
 30
0.0
 11
3463.9864709398898412
 21
176.895179092642195
 31
0.0
  0
LINE
  5
17069
  8
0
 10
3463.767267618490223
 20
176.8951789478780086
 30
0.0
 11
3463.7672673574138571
 21
177.3676196784751937
 31
0.0
  0
LINE
  5
1706A
  8
0
 10
3463.5846403221898981
 20
177.3676196735875124
 30
0.0
 11
3463.5846402754900737
 21
176.8951789658779887
 31
0.0
  0
LINE
  5
1706B
  8
0
 10
3463.1462336326899276
 20
176.8951790092779959
 30
0.0
 11
3463.1462336794897965
 21
177.3676199541779965
 31
0.0
  0
ARC
  5
1706C
  8
0
 10
3464.534295493809168
 20
178.1432103330737959
 30
0.0
 40
0.136259693980239
 50
307.1482263007333131
 51
0.0000146768286562
  0
LINE
  5
1706D
  8
0
 10
3462.0603189789899261
 20
178.2613208489779879
 30
0.0
 11
3462.0603189673897759
 21
178.143210612778006
 31
0.0
  0
ARC
  5
1706E
  8
0
 10
3462.196578810318897
 20
178.143210599395502
 30
0.0
 40
0.1362598429294175
 50
179.9999943727912068
 51
232.8517903048202982
  0
LINE
  5
1706F
  8
0
 10
3462.1142943695899703
 20
178.0346011356780025
 30
0.0
 11
3462.8496629664859938
 21
177.4774729476320942
 31
0.0
  0
LINE
  5
17070
  8
0
 10
3462.8496629664859938
 20
177.4774729476320942
 30
0.0
 11
3462.8496887782898739
 21
177.42667511716229
 31
0.0
  0
LINE
  5
17071
  8
0
 10
3462.8496629664859938
 20
177.4774729476320942
 30
0.0
 11
3463.8811848357900089
 21
177.4775094157780018
 31
0.0
  0
LINE
  5
17072
  8
0
 10
3463.8811848357900089
 20
177.4775094157780018
 30
0.0
 11
3463.8811848412901782
 21
177.4266749995780117
 31
0.0
  0
LINE
  5
17073
  8
0
 10
3463.8811848357900089
 20
177.4775094157780018
 30
0.0
 11
3464.616579876068954
 21
178.0346010119280038
 31
0.0
  0
ARC
  5
17074
  8
0
 10
3462.8540046319449175
 20
177.0288973431567001
 30
0.0
 40
0.1728962314429896
 50
230.660377693624099
 51
309.3396197743138032
  0
LINE
  5
17075
  8
0
 10
3462.7444029682901601
 20
176.8951790490779956
 30
0.0
 11
3462.7355156942899157
 21
176.8951790499565107
 31
0.0
  0
LINE
  5
17076
  8
0
 10
3462.7355156942899157
 20
176.8951790498780099
 30
0.0
 11
3462.7355157409901949
 21
177.3676199947780106
 31
0.0
  0
LINE
  5
17077
  8
0
 10
3462.7355157409901949
 20
177.3676199947780106
 30
0.0
 11
3462.7444030150900289
 21
177.3676199938780087
 31
0.0
  0
ARC
  5
17078
  8
0
 10
3462.8540045721179013
 20
177.23473474687151
 30
0.0
 40
0.1722526927971954
 50
50.4846615570573221
 51
129.5152490429607042
  0
LINE
  5
17079
  8
0
 10
3462.9636051766087803
 20
177.3676207795172104
 30
0.0
 11
3462.9636051766087803
 21
176.8951782527101955
 31
0.0
  0
LINE
  5
1707A
  8
0
 10
3462.7444029682901601
 20
176.8951790490779956
 30
0.0
 11
3462.7444029682901601
 21
177.3676199938780087
 31
0.0
  0
LINE
  5
1707B
  8
0
 10
3463.9953582138891761
 20
176.8951789252780031
 30
0.0
 11
3463.995358260689045
 21
177.3676198701780038
 31
0.0
  0
ARC
  5
1707C
  8
0
 10
3467.1973017669170076
 20
255.8721220180935916
 30
0.0
 40
81.2971983428198826
 50
266.6732462178301262
 51
269.1029256729779036
  0
LINE
  5
1707D
  8
0
 10
3462.4796100649400614
 20
174.7119233773995859
 30
0.0
 11
3462.4796100649400614
 21
176.3697728454802132
 31
0.0
  0
ARC
  5
1707E
  8
0
 10
3472.4385821752680386
 20
-12.8359415345415506
 30
0.0
 40
189.4676317462925113
 50
92.9753995173138037
 51
93.0130220316075764
  0
ARC
  5
1707F
  8
0
 10
3462.5977201013702143
 20
176.4942371194242128
 30
0.0
 40
0.1181248798320554
 50
272.9753980564410085
 51
359.985079047334807
  0
LINE
  5
17080
  8
0
 10
3462.7158449771950472
 20
176.4942063573728035
 30
0.0
 11
3462.7159247914528351
 21
176.8006894663870128
 31
0.0
  0
LINE
  5
17081
  8
0
 10
3462.7159247914528351
 20
176.8006894663870128
 30
0.0
 11
3464.0150431767901864
 21
176.8006896174780138
 31
0.0
  0
ARC
  5
17082
  8
0
 10
3466.4941011284031447
 20
122.8054645825999955
 30
0.0
 40
53.6944421254071287
 50
90.6708511370219128
 51
91.9525327948648226
  0
LINE
  5
17083
  8
0
 10
3462.4559879969401663
 20
176.3831947657909041
 30
0.0
 11
3462.4559879969401663
 21
174.6994671225779996
 31
0.0
  0
ARC
  5
17084
  8
0
 10
3462.144742246523947
 20
174.7121983751511038
 30
0.0
 40
0.3115060223253643
 50
350.1340278218265212
 51
357.6576688291086725
  0
ARC
  5
17085
  8
0
 10
3462.3782741769869062
 20
174.6782411728339071
 30
0.0
 40
0.0758933540557606
 50
279.1628625969951827
 51
345.1759051436575874
  0
ARC
  5
17086
  8
0
 10
3462.3612918926751263
 20
174.7835253091724894
 30
0.0
 40
0.1825383133601861
 50
268.5593604645753771
 51
279.1628625969951827
  0
LINE
  5
17087
  8
0
 10
3462.3567026505888862
 20
174.6010446945817023
 30
0.0
 11
3460.882595735708037
 21
174.6139091794597107
 31
0.0
  0
ARC
  5
17088
  8
0
 10
3460.8840761432429645
 20
174.810673570466804
 30
0.0
 40
0.1967698171819662
 50
229.8496944778335944
 51
269.5051235210125924
  0
ARC
  5
17089
  8
0
 10
3460.884066921610156
 20
174.8106626389198084
 30
0.0
 40
0.1967555155304694
 50
183.3142823151029006
 51
229.8496944778335944
  0
ARC
  5
1708A
  8
0
 10
3473.4836549931710579
 20
175.5403054137829031
 30
0.0
 40
12.8174527289147306
 50
176.6578714308384974
 51
183.3142995767119032
  0
ARC
  5
1708B
  8
0
 10
3460.8730336644212002
 20
176.2767329097964932
 30
0.0
 40
0.1853469759531391
 50
128.6788917668625913
 51
176.6578886924502001
  0
ARC
  5
1708C
  8
0
 10
3460.8840828648408205
 20
176.2710056686152882
 30
0.0
 40
0.1967879775662521
 50
90.4908995227663127
 51
130.1483391405297141
  0
ARC
  5
1708D
  8
0
 10
47662.8796386344110942
 20
-5064802.5345253841951489
 30
0.0
 40
5065171.8737294264137745
 50
90.4999900540669984
 51
90.5000067316360912
  0
ARC
  5
1708E
  8
0
 10
3462.3601909754561348
 20
176.3108824366028102
 30
0.0
 40
0.1698058492302359
 50
76.8616962260290251
 51
91.1770483776389256
  0
ARC
  5
1708F
  8
0
 10
3462.3766549656788811
 20
176.4014676432038016
 30
0.0
 40
0.077982748221339
 50
15.9320099802886794
 51
73.5115035512316126
  0
ARC
  5
17090
  8
0
 10
3462.0969711134021054
 20
176.3639515761144878
 30
0.0
 40
0.3595322280616402
 50
3.0680994911419019
 51
9.4324870242489336
  0
LINE
  5
17091
  8
0
 10
3462.4796101518541036
 20
176.2101382659780029
 30
0.0
 11
3462.4559879969401663
 21
176.2101382659780029
 31
0.0
  0
LINE
  5
17092
  8
0
 10
3462.4796099746249638
 20
174.8715555887779942
 30
0.0
 11
3462.4559879969401663
 21
174.8715555887779942
 31
0.0
  0
CIRCLE
  5
17093
  8
0
 10
3460.9402399633891037
 20
175.5408487192779887
 30
0.0
 40
0.0567104291811903
  0
LINE
  5
17094
  8
0
 10
3462.4352540554809821
 20
176.3573990818800041
 30
0.0
 11
3460.724064422489846
 21
176.1965535559779994
 31
0.0
  0
ARC
  5
17095
  8
0
 10
3460.7285847346761329
 20
176.1484632450558081
 30
0.0
 40
0.0483022900788012
 50
95.3698147782086636
 51
171.4942564628861135
  0
ARC
  5
17096
  8
0
 10
3462.436365391371055
 20
176.3377271482862909
 30
0.0
 40
0.0197033010116378
 50
8.2829050249546956
 51
93.2329971713181038
  0
LINE
  5
17097
  8
0
 10
3462.4352540554809821
 20
174.7242820137759907
 30
0.0
 11
3460.724064422489846
 21
174.8851275396779954
 31
0.0
  0
ARC
  5
17098
  8
0
 10
3460.7285847346761329
 20
174.9332178506001867
 30
0.0
 40
0.0483022900788012
 50
188.5057435371138865
 51
264.6301852217912938
  0
ARC
  5
17099
  8
0
 10
3462.4362867778690998
 20
174.7441958298373947
 30
0.0
 40
0.0199405778150781
 50
267.031722459673972
 51
351.113539966796111
  0
ARC
  5
1709A
  8
0
 10
3460.9108525608421587
 20
179.893453362093112
 30
0.0
 40
4.5498674828486951
 50
312.1579899010062036
 51
313.0204641306968938
  0
ARC
  5
1709B
  8
0
 10
3462.0856483218458379
 20
178.5959235617395962
 30
0.0
 40
2.7995164715153682
 50
304.2769322161003061
 51
312.1579899010062036
  0
ARC
  5
1709C
  8
0
 10
3463.2594025038351901
 20
176.873775297847402
 30
0.0
 40
0.7154115023340452
 50
286.4735851533690152
 51
304.2769322161003061
  0
ARC
  5
1709D
  8
0
 10
3463.3250341747698258
 20
176.6518307981654914
 30
0.0
 40
0.4839663097534836
 50
253.2543415205057045
 51
286.4735851533690152
  0
ARC
  5
1709E
  8
0
 10
3463.4028136085180449
 20
176.9103345392414042
 30
0.0
 40
0.7539178321873875
 50
232.9683581083911861
 51
253.2543415205057045
  0
ARC
  5
1709F
  8
0
 10
3466.9793211208880166
 20
181.6510708365935045
 30
0.0
 40
6.6924350399653987
 50
230.7623946106330948
 51
232.9683581083911861
  0
ARC
  5
170A0
  8
0
 10
3465.1411651521348176
 20
179.2189847385099029
 30
0.0
 40
3.647812612650509
 50
228.327668098125514
 51
228.9608264605710133
  0
LINE
  5
170A1
  8
0
 10
3462.114294532931126
 20
178.0346010119280038
 30
0.0
 11
3464.616579876068954
 21
178.0346010119280038
 31
0.0
  0
LINE
  5
170A2
  8
0
 10
3462.9441771056899597
 20
176.8361239111710859
 30
0.0
 11
3462.9441771056899597
 21
176.8006895015070938
 31
0.0
  0
LINE
  5
170A3
  8
0
 10
3463.786696790789847
 20
176.8361238150793042
 30
0.0
 11
3463.786696790789847
 21
176.8006895927489097
 31
0.0
  0
LINE
  5
170A4
  8
0
 10
3464.0150430436901843
 20
176.8006901163780071
 30
0.0
 11
3464.0150430183898607
 21
176.5669994371523046
 31
0.0
  0
ARC
  5
170A5
  8
0
 10
3464.1329137751631606
 20
176.5669994243912981
 30
0.0
 40
0.1178707567726769
 50
179.9999937970092958
 51
211.9416071069830139
  0
ARC
  5
170A6
  8
0
 10
3464.1333325023219913
 20
176.5672604811647091
 30
0.0
 40
0.1183641968123869
 50
211.9416071069830139
 51
272.2439802097674146
  0
ARC
  5
170A7
  8
0
 10
3467.468033848028881
 20
94.8355763339432656
 30
0.0
 40
81.6813207173261446
 50
92.132695159310444
 51
92.3365511698814743
  0
LINE
  5
170A8
  8
0
 10
3464.4284288354901946
 20
176.4778554258780048
 30
0.0
 11
3464.4284288333569748
 21
176.45817038657799
 31
0.0
  0
LINE
  5
170A9
  8
0
 10
3464.4284288333569748
 20
176.45817038657799
 30
0.0
 11
3464.6646493057901353
 21
176.4581703601780021
 31
0.0
  0
LINE
  5
170AA
  8
0
 10
3464.6646493057901353
 20
176.4581703601780021
 30
0.0
 11
3464.6646493079229003
 21
176.4778554002780027
 31
0.0
  0
LINE
  5
170AB
  8
0
 10
3464.6646493079229003
 20
176.4778554002780027
 30
0.0
 11
3464.4284288354901946
 21
176.4778554254779976
 31
0.0
  0
ARC
  5
170AC
  8
0
 10
3468.1631754043442015
 20
171.4408620900049982
 30
0.0
 40
2.306118103795884
 50
231.0001612400469071
 51
256.48504621945699
  0
ARC
  5
170AD
  8
0
 10
3468.3267867262711661
 20
172.0093021963720048
 30
0.0
 40
2.8971721397234909
 50
255.9661685313056978
 51
280.5215147730568219
  0
ARC
  5
170AE
  8
0
 10
3468.3740149104460215
 20
171.7700938320047896
 30
0.0
 40
2.6533630661584149
 50
280.4620560061197239
 51
291.7983746646975192
  0
ARC
  5
170AF
  8
0
 10
3468.5182150086347974
 20
171.4125708406762101
 30
0.0
 40
2.267857068968909
 50
291.7699234498435885
 51
303.2753555772550271
  0
ARC
  5
170B0
  8
0
 10
3468.8647823526780485
 20
170.9297633084395045
 30
0.0
 40
1.6742446096608941
 50
302.4250274326257113
 51
321.8037046404112971
  0
ARC
  5
170B1
  8
0
 10
3468.9260510461108424
 20
170.8815560152864919
 30
0.0
 40
1.596284389625229
 50
321.8037046404112971
 51
339.9152262327535254
  0
ARC
  5
170B2
  8
0
 10
3469.5677365395918059
 20
170.646925815326199
 30
0.0
 40
0.9130482640589502
 50
339.9152262327535254
 51
348.7922714783177867
  0
ARC
  5
170B3
  8
0
 10
3467.9844011255809164
 20
171.2250451116941008
 30
0.0
 40
1.98652010023216
 50
230.1655645864400981
 51
241.0562613373571139
  0
ARC
  5
170B4
  8
0
 10
3468.2360059837578774
 20
171.6800053053094928
 30
0.0
 40
2.5064179579240271
 50
241.0562613373571139
 51
260.4869375793286963
  0
ARC
  5
170B5
  8
0
 10
3468.325152426421937
 20
172.2119783735884937
 30
0.0
 40
3.0458087565235692
 50
260.4869375793286963
 51
280.151186078382807
  0
ARC
  5
170B6
  8
0
 10
3468.4264283582851931
 20
171.6463458465287886
 30
0.0
 40
2.471181077027806
 50
280.151186078382807
 51
302.1690205539633212
  0
ARC
  5
170B7
  8
0
 10
3468.7954224848281228
 20
171.0596898981457059
 30
0.0
 40
1.7781285052868421
 50
302.1690205539633212
 51
321.8676239381890127
  0
ARC
  5
170B8
  8
0
 10
3469.1355575588081592
 20
170.7926794285939991
 30
0.0
 40
1.3457091955862781
 50
321.8676239381890127
 51
342.4325495667497989
  0
ARC
  5
170B9
  8
0
 10
3469.3257384050521068
 20
170.7324694022372
 30
0.0
 40
1.146224856472724
 50
342.4325495667497989
 51
2.3252943503935439
  0
ARC
  5
170BA
  8
0
 10
3469.2639445557510953
 20
170.7299601802633049
 30
0.0
 40
1.2080696299497371
 50
2.3252943503935439
 51
12.9221364027557595
  0
ARC
  5
170BB
  8
0
 10
3468.7692046325792035
 20
170.6164484229838081
 30
0.0
 40
1.7156644591391459
 50
12.9221364027557595
 51
21.0676056391024993
  0
ENDSEC
  0
EOF
