  0
SECTION
  2
HEADER
  9
$ACADVER
  1
AC1009
  9
$INSBASE
 10
3255.4837896090989489
 20
224.4413327203787958
 30
0.0
  9
$EXTMIN
 10
3249.7903051504658833
 20
201.0102611459199125
 30
-0.0015258207003583
  9
$EXTMAX
 10
3261.2353275137129458
 20
224.4528389427763955
 30
0.0000000349246037
  9
$LIMMIN
 10
0.0
 20
0.0
  9
$LIMMAX
 10
11.6929133858000007
 20
8.2677165353999982
  9
$ORTHOMODE
 70
     0
  9
$REGENMODE
 70
     1
  9
$FILLMODE
 70
     1
  9
$QTEXTMODE
 70
     0
  9
$MIRRTEXT
 70
     0
  9
$DRAGMODE
 70
     2
  9
$LTSCALE
 40
0.6431102362
  9
$OSMODE
 70
  2039
  9
$ATTMODE
 70
     1
  9
$TEXTSIZE
 40
0.2
  9
$TRACEWID
 40
0.05
  9
$TEXTSTYLE
  7
STANDARD
  9
$CLAYER
  8
0
  9
$CELTYPE
  6
BYLAYER
  9
$CECOLOR
 62
   256
  9
$DIMSCALE
 40
1.0
  9
$DIMASZ
 40
0.1875
  9
$DIMEXO
 40
0.0625
  9
$DIMDLI
 40
0.4443307087
  9
$DIMRND
 40
0.0
  9
$DIMDLE
 40
0.0
  9
$DIMEXE
 40
0.125
  9
$DIMTP
 40
0.01
  9
$DIMTM
 40
0.01
  9
$DIMTXT
 40
2.0
  9
$DIMCEN
 40
0.1052362205
  9
$DIMTSZ
 40
0.0
  9
$DIMTOL
 70
     1
  9
$DIMLIM
 70
     0
  9
$DIMTIH
 70
     1
  9
$DIMTOH
 70
     1
  9
$DIMSE1
 70
     0
  9
$DIMSE2
 70
     0
  9
$DIMTAD
 70
     0
  9
$DIMZIN
 70
     0
  9
$DIMBLK
  1

  9
$DIMASO
 70
     1
  9
$DIMSHO
 70
     1
  9
$DIMPOST
  1
\X
  9
$DIMAPOST
  1

  9
$DIMALT
 70
     1
  9
$DIMALTD
 70
     2
  9
$DIMALTF
 40
25.3999999999999986
  9
$DIMLFAC
 40
1.0
  9
$DIMTOFL
 70
     0
  9
$DIMTVP
 40
0.0
  9
$DIMTIX
 70
     0
  9
$DIMSOXD
 70
     0
  9
$DIMSAH
 70
     0
  9
$DIMBLK1
  1

  9
$DIMBLK2
  1

  9
$DIMSTYLE
  2
STANDARD
  9
$DIMCLRD
 70
     0
  9
$DIMCLRE
 70
     0
  9
$DIMCLRT
 70
     0
  9
$DIMTFAC
 40
1.0
  9
$DIMGAP
 40
0.09
  9
$LUNITS
 70
     2
  9
$LUPREC
 70
     4
  9
$SKETCHINC
 40
0.1
  9
$FILLETRAD
 40
0.0
  9
$AUNITS
 70
     0
  9
$AUPREC
 70
     0
  9
$MENU
  1
.
  9
$ELEVATION
 40
0.0
  9
$PELEVATION
 40
0.0
  9
$THICKNESS
 40
0.0
  9
$LIMCHECK
 70
     0
  9
$BLIPMODE
 70
     0
  9
$CHAMFERA
 40
0.0
  9
$CHAMFERB
 40
0.0
  9
$SKPOLY
 70
     0
  9
$TDCREATE
 40
2458060.468368056230247
  9
$TDUPDATE
 40
2459241.7631712961010635
  9
$TDINDWG
 40
0.6002385417
  9
$TDUSRTIMER
 40
0.6002385417
  9
$USRTIMER
 70
     1
  9
$ANGBASE
 50
0.0
  9
$ANGDIR
 70
     0
  9
$PDMODE
 70
     0
  9
$PDSIZE
 40
0.3125
  9
$PLINEWID
 40
0.0
  9
$COORDS
 70
     1
  9
$SPLFRAME
 70
     0
  9
$SPLINETYPE
 70
     6
  9
$SPLINESEGS
 70
     8
  9
$ATTDIA
 70
     1
  9
$ATTREQ
 70
     1
  9
$HANDLING
 70
     1
  9
$HANDSEED
  5
27DF6
  9
$SURFTAB1
 70
     6
  9
$SURFTAB2
 70
     6
  9
$SURFTYPE
 70
     6
  9
$SURFU
 70
     6
  9
$SURFV
 70
     6
  9
$UCSNAME
  2

  9
$UCSORG
 10
0.0
 20
0.0
 30
0.0
  9
$UCSXDIR
 10
1.0
 20
0.0
 30
0.0
  9
$UCSYDIR
 10
0.0
 20
1.0
 30
0.0
  9
$PUCSNAME
  2

  9
$PUCSORG
 10
0.0
 20
0.0
 30
0.0
  9
$PUCSXDIR
 10
1.0
 20
0.0
 30
0.0
  9
$PUCSYDIR
 10
0.0
 20
1.0
 30
0.0
  9
$USERI1
 70
     0
  9
$USERI2
 70
     0
  9
$USERI3
 70
     0
  9
$USERI4
 70
     0
  9
$USERI5
 70
     0
  9
$USERR1
 40
0.0
  9
$USERR2
 40
0.0
  9
$USERR3
 40
0.0
  9
$USERR4
 40
0.0
  9
$USERR5
 40
0.0
  9
$WORLDVIEW
 70
     1
  9
$SHADEDGE
 70
     3
  9
$SHADEDIF
 70
    70
  9
$TILEMODE
 70
     1
  9
$MAXACTVP
 70
    64
  9
$PLIMCHECK
 70
     0
  9
$PEXTMIN
 10
1.0000000000000000E+20
 20
1.0000000000000000E+20
 30
1.0000000000000000E+20
  9
$PEXTMAX
 10
-1.0000000000000000E+20
 20
-1.0000000000000000E+20
 30
-1.0000000000000000E+20
  9
$PLIMMIN
 10
0.0
 20
0.0
  9
$PLIMMAX
 10
12.0
 20
9.0
  9
$UNITMODE
 70
     0
  9
$VISRETAIN
 70
     1
  9
$PLINEGEN
 70
     0
  9
$PSLTSCALE
 70
     1
  0
ENDSEC
  0
SECTION
  2
TABLES
  0
TABLE
  2
VPORT
 70
     1
  0
VPORT
  2
*ACTIVE
 70
     0
 10
0.0
 20
0.0
 11
1.0
 21
1.0
 12
-48.1802989022862604
 22
17.4700384684603591
 13
0.0
 23
0.0
 14
1.0
 24
1.0
 15
0.0
 25
0.0
 16
0.0
 26
0.0
 36
96.5995694866707311
 17
3303.693115234375
 27
195.2615115758877096
 37
0.0
 40
23.6376616620176208
 41
2.6486111111111108
 42
50.0
 43
0.0
 44
0.0
 50
0.0
 51
0.0
 71
     0
 72
   100
 73
     1
 74
     1
 75
     0
 76
     0
 77
     0
 78
     0
  0
ENDTAB
  0
TABLE
  2
LTYPE
 70
     2
  0
LTYPE
  2
CONTINUOUS
 70
     0
  3
Solid line
 72
    65
 73
     0
 40
0.0
  0
LTYPE
  2
PHANTOM2
 70
     0
  3
___ _ _ ___ _ _ ___ _ _ ___ _ _
 72
    65
 73
     6
 40
1.25
 49
0.625
 49
-0.125
 49
0.125
 49
-0.125
 49
0.125
 49
-0.125
  0
ENDTAB
  0
TABLE
  2
LAYER
 70
     2
  0
LAYER
  2
0
 70
     0
 62
   255
  6
CONTINUOUS
  0
LAYER
  2
DEFPOINTS
 70
     0
 62
     7
  6
CONTINUOUS
  0
ENDTAB
  0
TABLE
  2
STYLE
 70
     1
  0
STYLE
  2
STANDARD
 70
     0
 40
0.0
 41
0.8
 50
0.0
 71
     0
 42
0.2
  3
txt
  4

  0
ENDTAB
  0
TABLE
  2
VIEW
 70
     0
  0
ENDTAB
  0
TABLE
  2
UCS
 70
     0
  0
ENDTAB
  0
TABLE
  2
APPID
 70
     9
  0
APPID
  2
ACAD
 70
     0
  0
APPID
  2
ACAD_MLEADERVER
 70
     0
  0
APPID
  2
ACAD_EXEMPT_FROM_CAD_STANDARDS
 70
     0
  0
APPID
  2
ACAD_NAV_VCDISPLAY
 70
     0
  0
APPID
  2
ACAECLAYERSTANDARD
 70
     0
  0
APPID
  2
ACCMTRANSPARENCY
 70
     0
  0
APPID
  2
ACAD_DSTYLE_DIMJAG
 70
     0
  0
APPID
  2
ACAD_DSTYLE_DIMTALN
 70
     0
  0
APPID
  2
ACDBATTR
 70
     0
  0
ENDTAB
  0
TABLE
  2
DIMSTYLE
 70
     1
  0
DIMSTYLE
  2
STANDARD
 70
     0
  3

  4

  5

  6

  7

 40
1.0
 41
0.1875
 42
0.0625
 43
0.38
 44
0.125
 45
0.0
 46
0.0
 47
0.01
 48
0.01
140
0.15625
141
0.09
142
0.0
143
25.3999999999999986
144
1.0
145
0.0
146
1.0
147
0.09
 71
     1
 72
     0
 73
     1
 74
     1
 75
     0
 76
     0
 77
     0
 78
     4
170
     0
171
     2
172
     0
173
     0
174
     0
175
     0
176
     0
177
     0
178
     0
  0
ENDTAB
  0
ENDSEC
  0
SECTION
  2
BLOCKS
  0
BLOCK
  8
0
  2
$MODEL_SPACE
 70
     0
 10
0.0
 20
0.0
 30
0.0
  3
$MODEL_SPACE
  1

  0
ENDBLK
  5
21
  8
0
  0
BLOCK
 67
     1
  8
0
  2
$PAPER_SPACE
 70
     0
 10
0.0
 20
0.0
 30
0.0
  3
$PAPER_SPACE
  1

  0
ENDBLK
  5
1D
 67
     1
  8
0
  0
BLOCK
  8
0
  2
_FILLED
 70
     0
 10
0.0
 20
0.0
 30
0.0
  3
_FILLED
  1

  0
SOLID
  5
2389A
  8
0
  6
BYBLOCK
 62
     0
 10
0.0
 20
0.0
 30
0.0
 11
-1.0
 21
0.1666666667
 31
0.0
 12
-1.0
 22
-0.1666666667
 32
0.0
 13
-1.0
 23
-0.1666666667
 33
0.0
  0
ENDBLK
  5
2389B
  8
0
  6
BYBLOCK
 62
     0
  0
ENDSEC
  0
SECTION
  2
ENTITIES
  0
ATTDEF
  5
27515
  8
DEFPOINTS
 10
3255.4842834418941493
 20
224.4449888721891
 30
0.0
 40
0.001
  1
K-72679T-C7
  3

  2
MODELNUMBER
 70
     0
1001
ACDBATTR
1070
     0
1070
     1
  0
ATTDEF
  5
27516
  8
DEFPOINTS
 10
3255.4842834418941493
 20
224.4433222055224064
 30
0.0
 40
0.001
  1
ELEVATION
  3

  2
TRADENAME
 70
     0
1001
ACDBATTR
1070
     0
1070
     1
  0
ATTDEF
  5
27517
  8
DEFPOINTS
 10
3255.4842834418941493
 20
224.4416555388557128
 30
0.0
 40
0.001
  1
BATH AND SHOWER FAUCET
  3

  2
PRODUCT
 70
     0
1001
ACDBATTR
1070
     0
1070
     1
  0
LINE
  5
279EA
  8
0
 10
3256.7239568692148168
 20
224.4413327203787958
 30
0.0
 11
3254.2436419086138812
 21
224.4413327203787958
 31
0.0
  0
LINE
  5
279EB
  8
0
 10
3256.6944467809489652
 20
224.0476319329787884
 30
0.0
 11
3254.2731324369478898
 21
224.0476319329787884
 31
0.0
  0
LINE
  5
279EC
  8
0
 10
3256.7141400302521106
 20
224.0668162470971083
 30
0.0
 11
3256.7239568692148168
 21
224.4413327203787958
 31
0.0
  0
LINE
  5
279ED
  8
0
 10
3254.2534391876451991
 20
224.0668162470971083
 30
0.0
 11
3254.2436419086138812
 21
224.4413327203787958
 31
0.0
  0
LINE
  5
279EE
  8
0
 10
3255.9797533522169033
 20
222.6893642164787934
 30
0.0
 11
3255.9797533522169033
 21
224.0476420842493894
 31
0.0
  0
LINE
  5
279EF
  8
0
 10
3254.9876273679169572
 20
222.6893642164787934
 30
0.0
 11
3254.9876273679169572
 21
224.0476319329787884
 31
0.0
  0
LINE
  5
279F0
  8
0
 10
3254.9876273679169572
 20
222.6893642164787934
 30
0.0
 11
3255.9797533522169033
 21
222.6893642164787934
 31
0.0
  0
ARC
  5
279F1
  8
0
 10
3256.6944467809489652
 20
224.0673319329787887
 30
0.0
 40
0.0197
 50
270.0
 51
358.4999999998116209
  0
ARC
  5
279F2
  8
0
 10
3254.2731324369478898
 20
224.0673319329787887
 30
0.0
 40
0.0197
 50
181.5000000001884075
 51
270.0
  0
LINE
  5
279F3
  8
0
 10
3253.6531176585990579
 20
222.5515689408788091
 30
0.0
 11
3255.1688507293979455
 21
222.5515689408788091
 31
0.0
  0
LINE
  5
279F4
  8
0
 10
3255.7980296771302164
 20
222.5515689408788091
 30
0.0
 11
3256.3112818245667768
 21
222.5515689408788091
 31
0.0
  0
LINE
  5
279F5
  8
0
 10
3253.6531176585990579
 20
220.8586372701788036
 30
0.0
 11
3255.0901105719990483
 21
220.8586372701788036
 31
0.0
  0
LINE
  5
279F6
  8
0
 10
3255.8775121466987912
 20
220.8586372701788036
 30
0.0
 11
3256.3120241367359995
 21
220.8586372701788036
 31
0.0
  0
LINE
  5
279F7
  8
0
 10
3256.3538113593990602
 20
220.8586372701788036
 30
0.0
 11
3256.9431904408929768
 21
220.8586372701788036
 31
0.0
  0
LINE
  5
279F8
  8
0
 10
3253.6334078788831903
 20
220.8783372701788039
 30
0.0
 11
3253.6334078788831903
 21
222.5318689408788089
 31
0.0
  0
ARC
  5
279F9
  8
0
 10
3253.6531245780470272
 20
220.8783539752056129
 30
0.0
 40
0.0197167062409428
 50
180.0485439927726077
 51
269.9798924218343927
  0
ARC
  5
279FA
  8
0
 10
3253.6531245780470272
 20
222.5318522358518862
 30
0.0
 40
0.0197167062411189
 50
90.020107578347961
 51
179.9514560066280069
  0
LINE
  5
279FB
  8
0
 10
3256.3538113593990602
 20
222.551563210885007
 30
0.0
 11
3256.3538113593990602
 21
220.8586372701788036
 31
0.0
  0
LINE
  5
279FC
  8
0
 10
3256.3538113593990602
 20
220.96493648277891
 30
0.0
 11
3256.3120241367359995
 21
220.96493648277891
 31
0.0
  0
LINE
  5
279FD
  8
0
 10
3256.3120241367359995
 20
222.327141207178812
 30
0.0
 11
3256.3538113593990602
 21
222.327141207178812
 31
0.0
  0
LINE
  5
279FE
  8
0
 10
3255.031055453899171
 20
222.5515689408788091
 30
0.0
 11
3255.031055453899171
 21
222.6893642164787934
 31
0.0
  0
ARC
  5
279FF
  8
0
 10
3255.4838113593978051
 20
221.7711622307135997
 30
0.0
 40
0.3937007874
 50
0.0
 51
180.0
  0
LINE
  5
27A00
  8
0
 10
3255.9358249527290354
 20
222.5515689408788091
 30
0.0
 11
3255.9365672648978034
 21
222.6893642164787934
 31
0.0
  0
LINE
  5
27A01
  8
0
 10
3255.1688507293979455
 20
222.3620936808968054
 30
0.0
 11
3255.1688507293979455
 21
222.6893642164787934
 31
0.0
  0
LINE
  5
27A02
  8
0
 10
3255.7987719892989844
 20
222.3620938940705116
 30
0.0
 11
3255.7987719892989844
 21
222.6893642164787934
 31
0.0
  0
ARC
  5
27A03
  8
0
 10
3255.4838113593978051
 20
221.7711622307135997
 30
0.0
 40
0.6496062992000005
 50
307.3051218568734271
 51
232.6947199351536142
  0
ARC
  5
27A04
  8
0
 10
3255.8382182078908045
 20
222.3620752835464884
 30
0.0
 40
0.0394462229854254
 50
179.9729681467013904
 51
237.9307856444252991
  0
ARC
  5
27A05
  8
0
 10
3255.1294045107060811
 20
222.3620752835464884
 30
0.0
 40
0.0394462229854254
 50
302.0692071341591145
 51
0.0267222177490295
  0
LINE
  5
27A06
  8
0
 10
3255.0562263745441669
 20
221.2821229432460086
 30
0.0
 11
3254.8417407765009557
 21
221.6725026618001948
 31
0.0
  0
ARC
  5
27A07
  8
0
 10
3255.4838113593978051
 20
221.7711622307135997
 30
0.0
 40
0.4330708660999977
 50
335.3799435525226045
 51
204.6198982188047069
  0
CIRCLE
  5
27A08
  8
0
 10
3254.5101420939099626
 20
221.7609502857135908
 30
0.0
 40
0.2946361441033121
  0
ARC
  5
27A09
  8
0
 10
3254.4601893120989189
 20
221.7711622307157882
 30
0.0
 40
0.3188976378022504
 50
237.5050111000794004
 51
290.9724165455357934
  0
ARC
  5
27A0A
  8
0
 10
3254.4601717440309585
 20
221.771134649049003
 30
0.0
 40
0.3188649363439707
 50
122.6102378144879026
 51
237.5050111000794004
  0
ARC
  5
27A0B
  8
0
 10
3254.4534697475969551
 20
221.7816101444132073
 30
0.0
 40
0.3064289900866274
 50
53.1028298165393409
 51
122.6102378144879026
  0
ARC
  5
27A0C
  8
0
 10
3254.4110022446989205
 20
221.7711724970139073
 30
0.0
 40
0.2952512111996764
 50
91.3894832919845754
 51
114.5501104361123055
  0
LINE
  5
27A0D
  8
0
 10
3254.4038427921591392
 20
222.0663368918081062
 30
0.0
 11
3254.5101420939099626
 21
222.0555864298169126
 31
0.0
  0
ARC
  5
27A0E
  8
0
 10
3254.4162839886348593
 20
221.7887608717047954
 30
0.0
 40
0.3134729657470079
 50
245.9155429313821912
 51
273.5417979855071735
  0
LINE
  5
27A0F
  8
0
 10
3256.3120241367359995
 20
220.8586372701788036
 30
0.0
 11
3256.3112818245667768
 21
222.5515689408788091
 31
0.0
  0
ARC
  5
27A10
  8
0
 10
3255.4837896089979949
 20
206.0161358699787968
 30
0.0
 40
0.718503937
 50
123.2261593691807064
 51
56.7737615287372392
  0
ARC
  5
27A11
  8
0
 10
3255.4837896089488822
 20
206.0161358827247113
 30
0.0
 40
0.3937008001467527
 50
180.0146084663169859
 51
359.9853915336814225
  0
ARC
  5
27A12
  8
0
 10
3255.4837896089979949
 20
206.0161358699787968
 30
0.0
 40
0.4133858454000002
 50
162.2472017728098876
 51
17.7527191114060088
  0
LINE
  5
27A13
  8
0
 10
3255.8774903962989811
 20
206.0160355024721923
 30
0.0
 11
3255.8775121466987912
 21
221.7711622307135997
 31
0.0
  0
LINE
  5
27A14
  8
0
 10
3255.0900888215987834
 20
206.0160355024721923
 30
0.0
 11
3255.0901105719990483
 21
221.7711622307135997
 31
0.0
  0
LINE
  5
27A15
  8
0
 10
3257.1314273289990524
 20
224.4413327203787958
 30
0.0
 11
3259.7416635494978436
 21
224.4413334826788002
 31
0.0
  0
LINE
  5
27A16
  8
0
 10
3257.1314273406987922
 20
224.323223001678798
 30
0.0
 11
3257.1314273289990524
 21
224.4413332244789103
 31
0.0
  0
ARC
  5
27A17
  8
0
 10
3269.435479928256882
 20
220.2364350358008949
 30
0.0
 40
11.3980533668001396
 50
179.0623662059423111
 51
183.5550741280192995
  0
ARC
  5
27A18
  8
0
 10
3259.5961772294490402
 20
219.5671610376755041
 30
0.0
 40
1.53727424269093
 50
181.3976470932045117
 51
221.1475988902348035
  0
ARC
  5
27A19
  8
0
 10
3261.5735308687649194
 20
221.7130321057958042
 30
0.0
 40
4.4493891517152102
 50
225.2044372108381936
 51
233.9596025879887122
  0
ARC
  5
27A1A
  8
0
 10
3258.0919779290779843
 20
216.810905428935996
 30
0.0
 40
1.564395429291725
 50
2.9465573394337019
 51
56.4875878425022435
  0
ARC
  5
27A1B
  8
0
 10
3258.2062111993568578
 20
216.9207423306804117
 30
0.0
 40
1.4483927207612419
 50
310.0064663646152781
 51
358.8361184260583059
  0
ARC
  5
27A1C
  8
0
 10
3257.6587362653831406
 20
217.4755627406163114
 30
0.0
 40
2.226209302444345
 50
287.7683558812664728
 51
311.6196321172708963
  0
ARC
  5
27A1D
  8
0
 10
3245.5552475098220384
 20
220.2363968727779877
 30
0.0
 40
11.3905513141783601
 50
356.442778165577181
 51
0.9384435309320902
  0
ARC
  5
27A1E
  8
0
 10
3255.3870845369151539
 20
219.5671808186934015
 30
0.0
 40
1.537226290462703
 50
318.849860192834285
 51
358.6016044698101268
  0
ARC
  5
27A1F
  8
0
 10
3253.4096499304127974
 20
221.7130321057958042
 30
0.0
 40
4.4493891517152102
 50
306.0403974119902273
 51
314.7955627891618064
  0
ARC
  5
27A20
  8
0
 10
3256.8911686885508061
 20
216.810937418100508
 30
0.0
 40
1.5643498856086011
 50
123.5120152187883065
 51
130.38999700588829
  0
ARC
  5
27A21
  8
0
 10
3257.324444533795031
 20
217.4755627406163114
 30
0.0
 40
2.226209302444345
 50
229.4616287742331053
 51
252.2316441187334988
  0
ARC
  5
27A22
  8
0
 10
3257.4915903995888584
 20
217.9615292047917876
 30
0.0
 40
2.7400236016119739
 50
252.0043319707253033
 51
287.9956680292746114
  0
ARC
  5
27A23
  8
0
 10
3255.4759155931978967
 20
206.0161358699787968
 30
0.0
 40
0.5039370079000021
 50
139.9646447835974925
 51
37.1672063500558068
  0
ARC
  5
27A24
  8
0
 10
3255.4833639226208106
 20
206.0174635932390004
 30
0.0
 40
0.497390897693327
 50
270.0490593295390909
 51
339.7985155933030228
  0
ARC
  5
27A25
  8
0
 10
3255.4833663395252188
 20
206.0146409225168043
 30
0.0
 40
0.4945682259363301
 50
238.3337679862671052
 51
270.0490593295390909
  0
ARC
  5
27A26
  8
0
 10
3255.484590955521071
 20
206.0166263611575062
 30
0.0
 40
0.4969009605835749
 50
184.6064776528401126
 51
238.3337679862671052
  0
ARC
  5
27A27
  8
0
 10
3255.4826564906238673
 20
206.0164704976861003
 30
0.0
 40
0.4949602267377373
 50
142.478958770623791
 51
184.6064776528401126
  0
ARC
  5
27A28
  8
0
 10
3255.4759155931988062
 20
206.0161358699787115
 30
0.0
 40
0.5000000000003312
 50
140.5026086741958977
 51
175.7379906157900109
  0
ARC
  5
27A29
  8
0
 10
3255.4759155931978967
 20
206.0161358699787968
 30
0.0
 40
0.5000000000000094
 50
184.2620093904531018
 51
222.4102869878362014
  0
ARC
  5
27A2A
  8
0
 10
3255.4759155931978967
 20
206.0161358699787968
 30
0.0
 40
0.4999999999999897
 50
222.4102869878362014
 51
270.9023563046858953
  0
ARC
  5
27A2B
  8
0
 10
3255.475988840854825
 20
206.0114853404735129
 30
0.0
 40
0.4953488936908571
 50
270.9023563046858953
 51
297.1431802902492905
  0
LINE
  5
27A2C
  8
0
 10
3254.9772982782938016
 20
205.9789771122333093
 30
0.0
 11
3254.9733374357319917
 21
205.9791533934665893
 31
0.0
  0
ARC
  5
27A2D
  8
0
 10
3254.9800131279448578
 20
205.989987665954601
 30
0.0
 40
0.0130450668930166
 50
258.5964884052476123
 51
269.666353315414085
  0
ARC
  5
27A2E
  8
0
 10
3254.9903092065160308
 20
206.2153297977309023
 30
0.0
 40
0.2386125107887763
 50
267.5086739226597956
 51
269.7564870528937035
  0
ARC
  5
27A2F
  8
0
 10
3255.0319906698859995
 20
206.508984917866286
 30
0.0
 40
0.5306000219095556
 50
263.6341461190007749
 51
265.3561530480350257
  0
LINE
  5
27A30
  8
0
 10
3254.9772982782978943
 20
206.0532946276788095
 30
0.0
 11
3254.9733375687769694
 21
206.0531201544696103
 31
0.0
  0
ARC
  5
27A31
  8
0
 10
3255.0401159110751905
 20
205.4345692387398969
 30
0.0
 40
0.619684771172765
 50
94.7330831060454557
 51
96.202799074505549
  0
ARC
  5
27A32
  8
0
 10
3255.4837896089979949
 20
206.0161358699787968
 30
0.0
 40
0.5089826723003124
 50
176.080428436811701
 51
183.9191409426954067
  0
ARC
  5
27A33
  8
0
 10
3255.0048177108092204
 20
206.0260656352178046
 30
0.0
 40
0.0431426186868503
 50
221.1184219549778049
 51
226.7573258370692884
  0
ARC
  5
27A34
  8
0
 10
3255.0078569160791631
 20
206.0024224952842928
 30
0.0
 40
0.0479645450889649
 50
132.8126268172206039
 51
137.8112819393155917
  0
ARC
  5
27A35
  8
0
 10
3254.9887625548171854
 20
205.9034176013711033
 30
0.0
 40
0.1521350446893592
 50
89.8195921196032856
 51
94.2687142760037347
  0
ARC
  5
27A36
  8
0
 10
3257.2676871828080039
 20
224.3232230015534014
 30
0.0
 40
0.1362598421094474
 50
179.9999999472350964
 51
232.8518018749888938
  0
LINE
  5
27A37
  8
0
 10
3257.1854027645058522
 20
224.2146135218731047
 30
0.0
 11
3257.3848652430110633
 21
224.0634918874552
 31
0.0
  0
LINE
  5
27A38
  8
0
 10
3259.7416635494978436
 20
224.4413334826788002
 30
0.0
 11
3259.7416635610979938
 21
224.3232232464789035
 31
0.0
  0
ARC
  5
27A39
  8
0
 10
3259.6054037181688727
 20
224.3232232330962859
 30
0.0
 40
0.1362598429294175
 50
307.1482096951806966
 51
0.0000056272087362
  0
LINE
  5
27A3A
  8
0
 10
3259.6876881588977994
 20
224.2146137693787864
 30
0.0
 11
3258.9523195620017759
 21
223.6574855813329918
 31
0.0
  0
LINE
  5
27A3B
  8
0
 10
3258.9523195620017759
 20
223.6574855813329918
 30
0.0
 11
3258.9522937501978959
 21
223.4885768577130989
 31
0.0
  0
LINE
  5
27A3C
  8
0
 10
3258.9523195620017759
 20
223.6574855813329918
 30
0.0
 11
3257.9207976926982155
 21
223.6575220494788141
 31
0.0
  0
LINE
  5
27A3D
  8
0
 10
3257.9207976926982155
 20
223.6575220494788141
 30
0.0
 11
3257.9207976871980463
 21
223.4885767401287922
 31
0.0
  0
LINE
  5
27A3E
  8
0
 10
3257.9207976926982155
 20
223.6575220494788141
 30
0.0
 11
3257.3848652430110633
 21
224.0634918874552
 31
0.0
  0
LINE
  5
27A3F
  8
0
 10
3256.3538113593990602
 20
222.551563210885007
 30
0.0
 11
3257.9295518637982241
 21
222.5515707954849063
 31
0.0
  0
ARC
  5
27A40
  8
0
 10
3257.9295519585489274
 20
222.5318858555791053
 30
0.0
 40
0.0196849399061498
 50
2.797491629892177
 51
90.0002757849637476
  0
ARC
  5
27A41
  8
0
 10
3251.6951517606739799
 20
222.1368379530835
 30
0.0
 40
6.2665868165750247
 50
359.5230319887817814
 51
3.6231450347733078
  0
ARC
  5
27A42
  8
0
 10
3256.0053749173571305
 20
222.1554956798925957
 30
0.0
 40
1.9574282389243649
 50
353.0439818903561218
 51
357.9264517659573244
  0
ARC
  5
27A43
  8
0
 10
3257.9264498916218145
 20
221.9211140966422988
 30
0.0
 40
0.022108166348219
 50
278.8016250472231263
 51
353.0439818903577134
  0
LINE
  5
27A44
  8
0
 10
3257.9298327475989936
 20
221.8992662751325042
 30
0.0
 11
3257.8563191569592163
 21
221.8842961406467111
 31
0.0
  0
ARC
  5
27A45
  8
0
 10
3257.4917530961788543
 20
221.4391385561355037
 30
0.0
 40
0.5753900309535377
 50
50.6839105405030494
 51
90.0145857509181013
  0
ARC
  5
27A46
  8
0
 10
3257.535867387387043
 20
221.4930048191513947
 30
0.0
 40
0.5057649996781103
 50
0.5600648331548794
 51
50.6839105405030494
  0
ARC
  5
27A47
  8
0
 10
3257.533732614399014
 20
221.7488983343324946
 30
0.0
 40
0.3910166525000338
 50
11.2542580013522908
 51
21.5701393091989289
  0
LINE
  5
27A48
  8
0
 10
3257.9039504722368292
 20
221.874726631110093
 30
0.0
 11
3257.9016466687990032
 21
221.8935130396324098
 31
0.0
  0
ARC
  5
27A49
  8
0
 10
3257.4938607446420065
 20
221.4230205548489891
 30
0.0
 40
0.5915123085874424
 50
90.2183422522809479
 51
113.6841146839717993
  0
ARC
  5
27A4A
  8
0
 10
3257.4676501130120414
 20
221.4827750479217059
 30
0.0
 40
0.526262046880646
 50
113.6841146839717993
 51
178.3547089664808141
  0
LINE
  5
27A4B
  8
0
 10
3256.9416050274990084
 20
221.4978849782324062
 30
0.0
 11
3256.9442709903710238
 21
220.4229535677488911
 31
0.0
  0
LINE
  5
27A4C
  8
0
 10
3258.0416082242991251
 20
221.4979485808324
 30
0.0
 11
3258.0389527642259964
 21
220.4229535386176053
 31
0.0
  0
ARC
  5
27A4D
  8
0
 10
3255.4144789215051787
 20
269.2454021993020774
 30
0.0
 40
48.6008357927011332
 50
270.9413516410007787
 51
271.8030591418220183
  0
ARC
  5
27A4E
  8
0
 10
3249.7652903794278245
 20
401.8883344131518243
 30
0.0
 40
181.3665076648819081
 50
272.6148778988707022
 51
273.0205988754128725
  0
LINE
  5
27A4F
  8
0
 10
3259.3223945731410822
 20
220.773807491686398
 30
0.0
 11
3259.3223945731410822
 21
222.4316569580811063
 31
0.0
  0
ARC
  5
27A50
  8
0
 10
3249.3628985933619333
 20
33.2158959692196518
 30
0.0
 40
189.4776920029509881
 50
86.9869794603378494
 51
87.0245999832922621
  0
ARC
  5
27A51
  8
0
 10
3259.2042844699608395
 20
222.5561215277949998
 30
0.0
 40
0.1181251728093442
 50
180.0098747190482982
 51
267.024631730278827
  0
LINE
  5
27A52
  8
0
 10
3259.0861592989058408
 20
222.5561011693515923
 30
0.0
 11
3259.0860577370358442
 21
222.8625924636332911
 31
0.0
  0
LINE
  5
27A53
  8
0
 10
3257.786870225274015
 20
222.5515701087074945
 30
0.0
 11
3257.786870225274015
 21
223.5807897091835059
 31
0.0
  0
LINE
  5
27A54
  8
0
 10
3257.1964072552550533
 20
223.594425762668692
 30
0.0
 11
3257.1964072552550533
 21
222.5515672665989939
 31
0.0
  0
LINE
  5
27A55
  8
0
 10
3259.3460166222098451
 20
222.4450788783917972
 30
0.0
 11
3259.3460166222098451
 21
220.7613512351788074
 31
0.0
  0
ARC
  5
27A56
  8
0
 10
3259.6479342171660392
 20
220.773084899415494
 30
0.0
 40
0.302145516299827
 50
182.225611499530487
 51
189.9826871083332094
  0
ARC
  5
27A57
  8
0
 10
3259.4237304404628048
 20
220.7401252854348002
 30
0.0
 40
0.0758933540557606
 50
194.8240948563438906
 51
260.8371374030052721
  0
ARC
  5
27A58
  8
0
 10
3259.4407127247768585
 20
220.8454094217734109
 30
0.0
 40
0.1825383133601861
 50
260.8371374030052721
 51
271.4406395354246229
  0
LINE
  5
27A59
  8
0
 10
3259.4453019668621891
 20
220.6629288071825101
 30
0.0
 11
3260.9194088817430384
 21
220.6757932920604901
 31
0.0
  0
ARC
  5
27A5A
  8
0
 10
3260.9208815568099453
 20
220.8645698927869034
 30
0.0
 40
0.1887823449204656
 50
269.5530359481808773
 51
311.0284561503173109
  0
ARC
  5
27A5B
  8
0
 10
3260.9179376958409193
 20
220.8725467515207015
 30
0.0
 40
0.1967555155304694
 50
310.1503055221663772
 51
356.6857176848953941
  0
ARC
  5
27A5C
  8
0
 10
3248.3185072061778556
 20
221.6021895646530879
 30
0.0
 40
12.8172954128010392
 50
356.6856595276552753
 51
3.3421694647942668
  0
ARC
  5
27A5D
  8
0
 10
3260.9289709530298751
 20
222.3386170223973011
 30
0.0
 40
0.1853469759531391
 50
3.3421113075514288
 51
51.3211082331363215
  0
ARC
  5
27A5E
  8
0
 10
3260.9179218554718318
 20
222.3328900547199964
 30
0.0
 40
0.1967877021837515
 50
49.8516324074384016
 51
89.5091288323243504
  0
ARC
  5
27A5F
  8
0
 10
-41195.0195436666690512
 20
-5093855.0281054181978106
 30
0.0
 40
5094271.5372428325936198
 50
89.4999932768581914
 51
89.5000098591661981
  0
ARC
  5
27A60
  8
0
 10
3259.4418136419940311
 20
222.3727665492037033
 30
0.0
 40
0.1698058492302359
 50
88.8229516223610744
 51
103.1383037739706054
  0
ARC
  5
27A61
  8
0
 10
3259.4253496517721942
 20
222.4633517558046094
 30
0.0
 40
0.077982748221339
 50
106.4884964487684016
 51
164.0679900197129086
  0
ARC
  5
27A62
  8
0
 10
3259.7050329583858002
 20
222.4258357638672976
 30
0.0
 40
0.3595316774603021
 50
170.5675105390562862
 51
176.9319077993253018
  0
LINE
  5
27A63
  8
0
 10
3259.3223944568521802
 20
222.2720223785788107
 30
0.0
 11
3259.3461358127869971
 21
222.2720223785788107
 31
0.0
  0
LINE
  5
27A64
  8
0
 10
3259.3223945607510359
 20
220.9334397013788021
 30
0.0
 11
3259.3460166222098451
 21
220.9334397013788021
 31
0.0
  0
CIRCLE
  5
27A65
  8
0
 10
3260.8617646540610622
 20
221.6027328318787966
 30
0.0
 40
0.0567104291811903
  0
LINE
  5
27A66
  8
0
 10
3259.3667504234340413
 20
222.4192832031195906
 30
0.0
 11
3261.0779401949607745
 21
222.2584376685788072
 31
0.0
  0
ARC
  5
27A67
  8
0
 10
3261.0734198827740329
 20
222.2103473576565875
 30
0.0
 40
0.0483022900788012
 50
10.2134411832984497
 51
84.6301852217914927
  0
ARC
  5
27A68
  8
0
 10
3259.3657178385042243
 20
222.3993693817388078
 30
0.0
 40
0.0199405745559966
 50
87.0317188701187376
 51
171.1135481562168934
  0
LINE
  5
27A69
  8
0
 10
3259.3667504234340413
 20
220.7861661177381052
 30
0.0
 11
3261.0779401949607745
 21
220.9470116522788032
 31
0.0
  0
ARC
  5
27A6A
  8
0
 10
3261.0734198827740329
 20
220.9951019632009945
 30
0.0
 40
0.0483022900788012
 50
275.3698147782084789
 51
350.2722605051167193
  0
ARC
  5
27A6B
  8
0
 10
3259.3657178385042243
 20
220.8060799391188027
 30
0.0
 40
0.0199405745560002
 50
188.8864518437250979
 51
272.9682811298811771
  0
ARC
  5
27A6C
  8
0
 10
3258.5426017750542087
 20
222.9356594104482951
 30
0.0
 40
0.7154115023340452
 50
235.7230677838979034
 51
253.5264148466324059
  0
ARC
  5
27A6D
  8
0
 10
3258.4769701041191183
 20
222.7137149107664129
 30
0.0
 40
0.4839663097534836
 50
253.5264148466324059
 51
286.7456584794937839
  0
ARC
  5
27A6E
  8
0
 10
3258.3991906703708992
 20
222.9722186518422973
 30
0.0
 40
0.7539178321873875
 50
286.7456584794937839
 51
307.0316418916037833
  0
ARC
  5
27A6F
  8
0
 10
3254.822683158000018
 20
227.7129549491943123
 30
0.0
 40
6.6924350399653987
 50
307.0316418916037833
 51
309.2376053893618177
  0
ARC
  5
27A70
  8
0
 10
3256.6608391267541265
 20
225.280868851110796
 30
0.0
 40
3.647812612650509
 50
311.0391735394291004
 51
311.672331901870109
  0
LINE
  5
27A71
  8
0
 10
3255.9130853125989233
 20
222.2571274701136019
 30
0.0
 11
3256.1241929731750133
 21
221.8728958471704971
 31
0.0
  0
ARC
  5
27A72
  8
0
 10
3256.1069404546560691
 20
221.8634168282509052
 30
0.0
 40
0.0196850500354232
 50
8.4215082385471813
 51
28.7856314596251792
  0
ARC
  5
27A73
  8
0
 10
3255.8958328033991165
 20
222.2476484563136978
 30
0.0
 40
0.0196850393999137
 50
28.7856315545053896
 51
49.1460845940935229
  0
LINE
  5
27A74
  8
0
 10
3259.6876879955570985
 20
224.2146136456287877
 30
0.0
 11
3257.1854026010669259
 21
224.2146136456287877
 31
0.0
  0
LINE
  5
27A75
  8
0
 10
3253.8361522948989659
 20
224.4413327203787958
 30
0.0
 11
3251.2259160743988105
 21
224.4413334826788002
 31
0.0
  0
LINE
  5
27A76
  8
0
 10
3253.8361522831992261
 20
224.323223001678798
 30
0.0
 11
3253.8361522948989659
 21
224.4413332244789103
 31
0.0
  0
LINE
  5
27A77
  8
0
 10
3253.1609355167129252
 20
223.430019735117412
 30
0.0
 11
3253.1611382024771046
 21
222.9575787476788093
 31
0.0
  0
LINE
  5
27A78
  8
0
 10
3251.9010929970131656
 20
223.4300198597173903
 30
0.0
 11
3251.9012956828769347
 21
222.9575788722787877
 31
0.0
  0
LINE
  5
27A79
  8
0
 10
3251.9603657379989272
 20
222.8985237654769946
 30
0.0
 11
3253.1020681001991761
 21
222.8985236181806897
 31
0.0
  0
LINE
  5
27A7A
  8
0
 10
3253.1018654438130397
 20
223.489074841819189
 30
0.0
 11
3251.9601630816127908
 21
223.48907498921551
 31
0.0
  0
LINE
  5
27A7B
  8
0
 10
3253.1018654438130397
 20
223.489074841819189
 30
0.0
 11
3253.1609355167129252
 21
223.430019735117412
 31
0.0
  0
LINE
  5
27A7C
  8
0
 10
3251.9601630816127908
 20
223.48907498921551
 30
0.0
 11
3251.9010929970131656
 21
223.4300198597173903
 31
0.0
  0
LINE
  5
27A7D
  8
0
 10
3251.9012956828769347
 20
222.9575788722787877
 30
0.0
 11
3251.9603657379989272
 21
222.8985237654769946
 31
0.0
  0
LINE
  5
27A7E
  8
0
 10
3253.1020681001991761
 20
222.8985236181806897
 30
0.0
 11
3253.1611382024771046
 21
222.9575787476788093
 31
0.0
  0
ARC
  5
27A7F
  8
0
 10
3252.5310138788699987
 20
222.8394269988216081
 30
0.0
 40
0.6299601652178436
 50
69.6371419550030737
 51
110.3627847037403029
  0
ARC
  5
27A80
  8
0
 10
3253.0424465447240436
 20
223.2971341880389957
 30
0.0
 40
0.1722530145312002
 50
50.4847784899730812
 51
129.5153221433772899
  0
LINE
  5
27A81
  8
0
 10
3252.3118109355132219
 20
223.4300198191174047
 30
0.0
 11
3252.1291835925130727
 21
223.430019687827496
 31
0.0
  0
LINE
  5
27A82
  8
0
 10
3252.7502175782128688
 20
223.4300195385268921
 30
0.0
 11
3252.9328446134368278
 21
223.4300195434146019
 31
0.0
  0
LINE
  5
27A83
  8
0
 10
3253.1520482426130911
 20
223.4300197359173978
 30
0.0
 11
3253.1609355167129252
 21
223.430019735117412
 31
0.0
  0
ARC
  5
27A84
  8
0
 10
3252.5312170011438866
 20
223.5481734674922052
 30
0.0
 40
0.6299620191695569
 50
249.6372355331297115
 51
290.3627531228987095
  0
ARC
  5
27A85
  8
0
 10
3253.0426491800189979
 20
223.0904639415616941
 30
0.0
 40
0.1722526445024974
 50
230.4847308479490096
 51
309.5153448295083081
  0
LINE
  5
27A86
  8
0
 10
3252.3120136212769467
 20
222.9575788316788021
 30
0.0
 11
3252.1293862782767974
 21
222.9575788666352025
 31
0.0
  0
LINE
  5
27A87
  8
0
 10
3252.7504202640770927
 20
222.9575787882787949
 30
0.0
 11
3252.9330476070781515
 21
222.9575787702787864
 31
0.0
  0
LINE
  5
27A88
  8
0
 10
3253.1522509284782245
 20
222.9575789150430012
 30
0.0
 11
3253.1611382024771046
 21
222.9575787476788093
 31
0.0
  0
LINE
  5
27A89
  8
0
 10
3253.1520482426130911
 20
223.4300197359173978
 30
0.0
 11
3253.1522509284782245
 21
222.9575789150430012
 31
0.0
  0
LINE
  5
27A8A
  8
0
 10
3252.9330476070781515
 20
222.9575787702787864
 30
0.0
 11
3252.9328446134368278
 21
223.4300195434146019
 31
0.0
  0
LINE
  5
27A8B
  8
0
 10
3252.7502175782128688
 20
223.4300195385268921
 30
0.0
 11
3252.7504202640770927
 21
222.9575787882787949
 31
0.0
  0
LINE
  5
27A8C
  8
0
 10
3252.3120136212769467
 20
222.9575788316788021
 30
0.0
 11
3252.3118109355132219
 21
223.4300198191174047
 31
0.0
  0
ARC
  5
27A8D
  8
0
 10
3253.6998925892180523
 20
224.3232229667746935
 30
0.0
 40
0.136259693980239
 50
307.1482263007363258
 51
0.0000146768302847
  0
LINE
  5
27A8E
  8
0
 10
3251.2259160743988105
 20
224.4413334826788002
 30
0.0
 11
3251.225916062799115
 21
224.3232232464789035
 31
0.0
  0
ARC
  5
27A8F
  8
0
 10
3251.3621759057277814
 20
224.3232232330962859
 30
0.0
 40
0.1362598429294175
 50
179.9999943727912068
 51
232.8517903048193887
  0
LINE
  5
27A90
  8
0
 10
3251.2798914649979451
 20
224.2146137693787864
 30
0.0
 11
3252.0152600618939687
 21
223.6574855813329918
 31
0.0
  0
LINE
  5
27A91
  8
0
 10
3252.0152600618939687
 20
223.6574855813329918
 30
0.0
 11
3252.0152660343128446
 21
223.4890749821016982
 31
0.0
  0
LINE
  5
27A92
  8
0
 10
3252.0152600618939687
 20
223.6574855813329918
 30
0.0
 11
3253.0467819311988933
 21
223.6575220494788141
 31
0.0
  0
LINE
  5
27A93
  8
0
 10
3253.0467819311988933
 20
223.6575220494788141
 30
0.0
 11
3253.0467620973131488
 21
223.4890748645173915
 31
0.0
  0
LINE
  5
27A94
  8
0
 10
3253.0467819311988933
 20
223.6575220494788141
 30
0.0
 11
3253.7821769714778384
 21
224.2146136456287877
 31
0.0
  0
ARC
  5
27A95
  8
0
 10
3252.0197846205319365
 20
223.0912971655575063
 30
0.0
 40
0.1728962314429896
 50
230.6603776936208874
 51
309.3396197743138032
  0
LINE
  5
27A96
  8
0
 10
3251.9101829568780886
 20
222.9575788714788018
 30
0.0
 11
3251.9012956828769347
 21
222.9575788723572884
 31
0.0
  0
LINE
  5
27A97
  8
0
 10
3251.9012956828769347
 20
222.9575788722787877
 30
0.0
 11
3251.9010929970131656
 21
223.4300198597173903
 31
0.0
  0
LINE
  5
27A98
  8
0
 10
3251.9010929970131656
 20
223.4300198597173903
 30
0.0
 11
3251.9099802711129996
 21
223.4300198588173885
 31
0.0
  0
ARC
  5
27A99
  8
0
 10
3252.0195818281417814
 20
223.2971346118108897
 30
0.0
 40
0.1722526927971954
 50
50.4846615570604271
 51
129.5152490429574925
  0
LINE
  5
27A9A
  8
0
 10
3252.1291824326331152
 20
223.4300206444565902
 30
0.0
 11
3252.1293851651957993
 21
222.9575780751110017
 31
0.0
  0
LINE
  5
27A9B
  8
0
 10
3251.9101829568780886
 20
222.9575788714788018
 30
0.0
 11
3251.9099802243131307
 21
223.4300198588173885
 31
0.0
  0
LINE
  5
27A9C
  8
0
 10
3253.1611382024771046
 20
222.9575787476788093
 30
0.0
 11
3253.1609355167129252
 21
223.430019735117412
 31
0.0
  0
ARC
  5
27A9D
  8
0
 10
3256.3629204164572002
 20
301.9339863461844971
 30
0.0
 40
81.297178558314215
 50
266.6732458128507233
 51
268.8619879351630857
  0
LINE
  5
27A9E
  8
0
 10
3251.6452292913991187
 20
220.7738074900005074
 30
0.0
 11
3251.6452292913991187
 21
222.4316569580811063
 31
0.0
  0
ARC
  5
27A9F
  8
0
 10
3261.604171168944049
 20
33.2270929051120234
 30
0.0
 40
189.4664814203144942
 50
92.9754085580118215
 51
93.0130311865041222
  0
ARC
  5
27AA0
  8
0
 10
3251.7633389493012146
 20
222.5561212298813984
 30
0.0
 40
0.1181248777088419
 50
272.9753982740859897
 51
359.985080086829214
  0
LINE
  5
27AA1
  8
0
 10
3251.881463823005106
 20
222.5560904699736113
 30
0.0
 11
3251.8815218868608099
 21
222.8625924636332911
 31
0.0
  0
LINE
  5
27AA2
  8
0
 10
3251.8815218868608099
 20
222.8625924636332911
 30
0.0
 11
3253.160782017198926
 21
222.8625926124148009
 31
0.0
  0
LINE
  5
27AA3
  8
0
 10
3251.6216072209399499
 20
222.4450788783917972
 30
0.0
 11
3251.6216072209399499
 21
220.7613512351788074
 31
0.0
  0
ARC
  5
27AA4
  8
0
 10
3251.3103614705219115
 20
220.774082487751997
 30
0.0
 40
0.3115060223253643
 50
350.1340278218248159
 51
357.6576688291086725
  0
ARC
  5
27AA5
  8
0
 10
3251.5438934009871446
 20
220.7401252854348002
 30
0.0
 40
0.0758933540557606
 50
279.1628625969947279
 51
345.1759051436559957
  0
ARC
  5
27AA6
  8
0
 10
3251.5269111166740004
 20
220.8454094217734109
 30
0.0
 40
0.1825383133601861
 50
268.5593604645753771
 51
279.1628625969947279
  0
LINE
  5
27AA7
  8
0
 10
3251.522321874588215
 20
220.6629288071825101
 30
0.0
 11
3250.0482149597060015
 21
220.6757932920604901
 31
0.0
  0
ARC
  5
27AA8
  8
0
 10
3250.0496953672418385
 20
220.8725576830676118
 30
0.0
 40
0.1967698171819662
 50
229.8496944778335944
 51
269.5051235210125924
  0
ARC
  5
27AA9
  8
0
 10
3250.0496861456081206
 20
220.8725467515207015
 30
0.0
 40
0.1967555155304694
 50
183.3142823151029006
 51
229.8496944778335944
  0
ARC
  5
27AAA
  8
0
 10
3262.6492742171690224
 20
221.6021895263837109
 30
0.0
 40
12.8174527289147306
 50
176.6578714308384974
 51
183.3142995767119032
  0
ARC
  5
27AAB
  8
0
 10
3250.0386528884200743
 20
222.3386170223973011
 30
0.0
 40
0.1853469759531391
 50
128.6788917668635861
 51
176.6578886924486085
  0
ARC
  5
27AAC
  8
0
 10
3250.0497020888401494
 20
222.332889781216096
 30
0.0
 40
0.1967879775662521
 50
90.4908995227663127
 51
130.1483391405328121
  0
ARC
  5
27AAD
  8
0
 10
47452.0452578584299772
 20
-5064756.4726412706077099
 30
0.0
 40
5065171.8737294264137745
 50
90.4999900540669984
 51
90.5000067316360912
  0
ARC
  5
27AAE
  8
0
 10
3251.5258101994550088
 20
222.3727665492037033
 30
0.0
 40
0.1698058492302359
 50
76.8616962260293946
 51
91.1770483776389256
  0
ARC
  5
27AAF
  8
0
 10
3251.5422741896768457
 20
222.4633517558046094
 30
0.0
 40
0.077982748221339
 50
15.9320099802886794
 51
73.5115035512316126
  0
ARC
  5
27AB0
  8
0
 10
3251.2625903374009795
 20
222.4258356887152956
 30
0.0
 40
0.3595322280616402
 50
3.0680994911435291
 51
9.4324870242521452
  0
LINE
  5
27AB1
  8
0
 10
3251.6452293783140703
 20
222.2720223785788107
 30
0.0
 11
3251.6216072209399499
 21
222.2720223785788107
 31
0.0
  0
LINE
  5
27AB2
  8
0
 10
3251.6452292010849305
 20
220.9334397013788021
 30
0.0
 11
3251.6216072209399499
 21
220.9334397013788021
 31
0.0
  0
CIRCLE
  5
27AB3
  8
0
 10
3250.1058591873888872
 20
221.6027328318787966
 30
0.0
 40
0.0567104291811903
  0
LINE
  5
27AB4
  8
0
 10
3251.6008732794798561
 20
222.419283194480812
 30
0.0
 11
3249.8896836464891749
 21
222.2584376685788072
 31
0.0
  0
ARC
  5
27AB5
  8
0
 10
3249.894203958675007
 20
222.2103473576565875
 30
0.0
 40
0.0483022900788012
 50
95.3698147782084931
 51
171.4942564628892967
  0
ARC
  5
27AB6
  8
0
 10
3251.6019846153690196
 20
222.3996112608872124
 30
0.0
 40
0.0197033010116378
 50
8.2829050249514733
 51
93.2329971713181038
  0
LINE
  5
27AB7
  8
0
 10
3251.6008732794798561
 20
220.7861661263767985
 30
0.0
 11
3249.8896836464891749
 21
220.9470116522788032
 31
0.0
  0
ARC
  5
27AB8
  8
0
 10
3249.894203958675007
 20
220.9951019632009945
 30
0.0
 40
0.0483022900788012
 50
188.5057435371107033
 51
264.6301852217915211
  0
ARC
  5
27AB9
  8
0
 10
3251.6019060018670643
 20
220.8060799424382026
 30
0.0
 40
0.0199405778150781
 50
267.031722459673972
 51
351.113539966796111
  0
ARC
  5
27ABA
  8
0
 10
3251.2512671676540776
 20
224.657807674340404
 30
0.0
 40
2.7995164715153682
 50
304.276932216102125
 51
313.0390263187750861
  0
ARC
  5
27ABB
  8
0
 10
3252.4250213496438846
 20
222.9356594104482951
 30
0.0
 40
0.7154115023340452
 50
286.473585153342583
 51
304.276932216102125
  0
ARC
  5
27ABC
  8
0
 10
3252.4906530205780655
 20
222.7137149107664129
 30
0.0
 40
0.4839663097534836
 50
253.2543415205061876
 51
286.4735851533675941
  0
ARC
  5
27ABD
  8
0
 10
3252.5684324543271941
 20
222.9722186518422973
 30
0.0
 40
0.7539178321873875
 50
232.968358108396103
 51
253.2543415205061876
  0
ARC
  5
27ABE
  8
0
 10
3256.1449399666971658
 20
227.7129549491943123
 30
0.0
 40
6.6924350399653987
 50
230.7623946106382107
 51
232.968358108396103
  0
ARC
  5
27ABF
  8
0
 10
3254.3067839979439668
 20
225.280868851110796
 30
0.0
 40
3.647812612650509
 50
228.3276680981298057
 51
228.9608264605710133
  0
LINE
  5
27AC0
  8
0
 10
3251.2798916283391009
 20
224.2146136456287877
 30
0.0
 11
3253.7821769714778384
 21
224.2146136456287877
 31
0.0
  0
LINE
  5
27AC1
  8
0
 10
3252.1099570942769788
 20
222.8985237335718921
 30
0.0
 11
3252.1097742010988441
 21
222.8625924987534859
 31
0.0
  0
LINE
  5
27AC2
  8
0
 10
3252.952476779376866
 20
222.8985236374801104
 30
0.0
 11
3252.9522938861978218
 21
222.8625925899953018
 31
0.0
  0
ARC
  5
27AC3
  8
0
 10
3257.3287724997521764
 20
217.6208747237058958
 30
0.0
 40
2.306118103795884
 50
231.0005943158465982
 51
256.48504621945699
  0
ARC
  5
27AC4
  8
0
 10
3257.49238382168096
 20
218.1893148300729024
 30
0.0
 40
2.8971721397234909
 50
255.9661685313052999
 51
280.5215147730564809
  0
ARC
  5
27AC5
  8
0
 10
3257.5396120058539964
 20
217.9501064657056872
 30
0.0
 40
2.6533630661584149
 50
280.4620560061197239
 51
291.7983746646975192
  0
ARC
  5
27AC6
  8
0
 10
3257.6838121040441365
 20
217.592583474376994
 30
0.0
 40
2.267857068968909
 50
291.7699234498454075
 51
303.2753555772586083
  0
ARC
  5
27AC7
  8
0
 10
3258.0303794480860233
 20
217.1097759421404021
 30
0.0
 40
1.6742446096608941
 50
302.4250274326230965
 51
321.8037046404112971
  0
ARC
  5
27AC8
  8
0
 10
3258.0916481415188173
 20
217.0615686489873895
 30
0.0
 40
1.596284389625229
 50
321.8037046404112971
 51
339.915226232756595
  0
ARC
  5
27AC9
  8
0
 10
3258.733333635001145
 20
216.8269384490270113
 30
0.0
 40
0.9130482640589502
 50
339.915226232756595
 51
348.7922714783177867
  0
ARC
  5
27ACA
  8
0
 10
3257.1499982209888913
 20
217.4050577453949984
 30
0.0
 40
1.98652010023216
 50
230.1660760329228879
 51
241.0562613373587908
  0
ARC
  5
27ACB
  8
0
 10
3257.4016030791658523
 20
217.8600179390103051
 30
0.0
 40
2.5064179579240271
 50
241.0562613373587908
 51
260.4869375793286963
  0
ARC
  5
27ACC
  8
0
 10
3257.4907495218308213
 20
218.391991007289306
 30
0.0
 40
3.0458087565235692
 50
260.4869375793286963
 51
280.151186078382807
  0
ARC
  5
27ACD
  8
0
 10
3257.5920254536940774
 20
217.8263584802296862
 30
0.0
 40
2.471181077027806
 50
280.151186078382807
 51
302.1690205539666749
  0
ARC
  5
27ACE
  8
0
 10
3257.9610195802379167
 20
217.2397025318464898
 30
0.0
 40
1.7781285052868421
 50
302.1690205539666749
 51
321.8676239381916275
  0
ARC
  5
27ACF
  8
0
 10
3258.3011546542179531
 20
216.9726920622948967
 30
0.0
 40
1.3457091955862781
 50
321.8676239381928781
 51
342.4325495667512769
  0
ARC
  5
27AD0
  8
0
 10
3258.4913355004600817
 20
216.9124820359380976
 30
0.0
 40
1.146224856472724
 50
342.4325495667529253
 51
2.3252943503935439
  0
ARC
  5
27AD1
  8
0
 10
3258.4295416511590702
 20
216.9099728139642025
 30
0.0
 40
1.2080696299497371
 50
2.3252943503935439
 51
12.9221364027557595
  0
ARC
  5
27AD2
  8
0
 10
3257.9348017279880878
 20
216.7964610566847057
 30
0.0
 40
1.7156644591391459
 50
12.9221364027557595
 51
21.0676056390949
  0
LINE
  5
27AD4
  8
0
 10
3253.160782017198926
 20
222.8625926124148009
 30
0.0
 11
3253.160782017198926
 21
222.6280977375787984
 31
0.0
  0
ARC
  5
27AD5
  8
0
 10
3253.2788946859509451
 20
222.6280977375787984
 30
0.0
 40
0.118112668752691
 50
180.0
 51
269.9982884648172785
  0
ARC
  5
27AD6
  8
0
 10
3257.978246760582806
 20
105.6478757621874962
 30
0.0
 40
116.9565583227011984
 50
92.1482867376051189
 51
92.3027844596274463
  0
LINE
  5
27AD7
  8
0
 10
3259.0860577370358442
 20
222.8625924636332911
 30
0.0
 11
3257.9235584213638504
 21
222.8625924636332911
 31
0.0
  0
ARC
  5
27AD8
  8
0
 10
3257.7517230318999282
 20
223.1029452230038999
 30
0.0
 40
0.2954726926303083
 50
276.831647930057386
 51
305.1995421745288013
  0
ARC
  5
27AD9
  8
0
 10
3257.7519562863521969
 20
223.1026145581294031
 30
0.0
 40
0.2950680361106566
 50
305.1995421745288013
 51
338.7434008530314031
  0
ARC
  5
27ADA
  8
0
 10
3257.751500789774127
 20
223.1027917514603018
 30
0.0
 40
0.2955567841124308
 50
338.7434008530314031
 51
6.6635500450394893
  0
ARC
  5
27ADB
  8
0
 10
3257.7522381704161489
 20
223.1028778982386029
 30
0.0
 40
0.2948143883431641
 50
6.6635500450378711
 51
27.1320573771810203
  0
ARC
  5
27ADC
  8
0
 10
3257.6289388547761519
 20
223.0396953738481045
 30
0.0
 40
0.4333595168235063
 50
27.1320573771810203
 51
30.1214974161353801
  0
LINE
  5
27ADD
  8
0
 10
3258.003778885949032
 20
223.2571704801287922
 30
0.0
 11
3257.7868627120801648
 21
223.6557265692565863
 31
0.0
  0
ARC
  5
27ADE
  8
0
 10
3255.6048039629281448
 20
222.4800401856213057
 30
0.0
 40
2.4786324571050011
 50
28.3156474007276202
 51
30.8777445841075
  0
ARC
  5
27ADF
  8
0
 10
3257.491584884699023
 20
223.5808404701789129
 30
0.0
 40
0.2952755904999353
 50
35.4490344044103693
 51
66.8949413454325565
  0
ARC
  5
27AE0
  8
0
 10
3257.491584884699023
 20
223.5808404701787993
 30
0.0
 40
0.2952755905000761
 50
66.8949413454332102
 51
90.0
  0
ARC
  5
27AE1
  8
0
 10
3257.491584884699023
 20
223.5808404701787993
 30
0.0
 40
0.2952755905000259
 50
90.0
 51
136.2483248956696968
  0
ARC
  5
27AE2
  8
0
 10
3257.491584884699023
 20
223.5808404701787993
 30
0.0
 40
0.2952755905000142
 50
136.2483248956731927
 51
165.4526228698537125
  0
ARC
  5
27AE3
  8
0
 10
3257.5124731635410171
 20
223.576564441599686
 30
0.0
 40
0.3165701899604527
 50
165.6531208067684133
 51
176.7655765108459036
  0
ARC
  5
27AE4
  8
0
 10
3257.4913378852329515
 20
223.5807625420316072
 30
0.0
 40
0.2955323412908552
 50
0.0052669807382297
 51
25.0653016335542596
  0
LINE
  5
27AE5
  8
0
 10
3257.8064512874989305
 20
222.8125782245037101
 30
0.0
 11
3257.8064660042418836
 21
222.6281001003355868
 31
0.0
  0
ARC
  5
27AE6
  8
0
 10
3257.6877599625240691
 20
222.6280906305603082
 30
0.0
 40
0.1187060420962356
 50
326.6076967155693751
 51
0.004570771163361
  0
ARC
  5
27AE7
  8
0
 10
3260.4531461307169593
 20
225.5209500964926121
 30
0.0
 40
3.9208790623292211
 50
227.5441313859606112
 51
229.2280432073955012
  0
ARC
  5
27AE8
  8
0
 10
3259.1085233156281902
 20
223.6929752541691983
 30
0.0
 40
1.660433116245277
 50
225.7866368596718019
 51
234.3040182517194978
  0
LINE
  5
27AE9
  8
0
 10
3257.8778383525991558
 20
223.4885712300288105
 30
0.0
 11
3259.0075888738988397
 21
223.488576791078799
 31
0.0
  0
LINE
  5
27AEA
  8
0
 10
3259.0075888738988397
 20
223.488576791078799
 30
0.0
 11
3259.0272739131978597
 21
223.4688917517788127
 31
0.0
  0
LINE
  5
27AEB
  8
0
 10
3259.0272739131978597
 20
223.4688917517788127
 30
0.0
 11
3259.0272739131978597
 21
222.9177124068787919
 31
0.0
  0
LINE
  5
27AEC
  8
0
 10
3259.0272739131978597
 20
222.9177124068787919
 30
0.0
 11
3259.0075888738988397
 21
222.898025609978788
 31
0.0
  0
LINE
  5
27AED
  8
0
 10
3259.0075888738988397
 20
222.898025609978788
 30
0.0
 11
3257.9645517702711004
 21
222.898025609978788
 31
0.0
  0
LINE
  5
27AEE
  8
0
 10
3258.015462889597984
 20
222.898025609978788
 30
0.0
 11
3258.015462889597984
 21
222.8625925391787916
 31
0.0
  0
LINE
  5
27AEF
  8
0
 10
3258.8579825745978269
 20
222.898025609978788
 30
0.0
 11
3258.8579825745978269
 21
222.8625925391787916
 31
0.0
  0
LINE
  5
27AF0
  8
0
 10
3259.0272739131978597
 20
222.9570807280788074
 30
0.0
 11
3258.9218339675990137
 21
222.9570807280788074
 31
0.0
  0
LINE
  5
27AF1
  8
0
 10
3258.9218339675990137
 20
222.9570807280788074
 30
0.0
 11
3258.9218339675990137
 21
223.4295216729788081
 31
0.0
  0
LINE
  5
27AF2
  8
0
 10
3258.9218339675990137
 20
223.4295216729788081
 30
0.0
 11
3259.0272739131978597
 21
223.4295216729788081
 31
0.0
  0
LINE
  5
27AF3
  8
0
 10
3258.5421626777988422
 20
223.4295216729788081
 30
0.0
 11
3258.3312827864988321
 21
223.4295216729788081
 31
0.0
  0
LINE
  5
27AF4
  8
0
 10
3257.9516114966991154
 20
223.4295216729788081
 30
0.0
 11
3257.9099758746920088
 21
223.4295216729788081
 31
0.0
  0
ARC
  5
27AF5
  8
0
 10
3258.1410804026741062
 20
222.989729283648586
 30
0.0
 40
0.4791599863568706
 50
66.6123763202691919
 51
113.2921012002964005
  0
ARC
  5
27AF6
  8
0
 10
3258.7319983226980185
 20
222.9914217269092092
 30
0.0
 40
0.4774611343563049
 50
66.5721511724317168
 51
113.4278488275682975
  0
ARC
  5
27AF7
  8
0
 10
3258.7319983226980185
 20
223.3996487319282096
 30
0.0
 40
0.4815641287573162
 50
246.7835137056038093
 51
293.2164862943956223
  0
LINE
  5
27AF8
  8
0
 10
3258.5421626777988422
 20
222.9570807280788074
 30
0.0
 11
3258.3312827864988321
 21
222.9570807280788074
 31
0.0
  0
ARC
  5
27AF9
  8
0
 10
3258.1427870359138979
 20
223.3882582718798062
 30
0.0
 40
0.4705791349673662
 50
252.1339020655778995
 51
293.6132674949585066
  0
LINE
  5
27AFA
  8
0
 10
3258.3312827864988321
 20
222.9570807280788074
 30
0.0
 11
3258.3312827864988321
 21
223.4295216729788081
 31
0.0
  0
LINE
  5
27AFB
  8
0
 10
3258.5421626777988422
 20
223.4295216729788081
 30
0.0
 11
3258.5421626777988422
 21
222.9570807280788074
 31
0.0
  0
LINE
  5
27AFC
  8
0
 10
3255.9797533522169033
 20
223.3980402616788012
 30
0.0
 11
3257.1964072552550533
 21
223.3980402616788012
 31
0.0
  0
LINE
  5
27AFD
  8
0
 10
3255.9797533522169033
 20
222.8074598209788064
 30
0.0
 11
3257.1964072552550533
 21
222.8074598209788064
 31
0.0
  0
ARC
  5
27AFE
  8
0
 10
3254.7252145838137949
 20
220.5550276915217864
 30
0.0
 40
0.1005021619169955
 50
5.3628071541916631
 51
76.7221005140122401
  0
ARC
  5
27AFF
  8
0
 10
3232.6245020536662196
 20
218.4803689787597136
 30
0.0
 40
22.29837825659515
 50
1.613470196981263
 51
5.3628071541916631
  0
ARC
  5
27B00
  8
0
 10
3255.3437698228331101
 20
219.1688286590182031
 30
0.0
 40
0.4339838334670962
 50
188.0284343334307096
 51
234.2294854074303032
  0
ARC
  5
27B01
  8
0
 10
3256.2423646343841028
 20
220.5550276915217864
 30
0.0
 40
0.1005021619169955
 50
107.0245614518590997
 51
174.6371928458083005
  0
ARC
  5
27B02
  8
0
 10
3278.3430771645321329
 20
218.4803689787597136
 30
0.0
 40
22.29837825659515
 50
174.6371928458083005
 51
178.3865298030187034
  0
ARC
  5
27B03
  8
0
 10
3255.6238093953638781
 20
219.1688286590182031
 30
0.0
 40
0.4339838334670962
 50
305.7733901000328274
 51
351.9715656665691768
  0
LINE
  5
27B04
  8
0
 10
3250.5625297665988001
 20
211.0161358699787968
 30
0.0
 11
3255.090095724378898
 21
211.0161358699787968
 31
0.0
  0
LINE
  5
27B05
  8
0
 10
3255.8774972990790957
 20
211.0161358699787968
 30
0.0
 11
3260.4050494515990977
 21
211.0161358699787968
 31
0.0
  0
ARC
  5
27B06
  8
0
 10
3260.4050494515990977
 20
210.9373957124788035
 30
0.0
 40
0.0787401575000004
 50
0.0000000727719053
 51
90.0
  0
LINE
  5
27B07
  8
0
 10
3260.4837896090989489
 20
210.9373957125787911
 30
0.0
 11
3260.4837896215999535
 21
201.0948760274787901
 31
0.0
  0
ARC
  5
27B08
  8
0
 10
3260.4050494642001468
 20
201.0948760273788025
 30
0.0
 40
0.0787401573999933
 50
269.999990830713898
 51
0.0000000727735338
  0
LINE
  5
27B09
  8
0
 10
3260.4050494515990977
 20
201.0161358699787968
 30
0.0
 11
3250.5625297665988001
 21
201.0161374451184031
 31
0.0
  0
ARC
  5
27B0A
  8
0
 10
3250.5625297791998491
 20
201.0948776152357027
 30
0.0
 40
0.0787401701172509
 50
180.0011553412361991
 51
269.999990830713898
  0
LINE
  5
27B0B
  8
0
 10
3250.4837896090989489
 20
201.0948760274787901
 30
0.0
 11
3250.4835911395261974
 21
210.937395710577789
 31
0.0
  0
ARC
  5
27B0C
  8
0
 10
3250.5623299646831583
 20
210.9373972983075021
 30
0.0
 40
0.0787388251731121
 50
89.8546102415304802
 51
180.0011553412361991
  0
LINE
  5
27B0D
  8
0
 10
3255.0900888216988278
 20
210.7687193640788053
 30
0.0
 11
3251.2867002173170476
 21
210.7687193640788053
 31
0.0
  0
ARC
  5
27B0E
  8
0
 10
3251.2867002173170476
 20
210.2132252617601864
 30
0.0
 40
0.5554941023185905
 50
90.0
 51
179.9999950781223959
  0
LINE
  5
27B0F
  8
0
 10
3250.7312061149991678
 20
210.213225309478787
 30
0.0
 11
3250.7312053939140242
 21
201.8190464782788922
 31
0.0
  0
ARC
  5
27B10
  8
0
 10
3251.2866994485962095
 20
201.8190464305602916
 30
0.0
 40
0.5554940546819191
 50
179.9999950781223959
 51
270.0000743669987742
  0
LINE
  5
27B11
  8
0
 10
3251.2867001695990439
 20
201.2635523758787883
 30
0.0
 11
3259.6808790008908545
 21
201.2635632710936022
 31
0.0
  0
ARC
  5
27B12
  8
0
 10
3259.6808782798871107
 20
201.8190580945255874
 30
0.0
 40
0.5554948234324177
 50
270.0000743669987742
 51
359.9987947819212195
  0
LINE
  5
27B13
  8
0
 10
3260.236373103196911
 20
201.8190464096788048
 30
0.0
 11
3260.2365496749480371
 21
210.2132252599103026
 31
0.0
  0
ARC
  5
27B14
  8
0
 10
3259.6810672236229038
 20
210.2132369444967992
 30
0.0
 40
0.5554824514480475
 50
359.9987947819228111
 51
90.0194073514261959
  0
LINE
  5
27B15
  8
0
 10
3259.6808790693980882
 20
210.7687193640788053
 30
0.0
 11
3255.8774969575201794
 21
210.7687246147559108
 31
0.0
  0
LINE
  5
27B16
  8
0
 10
3255.8774960907649074
 20
210.1408810117725068
 30
0.0
 11
3259.3959935035991293
 21
210.1408810827788045
 31
0.0
  0
ARC
  5
27B17
  8
0
 10
3259.320984519409194
 20
209.8533305541658081
 30
0.0
 40
0.297172768292767
 50
14.6202243493931991
 51
75.3799090363353343
  0
LINE
  5
27B18
  8
0
 10
3259.6085348733990941
 20
209.9283402077788026
 30
0.0
 11
3259.6085529237730043
 21
202.1039319755996928
 31
0.0
  0
ARC
  5
27B19
  8
0
 10
3259.3209513679062184
 20
202.1789983506236013
 30
0.0
 40
0.2972366323250796
 50
284.6235020678993806
 51
345.3716872110032909
  0
LINE
  5
27B1A
  8
0
 10
3259.3959935947991653
 20
201.8913904929787861
 30
0.0
 11
3251.5715857146988128
 21
201.8913906572788051
 31
0.0
  0
ARC
  5
27B1B
  8
0
 10
3251.6474389166801302
 20
202.179785433044799
 30
0.0
 40
0.2982033784850107
 50
194.7361695554581047
 51
255.2638993208921931
  0
LINE
  5
27B1C
  8
0
 10
3251.3590442320978582
 20
202.1039318843787953
 30
0.0
 11
3251.3590444787992055
 21
209.9283397644788067
 31
0.0
  0
ARC
  5
27B1D
  8
0
 10
3251.6401417040460728
 20
209.8570282401344969
 30
0.0
 40
0.2900016957638231
 50
103.4682085090987016
 51
165.7649509585525038
  0
LINE
  5
27B1E
  8
0
 10
3251.5725986291940899
 20
210.1390546867409057
 30
0.0
 11
3255.0900888216988278
 21
210.1408809919788041
 31
0.0
  0
LINE
  5
27B1F
  8
0
 10
3253.635040257799119
 20
222.5397407058788133
 30
0.0
 11
3253.5940258295991043
 21
222.5397407058788133
 31
0.0
  0
LINE
  5
27B20
  8
0
 10
3253.5940258295991043
 20
222.5397407058788133
 30
0.0
 11
3253.5940258295991043
 21
222.520055666478811
 31
0.0
  0
LINE
  5
27B21
  8
0
 10
3253.5940258295991043
 20
222.520055666478811
 30
0.0
 11
3253.6334078788831903
 21
222.520055666478811
 31
0.0
  0
ENDSEC
  0
EOF
