  0
SECTION
  2
HEADER
  9
$ACADVER
  1
AC1009
  9
$INSBASE
 10
3478.6628920272569303
 20
165.3591002996300858
 30
0.0
  9
$EXTMIN
 10
3455.6916099066647803
 20
161.361563309263687
 30
-0.0000000000000058
  9
$EXTMAX
 10
3478.7815686357230334
 20
214.002535931894414
 30
0.0000000000000104
  9
$LIMMIN
 10
0.0
 20
0.0
  9
$LIMMAX
 10
11.6929133858000007
 20
8.2677165353999982
  9
$ORTHOMODE
 70
     0
  9
$REGENMODE
 70
     1
  9
$FILLMODE
 70
     1
  9
$QTEXTMODE
 70
     0
  9
$MIRRTEXT
 70
     0
  9
$DRAGMODE
 70
     2
  9
$LTSCALE
 40
0.6431102362
  9
$OSMODE
 70
  3839
  9
$ATTMODE
 70
     1
  9
$TEXTSIZE
 40
0.2
  9
$TRACEWID
 40
0.05
  9
$TEXTSTYLE
  7
STANDARD
  9
$CLAYER
  8
0
  9
$CELTYPE
  6
BYLAYER
  9
$CECOLOR
 62
   256
  9
$DIMSCALE
 40
1.0
  9
$DIMASZ
 40
0.1875
  9
$DIMEXO
 40
0.0625
  9
$DIMDLI
 40
0.4443307087
  9
$DIMRND
 40
0.0
  9
$DIMDLE
 40
0.0
  9
$DIMEXE
 40
0.125
  9
$DIMTP
 40
0.01
  9
$DIMTM
 40
0.01
  9
$DIMTXT
 40
2.0
  9
$DIMCEN
 40
0.1052362205
  9
$DIMTSZ
 40
0.0
  9
$DIMTOL
 70
     1
  9
$DIMLIM
 70
     0
  9
$DIMTIH
 70
     1
  9
$DIMTOH
 70
     1
  9
$DIMSE1
 70
     0
  9
$DIMSE2
 70
     0
  9
$DIMTAD
 70
     0
  9
$DIMZIN
 70
     0
  9
$DIMBLK
  1

  9
$DIMASO
 70
     1
  9
$DIMSHO
 70
     1
  9
$DIMPOST
  1
\X
  9
$DIMAPOST
  1

  9
$DIMALT
 70
     1
  9
$DIMALTD
 70
     2
  9
$DIMALTF
 40
25.3999999999999986
  9
$DIMLFAC
 40
1.0
  9
$DIMTOFL
 70
     0
  9
$DIMTVP
 40
0.0
  9
$DIMTIX
 70
     0
  9
$DIMSOXD
 70
     0
  9
$DIMSAH
 70
     0
  9
$DIMBLK1
  1

  9
$DIMBLK2
  1

  9
$DIMSTYLE
  2
STANDARD
  9
$DIMCLRD
 70
     0
  9
$DIMCLRE
 70
     0
  9
$DIMCLRT
 70
     0
  9
$DIMTFAC
 40
1.0
  9
$DIMGAP
 40
0.09
  9
$LUNITS
 70
     2
  9
$LUPREC
 70
     4
  9
$SKETCHINC
 40
0.1
  9
$FILLETRAD
 40
0.0
  9
$AUNITS
 70
     0
  9
$AUPREC
 70
     0
  9
$MENU
  1
.
  9
$ELEVATION
 40
0.0
  9
$PELEVATION
 40
0.0
  9
$THICKNESS
 40
0.0
  9
$LIMCHECK
 70
     0
  9
$BLIPMODE
 70
     0
  9
$CHAMFERA
 40
0.0
  9
$CHAMFERB
 40
0.0
  9
$SKPOLY
 70
     0
  9
$TDCREATE
 40
2458060.468368056230247
  9
$TDUPDATE
 40
2459195.6398726850748062
  9
$TDINDWG
 40
0.5833866898
  9
$TDUSRTIMER
 40
0.5833866898
  9
$USRTIMER
 70
     1
  9
$ANGBASE
 50
0.0
  9
$ANGDIR
 70
     0
  9
$PDMODE
 70
     0
  9
$PDSIZE
 40
0.3125
  9
$PLINEWID
 40
0.0
  9
$COORDS
 70
     1
  9
$SPLFRAME
 70
     0
  9
$SPLINETYPE
 70
     6
  9
$SPLINESEGS
 70
     8
  9
$ATTDIA
 70
     1
  9
$ATTREQ
 70
     1
  9
$HANDLING
 70
     1
  9
$HANDSEED
  5
16687
  9
$SURFTAB1
 70
     6
  9
$SURFTAB2
 70
     6
  9
$SURFTYPE
 70
     6
  9
$SURFU
 70
     6
  9
$SURFV
 70
     6
  9
$UCSNAME
  2

  9
$UCSORG
 10
0.0
 20
0.0
 30
0.0
  9
$UCSXDIR
 10
1.0
 20
0.0
 30
0.0
  9
$UCSYDIR
 10
0.0
 20
1.0
 30
0.0
  9
$PUCSNAME
  2

  9
$PUCSORG
 10
0.0
 20
0.0
 30
0.0
  9
$PUCSXDIR
 10
1.0
 20
0.0
 30
0.0
  9
$PUCSYDIR
 10
0.0
 20
1.0
 30
0.0
  9
$USERI1
 70
     0
  9
$USERI2
 70
     0
  9
$USERI3
 70
     0
  9
$USERI4
 70
     0
  9
$USERI5
 70
     0
  9
$USERR1
 40
0.0
  9
$USERR2
 40
0.0
  9
$USERR3
 40
0.0
  9
$USERR4
 40
0.0
  9
$USERR5
 40
0.0
  9
$WORLDVIEW
 70
     1
  9
$SHADEDGE
 70
     3
  9
$SHADEDIF
 70
    70
  9
$TILEMODE
 70
     1
  9
$MAXACTVP
 70
    64
  9
$PLIMCHECK
 70
     0
  9
$PEXTMIN
 10
1.0000000000000000E+20
 20
1.0000000000000000E+20
 30
1.0000000000000000E+20
  9
$PEXTMAX
 10
-1.0000000000000000E+20
 20
-1.0000000000000000E+20
 30
-1.0000000000000000E+20
  9
$PLIMMIN
 10
0.0
 20
0.0
  9
$PLIMMAX
 10
12.0
 20
9.0
  9
$UNITMODE
 70
     0
  9
$VISRETAIN
 70
     1
  9
$PLINEGEN
 70
     0
  9
$PSLTSCALE
 70
     1
  0
ENDSEC
  0
SECTION
  2
TABLES
  0
TABLE
  2
VPORT
 70
     1
  0
VPORT
  2
*ACTIVE
 70
     0
 10
0.0
 20
0.0
 11
1.0
 21
1.0
 12
-48.2626783069308729
 22
27.0001114491923389
 13
0.0
 23
0.0
 14
1.0
 24
1.0
 15
0.0
 25
0.0
 16
0.0
 26
0.0
 36
20.9203132949307395
 17
3515.499267578125
 27
160.6819381713866903
 37
0.0
 40
53.2237140169771408
 41
3.1182994454713491
 42
50.0
 43
0.0
 44
0.0
 50
0.0
 51
0.0
 71
     0
 72
   100
 73
     1
 74
     1
 75
     0
 76
     0
 77
     0
 78
     0
  0
ENDTAB
  0
TABLE
  2
LTYPE
 70
     2
  0
LTYPE
  2
CONTINUOUS
 70
     0
  3
Solid line
 72
    65
 73
     0
 40
0.0
  0
LTYPE
  2
PHANTOM2
 70
     0
  3
___ _ _ ___ _ _ ___ _ _ ___ _ _
 72
    65
 73
     6
 40
1.25
 49
0.625
 49
-0.125
 49
0.125
 49
-0.125
 49
0.125
 49
-0.125
  0
ENDTAB
  0
TABLE
  2
LAYER
 70
     2
  0
LAYER
  2
0
 70
     0
 62
   255
  6
CONTINUOUS
  0
LAYER
  2
DEFPOINTS
 70
     0
 62
     7
  6
CONTINUOUS
  0
ENDTAB
  0
TABLE
  2
STYLE
 70
     1
  0
STYLE
  2
STANDARD
 70
     0
 40
0.0
 41
0.8
 50
0.0
 71
     0
 42
0.2
  3
txt
  4

  0
ENDTAB
  0
TABLE
  2
VIEW
 70
     0
  0
ENDTAB
  0
TABLE
  2
UCS
 70
     0
  0
ENDTAB
  0
TABLE
  2
APPID
 70
     9
  0
APPID
  2
ACAD
 70
     0
  0
APPID
  2
ACAD_MLEADERVER
 70
     0
  0
APPID
  2
ACAD_EXEMPT_FROM_CAD_STANDARDS
 70
     0
  0
APPID
  2
ACAD_NAV_VCDISPLAY
 70
     0
  0
APPID
  2
ACAECLAYERSTANDARD
 70
     0
  0
APPID
  2
ACCMTRANSPARENCY
 70
     0
  0
APPID
  2
ACAD_DSTYLE_DIMJAG
 70
     0
  0
APPID
  2
ACAD_DSTYLE_DIMTALN
 70
     0
  0
APPID
  2
ACDBATTR
 70
     0
  0
ENDTAB
  0
TABLE
  2
DIMSTYLE
 70
     1
  0
DIMSTYLE
  2
STANDARD
 70
     0
  3

  4

  5

  6

  7

 40
1.0
 41
0.1875
 42
0.0625
 43
0.38
 44
0.125
 45
0.0
 46
0.0
 47
0.01
 48
0.01
140
0.15625
141
0.09
142
0.0
143
25.3999999999999986
144
1.0
145
0.0
146
1.0
147
0.09
 71
     1
 72
     0
 73
     1
 74
     1
 75
     0
 76
     0
 77
     0
 78
     4
170
     0
171
     2
172
     0
173
     0
174
     0
175
     0
176
     0
177
     0
178
     0
  0
ENDTAB
  0
ENDSEC
  0
SECTION
  2
BLOCKS
  0
BLOCK
  8
0
  2
$MODEL_SPACE
 70
     0
 10
0.0
 20
0.0
 30
0.0
  3
$MODEL_SPACE
  1

  0
ENDBLK
  5
21
  8
0
  0
BLOCK
 67
     1
  8
0
  2
$PAPER_SPACE
 70
     0
 10
0.0
 20
0.0
 30
0.0
  3
$PAPER_SPACE
  1

  0
ENDBLK
  5
1D
 67
     1
  8
0
  0
BLOCK
  8
0
  2
_FILLED
 70
     0
 10
0.0
 20
0.0
 30
0.0
  3
_FILLED
  1

  0
SOLID
  5
13356
  8
0
  6
BYBLOCK
 62
     0
 10
0.0
 20
0.0
 30
0.0
 11
-1.0
 21
0.1666666667
 31
0.0
 12
-1.0
 22
-0.1666666667
 32
0.0
 13
-1.0
 23
-0.1666666667
 33
0.0
  0
ENDBLK
  5
13357
  8
0
  6
BYBLOCK
 62
     0
  0
ENDSEC
  0
SECTION
  2
ENTITIES
  0
ATTDEF
  5
12BEB
  8
DEFPOINTS
 10
3478.6516569299888033
 20
165.3578212482730976
 30
0.0
 40
0.001
  1
K-72700T-C4
  3

  2
MODELNUMBER
 70
     0
1001
ACDBATTR
1070
     0
1070
     1
  0
ATTDEF
  5
12BEC
  8
DEFPOINTS
 10
3478.6516569299888033
 20
165.356154581606404
 30
0.0
 40
0.001
  1
ARCHER
  3

  2
TRADENAME
 70
     0
1001
ACDBATTR
1070
     0
1070
     1
  0
ATTDEF
  5
12BED
  8
DEFPOINTS
 10
3478.6516569299888033
 20
165.3544879149397957
 30
0.0
 40
0.001
  1
BATH AND SHOWER FAUCET
  3

  2
PRODUCT
 70
     0
1001
ACDBATTR
1070
     0
1070
     1
  0
LINE
  5
160C6
  8
0
 10
3471.1885706678949646
 20
191.3562900319674895
 30
0.0
 11
3469.9643278837711478
 21
195.6257723846748888
 31
0.0
  0
LINE
  5
160C7
  8
0
 10
3469.9726175295440953
 20
195.5968626808162014
 30
0.0
 11
3469.9650897295869072
 21
195.5946608530371975
 31
0.0
  0
ARC
  5
160C8
  8
0
 10
3469.9684057403369479
 20
195.5833237876128123
 30
0.0
 40
0.0118120692403003
 50
106.3038214350084019
 51
180.2936818057353037
  0
LINE
  5
160C9
  8
0
 10
3469.956593826264907
 20
195.5832632425837119
 30
0.0
 11
3469.9620184067398441
 21
195.2973863705304893
 31
0.0
  0
LINE
  5
160CA
  8
0
 10
3469.960806577124913
 20
195.3611871865307137
 30
0.0
 11
3469.9095646303239846
 21
195.3383726088601122
 31
0.0
  0
ARC
  5
160CB
  8
0
 10
3469.919173157170917
 20
195.3167916868443115
 30
0.0
 40
0.0236232932339083
 50
114.0001801596875026
 51
195.9656882312202981
  0
LINE
  5
160CC
  8
0
 10
3469.896461094913775
 20
195.3102938247899942
 30
0.0
 11
3469.9378711898389156
 21
195.1655525781912104
 31
0.0
  0
ARC
  5
160CD
  8
0
 10
3469.9605469783600711
 20
195.1720400624240881
 30
0.0
 40
0.0235855641595388
 50
195.9656882312156085
 51
274.3549279479556731
  0
LINE
  5
160CE
  8
0
 10
3469.9623379403260515
 20
195.1485225946190951
 30
0.0
 11
3469.9842259127271973
 21
195.1500780028189013
 31
0.0
  0
ARC
  5
160CF
  8
0
 10
3469.984196896073172
 20
195.1504395964493881
 30
0.0
 40
0.0003636475115623
 50
274.5833264321702245
 51
311.6718293725160152
  0
ARC
  5
160D0
  8
0
 10
3469.9654592828378554
 20
195.1571287434244937
 30
0.0
 40
0.0202155794830901
 50
339.8592535743006238
 51
358.5426841513196905
  0
ARC
  5
160D1
  8
0
 10
3469.1612458681970566
 20
195.1825519167919936
 30
0.0
 40
0.8248303634521391
 50
358.1980017537607068
 51
8.4362980373434695
  0
ARC
  5
160D2
  8
0
 10
3469.9766663563859765
 20
195.3033459318556879
 30
0.0
 40
0.0005310589661018
 50
24.0730261180752407
 51
115.212345920339601
  0
LINE
  5
160D3
  8
0
 10
3469.976440138939779
 20
195.3038263996413093
 30
0.0
 11
3469.9259136842961198
 21
195.2812585349329026
 31
0.0
  0
ARC
  5
160D4
  8
0
 10
3469.9356848447891934
 20
195.2595477546925906
 30
0.0
 40
0.0238082665483258
 50
114.2306188751397968
 51
192.0418772111246142
  0
LINE
  5
160D5
  8
0
 10
3471.1802808620627729
 20
191.38520029402099
 30
0.0
 11
3471.1047741783409037
 21
191.3639763223231967
 31
0.0
  0
ARC
  5
160D6
  8
0
 10
3468.1472418085199934
 20
190.494352329732294
 30
0.0
 40
3.082733139120398
 50
13.6441355461337093
 51
16.3852882391347983
  0
ARC
  5
160D7
  8
0
 10
3470.7231541296100659
 20
191.1052844349995894
 30
0.0
 40
0.43562409008121
 50
4.2539982688763711
 51
15.4782539972158908
  0
ARC
  5
160D8
  8
0
 10
3470.8709281872720567
 20
191.111645981338512
 30
0.0
 40
0.2878223036051024
 50
337.8877061299164097
 51
5.1732423486400547
  0
ARC
  5
160D9
  8
0
 10
3471.0492893811579052
 20
191.0414133238352008
 30
0.0
 40
0.0961650937636537
 50
271.6668411965929977
 51
336.652879691303724
  0
ARC
  5
160DA
  8
0
 10
3471.052127193403976
 20
191.3683596825391078
 30
0.0
 40
0.4230707632589158
 50
250.9848568519279013
 51
269.9945036760216226
  0
ARC
  5
160DB
  8
0
 10
3471.0144554735898055
 20
191.2107380766271092
 30
0.0
 40
0.2622488210530172
 50
181.2053323901037061
 51
247.5439572470033056
  0
ARC
  5
160DC
  8
0
 10
3471.3855490409600861
 20
191.1880048165265009
 30
0.0
 40
0.6335183480832867
 50
148.5098457298066137
 51
178.4427165492344898
  0
ARC
  5
160DD
  8
0
 10
3469.2467108121500132
 20
192.3073142254629033
 30
0.0
 40
1.782452954079222
 50
333.7488880206715862
 51
337.4216437501539758
  0
ARC
  5
160DE
  8
0
 10
3492.9463247886460522
 20
184.019599070504313
 30
0.0
 40
23.3276653097213185
 50
160.708472260648989
 51
160.977649444786806
  0
LINE
  5
160DF
  8
0
 10
3470.0229659225269643
 20
195.135611435319106
 30
0.0
 11
3469.973931066734167
 21
195.1135176494155132
 31
0.0
  0
ARC
  5
160E0
  8
0
 10
3469.9836376775228928
 20
195.0919748381298859
 30
0.0
 40
0.0236286057800747
 50
114.2550450334405951
 51
197.2800139150753864
  0
LINE
  5
160E1
  8
0
 10
3469.9610755613271067
 20
195.0849561542189008
 30
0.0
 11
3469.9853717337368835
 21
195.0002251057356943
 31
0.0
  0
ARC
  5
160E2
  8
0
 10
3470.0089895263158724
 20
195.0048487587488921
 30
0.0
 40
0.0240661233578888
 50
191.0766992410001137
 51
273.5976458332033872
  0
LINE
  5
160E3
  8
0
 10
3470.0104996638269768
 20
194.9808300623193134
 30
0.0
 11
3470.0329268574460002
 21
194.9824950348908033
 31
0.0
  0
ARC
  5
160E4
  8
0
 10
3470.0324697728187857
 20
194.9949755767717079
 30
0.0
 40
0.012488909159518
 50
272.0974506175488727
 51
276.7341051179818123
  0
ARC
  5
160E5
  8
0
 10
3470.0336878918319599
 20
194.9838160400641982
 30
0.0
 40
0.0012673854712654
 50
281.2084974647326021
 51
313.416354777629806
  0
ARC
  5
160E6
  8
0
 10
3469.9905172363410202
 20
195.0010381244815107
 30
0.0
 40
0.0476322414240848
 50
337.6111237316939082
 51
0.4019325222001227
  0
ARC
  5
160E7
  8
0
 10
3469.4662318191190025
 20
195.020617011318194
 30
0.0
 40
0.5722401838258684
 50
358.0727485048449807
 51
9.6617129724253967
  0
ARC
  5
160E8
  8
0
 10
3469.964782418681807
 20
195.1066469474795042
 30
0.0
 40
0.0663324005626309
 50
8.6790451783967271
 51
24.84857804131045
  0
ARC
  5
160E9
  8
0
 10
3470.0233438261939227
 20
195.1339134681346081
 30
0.0
 40
0.0017396652781199
 50
20.4487572913475901
 51
102.516405173381699
  0
LINE
  5
160EA
  8
0
 10
3470.0038501957519657
 20
194.9658114165478935
 30
0.0
 11
3469.9548153399591683
 21
194.943717630644187
 31
0.0
  0
ARC
  5
160EB
  8
0
 10
3469.9645219507478942
 20
194.9221748193587018
 30
0.0
 40
0.0236286057800747
 50
114.2550450334405951
 51
197.2800139150753864
  0
LINE
  5
160EC
  8
0
 10
3469.9419598345521081
 20
194.9151561354476883
 30
0.0
 11
3469.9662560069627943
 21
194.8304250869641123
 31
0.0
  0
ARC
  5
160ED
  8
0
 10
3469.9898737995417832
 20
194.8350487399773101
 30
0.0
 40
0.0240661233578888
 50
191.0766992410001137
 51
273.5976458332033872
  0
LINE
  5
160EE
  8
0
 10
3469.9913839370519781
 20
194.8110300435479871
 30
0.0
 11
3470.0138111306710016
 21
194.8126950161195907
 31
0.0
  0
ARC
  5
160EF
  8
0
 10
3470.0133540460437871
 20
194.8251755580004101
 30
0.0
 40
0.012488909159518
 50
272.0974506175488727
 51
276.7341051179818123
  0
ARC
  5
160F0
  8
0
 10
3470.0145721650569612
 20
194.8140160212930141
 30
0.0
 40
0.0012673854712654
 50
281.2084974647326021
 51
313.416354777629806
  0
ARC
  5
160F1
  8
0
 10
3469.9714015095660216
 20
194.8312381057102129
 30
0.0
 40
0.0476322414240848
 50
337.6111237316939082
 51
0.4019325222001227
  0
ARC
  5
160F2
  8
0
 10
3469.4471160923449133
 20
194.8508169925466973
 30
0.0
 40
0.5722401838258684
 50
358.0727485048449807
 51
9.6617129724253967
  0
ARC
  5
160F3
  8
0
 10
3469.9456666919068084
 20
194.9368469287082064
 30
0.0
 40
0.0663324005626309
 50
8.6790451783967271
 51
24.84857804131045
  0
ARC
  5
160F4
  8
0
 10
3470.0042280994180146
 20
194.9641134493633103
 30
0.0
 40
0.0017396652781199
 50
20.4487572913475901
 51
102.516405173381699
  0
LINE
  5
160F5
  8
0
 10
3470.1034670641529374
 20
194.8680627996278076
 30
0.0
 11
3470.0544322083601401
 21
194.8459690137241864
 31
0.0
  0
ARC
  5
160F6
  8
0
 10
3470.0641388191488659
 20
194.8244262024387012
 30
0.0
 40
0.0236286057800747
 50
114.2550450334405951
 51
197.2800139150753864
  0
LINE
  5
160F7
  8
0
 10
3470.0415767029530798
 20
194.8174075185276024
 30
0.0
 11
3470.0658728753642208
 21
194.732676470044396
 31
0.0
  0
ARC
  5
160F8
  8
0
 10
3470.0894906679418455
 20
194.7373001230575937
 30
0.0
 40
0.0240661233578888
 50
191.0766992410001137
 51
273.5976458332033872
  0
LINE
  5
160F9
  8
0
 10
3470.0910008054529499
 20
194.7132814266279865
 30
0.0
 11
3470.1134279990710638
 21
194.7149463991999028
 31
0.0
  0
ARC
  5
160FA
  8
0
 10
3470.1129709144461231
 20
194.7274269410804095
 30
0.0
 40
0.012488909159518
 50
272.0974506175488727
 51
276.7341051179818123
  0
ARC
  5
160FB
  8
0
 10
3470.114189033457933
 20
194.7162674043730135
 30
0.0
 40
0.0012673854712654
 50
281.2084974647326021
 51
313.416354777629806
  0
ARC
  5
160FC
  8
0
 10
3470.0710183779679028
 20
194.7334894887902124
 30
0.0
 40
0.0476322414240848
 50
337.6111237316939082
 51
0.4019325222001227
  0
ARC
  5
160FD
  8
0
 10
3469.5467329607458851
 20
194.7530683756268957
 30
0.0
 40
0.5722401838258684
 50
358.0727485048449807
 51
9.6617129724253967
  0
ARC
  5
160FE
  8
0
 10
3470.0452835603077801
 20
194.8390983117882058
 30
0.0
 40
0.0663324005626309
 50
8.6790451783967271
 51
24.84857804131045
  0
ARC
  5
160FF
  8
0
 10
3470.1038449678198958
 20
194.8663648324433098
 30
0.0
 40
0.0017396652781199
 50
20.4487572913475901
 51
102.516405173381699
  0
LINE
  5
16100
  8
0
 10
3470.0464357453579396
 20
194.7753561562377058
 30
0.0
 11
3469.9974008895651423
 21
194.7532623703339993
 31
0.0
  0
ARC
  5
16101
  8
0
 10
3470.0071075003561418
 20
194.7317195590482015
 30
0.0
 40
0.0236286057800747
 50
114.2550450334405951
 51
197.2800139150753864
  0
LINE
  5
16102
  8
0
 10
3469.984545384158082
 20
194.7247008751373869
 30
0.0
 11
3470.0088415565701325
 21
194.6399698266538962
 31
0.0
  0
ARC
  5
16103
  8
0
 10
3470.0324593491482119
 20
194.644593479667094
 30
0.0
 40
0.0240661233578888
 50
191.0766992410001137
 51
273.5976458332033872
  0
LINE
  5
16104
  8
0
 10
3470.0339694866588616
 20
194.6205747832374868
 30
0.0
 11
3470.0563966802769755
 21
194.6222397558092894
 31
0.0
  0
ARC
  5
16105
  8
0
 10
3470.0559395956511253
 20
194.634720297690194
 30
0.0
 40
0.012488909159518
 50
272.0974506175488727
 51
276.7341051179818123
  0
ARC
  5
16106
  8
0
 10
3470.0571577146652089
 20
194.6235607609825138
 30
0.0
 40
0.0012673854712654
 50
281.2084974647326021
 51
313.416354777629806
  0
ARC
  5
16107
  8
0
 10
3470.0139870591738145
 20
194.6407828453997126
 30
0.0
 40
0.0476322414240848
 50
337.6111237316939082
 51
0.4019325222001227
  0
ARC
  5
16108
  8
0
 10
3469.4897016419517968
 20
194.6603617322363959
 30
0.0
 40
0.5722401838258684
 50
358.0727485048449807
 51
9.6617129724253967
  0
ARC
  5
16109
  8
0
 10
3469.9882522415141466
 20
194.7463916683979903
 30
0.0
 40
0.0663324005626309
 50
8.6790451783967271
 51
24.84857804131045
  0
ARC
  5
1610A
  8
0
 10
3470.0468136490258075
 20
194.77365818905281
 30
0.0
 40
0.0017396652781199
 50
20.4487572913475901
 51
102.516405173381699
  0
LINE
  5
1610B
  8
0
 10
3470.0375760613551392
 20
194.6208425317597914
 30
0.0
 11
3469.9999342268502005
 21
194.6038821345254917
 31
0.0
  0
ARC
  5
1610C
  8
0
 10
3470.0096408376398358
 20
194.5823393232396938
 30
0.0
 40
0.0236286057800747
 50
114.2550450334405951
 51
197.2800139150753864
  0
LINE
  5
1610D
  8
0
 10
3469.9870787214431402
 20
194.5753206393289929
 30
0.0
 11
3470.0113748938538265
 21
194.4905895908453886
 31
0.0
  0
ARC
  5
1610E
  8
0
 10
3470.0349926864328154
 20
194.4952132438587
 30
0.0
 40
0.0240661233578888
 50
191.0766992410001137
 51
273.5976458332033872
  0
LINE
  5
1610F
  8
0
 10
3470.0365028239439198
 20
194.4711945474290076
 30
0.0
 11
3470.0589300175620338
 21
194.4728595200008954
 31
0.0
  0
ARC
  5
16110
  8
0
 10
3470.0584729329361835
 20
194.4853400618816863
 30
0.0
 40
0.012488909159518
 50
272.0974506175488727
 51
276.7341051179818123
  0
ARC
  5
16111
  8
0
 10
3470.0596910519489029
 20
194.4741805251740061
 30
0.0
 40
0.0012673854712654
 50
281.2084974647326021
 51
313.416354777629806
  0
ARC
  5
16112
  8
0
 10
3470.0165203964579632
 20
194.491402609591205
 30
0.0
 40
0.0476322414240848
 50
337.6111237316939082
 51
0.4019325222001227
  0
ARC
  5
16113
  8
0
 10
3469.4922349792359455
 20
194.5109814964278883
 30
0.0
 40
0.5722401838258684
 50
358.0727485048449807
 51
9.6617129724253967
  0
ARC
  5
16114
  8
0
 10
3469.9907855787992048
 20
194.5970114325895111
 30
0.0
 40
0.0663324005626309
 50
8.6790451783967271
 51
22.0676109794477604
  0
LINE
  5
16115
  8
0
 10
3470.2001798432797841
 20
194.5155276078000099
 30
0.0
 11
3470.1511449874860773
 21
194.4934338218963035
 31
0.0
  0
ARC
  5
16116
  8
0
 10
3470.1608515982761674
 20
194.4718910106107899
 30
0.0
 40
0.0236286057800747
 50
114.2550450334405951
 51
197.2800139150753864
  0
LINE
  5
16117
  8
0
 10
3470.1382894820799265
 20
194.464872326699691
 30
0.0
 11
3470.162585654491977
 21
194.3801412782162004
 31
0.0
  0
ARC
  5
16118
  8
0
 10
3470.1862034470700564
 20
194.3847649312293981
 30
0.0
 40
0.0240661233578888
 50
191.0766992410001137
 51
273.5976458332033872
  0
LINE
  5
16119
  8
0
 10
3470.1877135845797966
 20
194.3607462348001036
 30
0.0
 11
3470.21014077819882
 21
194.3624112073715935
 31
0.0
  0
ARC
  5
1611A
  8
0
 10
3470.2096836935720603
 20
194.3748917492524981
 30
0.0
 40
0.012488909159518
 50
272.0974506175488727
 51
276.7341051179818123
  0
ARC
  5
1611B
  8
0
 10
3470.2109018125847797
 20
194.3637322125451021
 30
0.0
 40
0.0012673854712654
 50
281.2084974647326021
 51
313.416354777629806
  0
ARC
  5
1611C
  8
0
 10
3470.16773115709384
 20
194.380954296962301
 30
0.0
 40
0.0476322414240848
 50
337.6111237316939082
 51
0.4019325222001227
  0
ARC
  5
1611D
  8
0
 10
3469.6434457398718223
 20
194.4005331837990127
 30
0.0
 40
0.5722401838258684
 50
358.0727485048449807
 51
9.6617129724253967
  0
ARC
  5
1611E
  8
0
 10
3470.1419963394350816
 20
194.4865631199602944
 30
0.0
 40
0.0663324005626309
 50
8.6790451783967271
 51
24.84857804131045
  0
ARC
  5
1611F
  8
0
 10
3470.2005577469471973
 20
194.5138296406153984
 30
0.0
 40
0.0017396652781199
 50
20.4487572913475901
 51
102.516405173381699
  0
LINE
  5
16120
  8
0
 10
3470.1102026065659629
 20
194.4218025027755061
 30
0.0
 11
3470.0611677507731656
 21
194.3997087168719133
 31
0.0
  0
ARC
  5
16121
  8
0
 10
3470.0708743615618914
 20
194.3781659055863997
 30
0.0
 40
0.0236286057800747
 50
114.2550450334405951
 51
197.2800139150753864
  0
LINE
  5
16122
  8
0
 10
3470.0483122453661053
 20
194.3711472216753009
 30
0.0
 11
3470.0726084177767916
 21
194.2864161731920944
 31
0.0
  0
ARC
  5
16123
  8
0
 10
3470.096226210354871
 20
194.2910398262052922
 30
0.0
 40
0.0240661233578888
 50
191.0766992410001137
 51
273.5976458332033872
  0
LINE
  5
16124
  8
0
 10
3470.0977363478659754
 20
194.2670211297757135
 30
0.0
 11
3470.1201635414840894
 21
194.2686861023474876
 31
0.0
  0
ARC
  5
16125
  8
0
 10
3470.1197064568577844
 20
194.2811666442279943
 30
0.0
 40
0.012488909159518
 50
272.0974506175488727
 51
276.7341051179818123
  0
ARC
  5
16126
  8
0
 10
3470.1209245758709585
 20
194.270007107520712
 30
0.0
 40
0.0012673854712654
 50
281.2084974647326021
 51
313.416354777629806
  0
ARC
  5
16127
  8
0
 10
3470.0777539203800188
 20
194.2872291919379109
 30
0.0
 40
0.0476322414240848
 50
337.6111237316939082
 51
0.4019325222001227
  0
ARC
  5
16128
  8
0
 10
3469.5534685031570916
 20
194.3068080787745942
 30
0.0
 40
0.5722401838258684
 50
358.0727485048449807
 51
9.6617129724253967
  0
ARC
  5
16129
  8
0
 10
3470.0520191027208057
 20
194.3928380149359043
 30
0.0
 40
0.0663324005626309
 50
8.6790451783967271
 51
24.84857804131045
  0
ARC
  5
1612A
  8
0
 10
3470.1105805102320119
 20
194.4201045355910082
 30
0.0
 40
0.0017396652781199
 50
20.4487572913475901
 51
102.516405173381699
  0
LINE
  5
1612B
  8
0
 10
3470.3195162654042178
 20
194.1007360659858136
 30
0.0
 11
3470.2704814096118753
 21
194.0786422800819082
 31
0.0
  0
ARC
  5
1612C
  8
0
 10
3470.2801880204019653
 20
194.0570994687963093
 30
0.0
 40
0.0236286057800747
 50
114.2550450334405951
 51
197.2800139150753864
  0
LINE
  5
1612D
  8
0
 10
3470.257625904204815
 20
194.0500807848852958
 30
0.0
 11
3470.281922076615956
 21
193.9653497364020893
 31
0.0
  0
ARC
  5
1612E
  8
0
 10
3470.3055398691940354
 20
193.9699733894152871
 30
0.0
 40
0.0240661233578888
 50
191.0766992410001137
 51
273.5976458332033872
  0
LINE
  5
1612F
  8
0
 10
3470.3070500067051398
 20
193.9459546929857083
 30
0.0
 11
3470.329477200322799
 21
193.9476196655575109
 31
0.0
  0
ARC
  5
16130
  8
0
 10
3470.3290201156969488
 20
193.9601002074383871
 30
0.0
 40
0.012488909159518
 50
272.0974506175488727
 51
276.7341051179818123
  0
ARC
  5
16131
  8
0
 10
3470.3302382347110324
 20
193.9489406707305932
 30
0.0
 40
0.0012673854712654
 50
281.2084974647326021
 51
313.416354777629806
  0
ARC
  5
16132
  8
0
 10
3470.2870675792200927
 20
193.9661627551479057
 30
0.0
 40
0.0476322414240848
 50
337.6111237316939082
 51
0.4019325222001227
  0
ARC
  5
16133
  8
0
 10
3469.762782161998075
 20
193.985741641984589
 30
0.0
 40
0.5722401838258684
 50
358.0727485048449807
 51
9.6617129724253967
  0
ARC
  5
16134
  8
0
 10
3470.2613327615599701
 20
194.0717715781458992
 30
0.0
 40
0.0663324005626309
 50
8.6790451783967271
 51
24.84857804131045
  0
ARC
  5
16135
  8
0
 10
3470.3198941690720858
 20
194.0990380988010031
 30
0.0
 40
0.0017396652781199
 50
20.4487572913475901
 51
102.516405173381699
  0
LINE
  5
16136
  8
0
 10
3470.2349766526449457
 20
194.193536841529891
 30
0.0
 11
3470.1859417968521484
 21
194.171443055626213
 31
0.0
  0
ARC
  5
16137
  8
0
 10
3470.1956484076417837
 20
194.1499002443403867
 30
0.0
 40
0.0236286057800747
 50
114.2550450334405951
 51
197.2800139150753864
  0
LINE
  5
16138
  8
0
 10
3470.1730862914450881
 20
194.1428815604296858
 30
0.0
 11
3470.1973824638557744
 21
194.0581505119461099
 31
0.0
  0
ARC
  5
16139
  8
0
 10
3470.221000256435218
 20
194.0627741649593077
 30
0.0
 40
0.0240661233578888
 50
191.0766992410001137
 51
273.5976458332033872
  0
LINE
  5
1613A
  8
0
 10
3470.2225103939449582
 20
194.0387554685297005
 30
0.0
 11
3470.2449375875639817
 21
194.040420441101503
 31
0.0
  0
ARC
  5
1613B
  8
0
 10
3470.2444805029372219
 20
194.0529009829824076
 30
0.0
 40
0.012488909159518
 50
272.0974506175488727
 51
276.7341051179818123
  0
ARC
  5
1613C
  8
0
 10
3470.2456986219508508
 20
194.041741446274699
 30
0.0
 40
0.0012673854712654
 50
281.2084974647326021
 51
313.416354777629806
  0
ARC
  5
1613D
  8
0
 10
3470.2025279664599111
 20
194.0589635306918979
 30
0.0
 40
0.0476322414240848
 50
337.6111237316939082
 51
0.4019325222001227
  0
ARC
  5
1613E
  8
0
 10
3469.6782425492378934
 20
194.0785424175286096
 30
0.0
 40
0.5722401838258684
 50
358.0727485048449807
 51
9.6617129724253967
  0
ARC
  5
1613F
  8
0
 10
3470.1767931487997885
 20
194.164572353690204
 30
0.0
 40
0.0663324005626309
 50
8.6790451783967271
 51
24.84857804131045
  0
ARC
  5
16140
  8
0
 10
3470.2353545563119042
 20
194.1918388743449952
 30
0.0
 40
0.0017396652781199
 50
20.4487572913475901
 51
102.516405173381699
  0
LINE
  5
16141
  8
0
 10
3470.4548840635688975
 20
193.6645391018498117
 30
0.0
 11
3470.4058492077761002
 21
193.6424453159461052
 31
0.0
  0
ARC
  5
16142
  8
0
 10
3470.415555818564826
 20
193.6209025046605916
 30
0.0
 40
0.0236286057800747
 50
114.2550450334405951
 51
197.2800139150753864
  0
LINE
  5
16143
  8
0
 10
3470.3929937023699495
 20
193.6138838207494928
 30
0.0
 11
3470.4172898747810905
 21
193.5291527722660021
 31
0.0
  0
ARC
  5
16144
  8
0
 10
3470.4409076673591699
 20
193.5337764252791999
 30
0.0
 40
0.0240661233578888
 50
191.0766992410001137
 51
273.5976458332033872
  0
LINE
  5
16145
  8
0
 10
3470.4424178048698195
 20
193.5097577288495927
 30
0.0
 11
3470.4648449984879335
 21
193.5114227014213952
 31
0.0
  0
ARC
  5
16146
  8
0
 10
3470.4643879138620832
 20
193.5239032433021862
 30
0.0
 40
0.012488909159518
 50
272.0974506175488727
 51
276.7341051179818123
  0
ARC
  5
16147
  8
0
 10
3470.4656060328738931
 20
193.5127437065949039
 30
0.0
 40
0.0012673854712654
 50
281.2084974647326021
 51
313.416354777629806
  0
ARC
  5
16148
  8
0
 10
3470.4224353773852272
 20
193.5299657910117901
 30
0.0
 40
0.0476322414240848
 50
337.6111237316939082
 51
0.4019325222001227
  0
ARC
  5
16149
  8
0
 10
3469.8981499601618452
 20
193.5495446778485018
 30
0.0
 40
0.5722401838258684
 50
358.0727485048449807
 51
9.6617129724253967
  0
ARC
  5
1614A
  8
0
 10
3470.396700559724195
 20
193.6355746140100962
 30
0.0
 40
0.0663324005626309
 50
8.6790451783967271
 51
24.84857804131045
  0
ARC
  5
1614B
  8
0
 10
3470.4552619672372202
 20
193.6628411346648875
 30
0.0
 40
0.0017396652781199
 50
20.4487572913475901
 51
102.516405173381699
  0
LINE
  5
1614C
  8
0
 10
3470.3432224961311476
 20
193.8189641644210042
 30
0.0
 11
3470.2941876403378956
 21
193.7968703785174114
 31
0.0
  0
ARC
  5
1614D
  8
0
 10
3470.3038942511288951
 20
193.7753275672316136
 30
0.0
 40
0.0236286057800747
 50
114.2550450334405951
 51
197.2800139150753864
  0
LINE
  5
1614E
  8
0
 10
3470.2813321349308353
 20
193.7683088833207989
 30
0.0
 11
3470.3056283073419763
 21
193.6835778348373083
 31
0.0
  0
ARC
  5
1614F
  8
0
 10
3470.3292460999209652
 20
193.6882014878505061
 30
0.0
 40
0.0240661233578888
 50
191.0766992410001137
 51
273.5976458332033872
  0
LINE
  5
16150
  8
0
 10
3470.3307562374320696
 20
193.6641827914208989
 30
0.0
 11
3470.3531834310510931
 21
193.6658477639927014
 31
0.0
  0
ARC
  5
16151
  8
0
 10
3470.3527263464238786
 20
193.678328305873606
 30
0.0
 40
0.012488909159518
 50
272.0974506175488727
 51
276.7341051179818123
  0
ARC
  5
16152
  8
0
 10
3470.3539444654379622
 20
193.6671687691658121
 30
0.0
 40
0.0012673854712654
 50
281.2084974647326021
 51
313.416354777629806
  0
ARC
  5
16153
  8
0
 10
3470.310773809946113
 20
193.684390853583011
 30
0.0
 40
0.0476322414240848
 50
337.6111237316939082
 51
0.4019325222001227
  0
ARC
  5
16154
  8
0
 10
3469.7864883927240953
 20
193.703969740419808
 30
0.0
 40
0.5722401838258684
 50
358.0727485048449807
 51
9.6617129724253967
  0
ARC
  5
16155
  8
0
 10
3470.2850389922868999
 20
193.7899996765814024
 30
0.0
 40
0.0663324005626309
 50
8.6790451783967271
 51
24.84857804131045
  0
ARC
  5
16156
  8
0
 10
3470.3436003997990156
 20
193.8172661972361936
 30
0.0
 40
0.0017396652781199
 50
20.4487572913475901
 51
102.516405173381699
  0
LINE
  5
16157
  8
0
 10
3470.259189574147058
 20
193.8482107700299082
 30
0.0
 11
3470.2101547183528965
 21
193.8261169841262017
 31
0.0
  0
ARC
  5
16158
  8
0
 10
3470.219861329143896
 20
193.8045741728404039
 30
0.0
 40
0.0236286057800747
 50
114.2550450334405951
 51
197.2800139150753864
  0
LINE
  5
16159
  8
0
 10
3470.1972992129472004
 20
193.797555488929703
 30
0.0
 11
3470.2215953853569772
 21
193.7128244404460986
 31
0.0
  0
ARC
  5
1615A
  8
0
 10
3470.2452131779359661
 20
193.7174480934592964
 30
0.0
 40
0.0240661233578888
 50
191.0766992410001137
 51
273.5976458332033872
  0
LINE
  5
1615B
  8
0
 10
3470.2467233154470705
 20
193.6934293970296892
 30
0.0
 11
3470.2691505090660939
 21
193.6950943696014917
 31
0.0
  0
ARC
  5
1615C
  8
0
 10
3470.2686934244388794
 20
193.7075749114823964
 30
0.0
 40
0.012488909159518
 50
272.0974506175488727
 51
276.7341051179818123
  0
ARC
  5
1615D
  8
0
 10
3470.2699115434520536
 20
193.6964153747750004
 30
0.0
 40
0.0012673854712654
 50
281.2084974647326021
 51
313.416354777629806
  0
ARC
  5
1615E
  8
0
 10
3470.2267408879611139
 20
193.7136374591918866
 30
0.0
 40
0.0476322414240848
 50
337.6111237316939082
 51
0.4019325222001227
  0
ARC
  5
1615F
  8
0
 10
3469.7024554707390962
 20
193.733216346028712
 30
0.0
 40
0.5722401838258684
 50
358.0727485048449807
 51
9.6617129724253967
  0
ARC
  5
16160
  8
0
 10
3470.2010060703019008
 20
193.8192462821901927
 30
0.0
 40
0.0663324005626309
 50
8.6790451783967271
 51
24.84857804131045
  0
ARC
  5
16161
  8
0
 10
3470.2595674778140165
 20
193.8465128028450977
 30
0.0
 40
0.0017396652781199
 50
20.4487572913475901
 51
102.516405173381699
  0
LINE
  5
16162
  8
0
 10
3470.3564911107318949
 20
193.5042212663205987
 30
0.0
 11
3470.3216491412899813
 21
193.4887086221498009
 31
0.0
  0
ARC
  5
16163
  8
0
 10
3470.3318838249338114
 20
193.4657211462038049
 30
0.0
 40
0.0251629251010809
 50
113.9999998939615011
 51
192.9370879549150004
  0
LINE
  5
16164
  8
0
 10
3470.3073596234789875
 20
193.4600876443911943
 30
0.0
 11
3470.3318157314402015
 21
193.3747990600747073
 31
0.0
  0
ARC
  5
16165
  8
0
 10
3470.3545576869328215
 20
193.3811881668204933
 30
0.0
 40
0.0236220472000039
 50
196.0000000002063132
 51
270.0000000001824105
  0
ARC
  5
16166
  8
0
 10
3470.1897617017721132
 20
194.7220920628975875
 30
0.0
 40
1.3744412561477499
 50
276.8863514266162156
 51
278.376847639291725
  0
ARC
  5
16167
  8
0
 10
3470.3574017794007887
 20
193.5018221327900108
 30
0.0
 40
0.0025650286230612
 50
61.2972627887504089
 51
110.7928711016711958
  0
ARC
  5
16168
  8
0
 10
3470.2498753423151356
 20
193.4182481821111139
 30
0.0
 40
0.1385427688276366
 50
14.7776587145670693
 51
38.2778142897797196
  0
ARC
  5
16169
  8
0
 10
3469.9921050030247898
 20
193.3236367925645993
 30
0.0
 40
0.4127222122109688
 50
11.3330306923454707
 51
18.3523044300351117
  0
LINE
  5
1616A
  8
0
 10
3470.4325845885318813
 20
193.421554711520912
 30
0.0
 11
3470.3983575789397946
 21
193.4055006508091878
 31
0.0
  0
ARC
  5
1616B
  8
0
 10
3470.4084233525140917
 20
193.384040576946802
 30
0.0
 40
0.0237034716405323
 50
115.1287634465547001
 51
195.7629064677956023
  0
LINE
  5
1616C
  8
0
 10
3470.3856112720332021
 20
193.3776013571207102
 30
0.0
 11
3470.4100343803661417
 21
193.2910781558749989
 31
0.0
  0
ARC
  5
1616D
  8
0
 10
3470.4325446917059708
 20
193.2974321946132079
 30
0.0
 40
0.0233899107499436
 50
195.7629064677956023
 51
278.5111375672714757
  0
LINE
  5
1616E
  8
0
 10
3470.436006437334072
 20
193.2742998743208886
 30
0.0
 11
3470.4752656465589098
 21
193.2790993398002115
 31
0.0
  0
ARC
  5
1616F
  8
0
 10
3470.4742096545742243
 20
193.2838419499377096
 30
0.0
 40
0.0048587518965045
 50
282.5527357083714151
 51
347.5096575636009106
  0
ARC
  5
16170
  8
0
 10
3470.331461208374094
 20
193.2968773203782007
 30
0.0
 40
0.1481633255455278
 50
354.5445308656910015
 51
17.6279552053441009
  0
ARC
  5
16171
  8
0
 10
3470.2051033314141932
 20
193.2765122851720889
 30
0.0
 40
0.2754013876353667
 50
13.7018225090467602
 51
29.2153859644281297
  0
ARC
  5
16172
  8
0
 10
3470.4193324797302012
 20
193.3963363736208976
 30
0.0
 40
0.0299386870670495
 50
29.1820530290052602
 51
57.4419816019083669
  0
ARC
  5
16173
  8
0
 10
3470.4340334447001624
 20
193.4180127398705906
 30
0.0
 40
0.0038268456155674
 50
68.3696546649527335
 51
112.2471912356179047
  0
LINE
  5
16174
  8
0
 10
3470.5649148346410584
 20
193.1924356529125077
 30
0.0
 11
3470.5306878250489717
 21
193.1763815922008121
 31
0.0
  0
ARC
  5
16175
  8
0
 10
3470.540753598622814
 20
193.1549215183383126
 30
0.0
 40
0.0237034716405323
 50
115.1287634465547001
 51
195.7629064677956023
  0
LINE
  5
16176
  8
0
 10
3470.517941518141015
 20
193.1484822985121923
 30
0.0
 11
3470.5423646264748641
 21
193.0619590972665947
 31
0.0
  0
ARC
  5
16177
  8
0
 10
3470.5648749378151479
 20
193.06831313600469
 30
0.0
 40
0.0233899107499436
 50
195.7629064677956023
 51
278.5111375672714757
  0
LINE
  5
16178
  8
0
 10
3470.5683366834418848
 20
193.0451808157123992
 30
0.0
 11
3470.6075958926680869
 21
193.0499802811916936
 31
0.0
  0
ARC
  5
16179
  8
0
 10
3470.6065399006829466
 20
193.0547228913293054
 30
0.0
 40
0.0048587518965045
 50
282.5527357083714151
 51
347.5096575636009106
  0
ARC
  5
1617A
  8
0
 10
3470.4637914544828163
 20
193.0677582617697112
 30
0.0
 40
0.1481633255455278
 50
354.5445308656910015
 51
17.6279552053441009
  0
ARC
  5
1617B
  8
0
 10
3470.3374335775229156
 20
193.0473932265637131
 30
0.0
 40
0.2754013876353667
 50
13.7018225090467602
 51
29.2153859644281297
  0
ARC
  5
1617C
  8
0
 10
3470.5516627258389235
 20
193.167217315012806
 30
0.0
 40
0.0299386870670495
 50
29.1820530290052602
 51
57.4419816019083669
  0
ARC
  5
1617D
  8
0
 10
3470.5663636908088847
 20
193.1888936812621864
 30
0.0
 40
0.0038268456155674
 50
68.3696546649527335
 51
112.2471912356179047
  0
LINE
  5
1617E
  8
0
 10
3470.4467793537819489
 20
193.1719135735874886
 30
0.0
 11
3470.4125523441889527
 21
193.1558595128761056
 31
0.0
  0
ARC
  5
1617F
  8
0
 10
3470.4226181177618855
 20
193.1343994390136061
 30
0.0
 40
0.0237034716405323
 50
115.1287634465547001
 51
195.7629064677956023
  0
LINE
  5
16180
  8
0
 10
3470.3998060372841792
 20
193.1279602191872016
 30
0.0
 11
3470.4242291456162093
 21
193.0414370179414902
 31
0.0
  0
ARC
  5
16181
  8
0
 10
3470.4467394569560383
 20
193.0477910566796993
 30
0.0
 40
0.0233899107499436
 50
195.7629064677956023
 51
278.5111375672714757
  0
LINE
  5
16182
  8
0
 10
3470.4502012025827753
 20
193.0246587363874085
 30
0.0
 11
3470.4894604118089774
 21
193.0294582018667029
 31
0.0
  0
ARC
  5
16183
  8
0
 10
3470.4884044198229276
 20
193.0342008120045989
 30
0.0
 40
0.0048587518965045
 50
282.5527357083714151
 51
347.5096575636009106
  0
ARC
  5
16184
  8
0
 10
3470.3456559736227973
 20
193.0472361824450047
 30
0.0
 40
0.1481633255455278
 50
354.5445308656910015
 51
17.6279552053441009
  0
ARC
  5
16185
  8
0
 10
3470.2192980966619871
 20
193.0268711472390066
 30
0.0
 40
0.2754013876353667
 50
13.7018225090467602
 51
29.2153859644281297
  0
ARC
  5
16186
  8
0
 10
3470.4335272449789045
 20
193.1466952356877016
 30
0.0
 40
0.0299386870670495
 50
29.1820530290052602
 51
57.4419816019083669
  0
ARC
  5
16187
  8
0
 10
3470.4482282099511394
 20
193.1683716019371104
 30
0.0
 40
0.0038268456155674
 50
68.3696546649527335
 51
112.2471912356179047
  0
LINE
  5
16188
  8
0
 10
3470.5419375314791068
 20
193.0364599321225967
 30
0.0
 11
3470.5077105218861107
 21
193.0204058714112136
 31
0.0
  0
ARC
  5
16189
  8
0
 10
3470.5177762954590435
 20
192.9989457975487142
 30
0.0
 40
0.0237034716405323
 50
115.1287634465547001
 51
195.7629064677956023
  0
LINE
  5
1618A
  8
0
 10
3470.4949642149790634
 20
192.9925065777223097
 30
0.0
 11
3470.5193873233129125
 21
192.9059833764765983
 31
0.0
  0
ARC
  5
1618B
  8
0
 10
3470.541897634651832
 20
192.9123374152148074
 30
0.0
 40
0.0233899107499436
 50
195.7629064677956023
 51
278.5111375672714757
  0
LINE
  5
1618C
  8
0
 10
3470.5453593802799332
 20
192.8892050949224881
 30
0.0
 11
3470.5846185895052258
 21
192.8940045604018962
 31
0.0
  0
ARC
  5
1618D
  8
0
 10
3470.5835625975191761
 20
192.898747170539707
 30
0.0
 40
0.0048587518965045
 50
282.5527357083714151
 51
347.5096575636009106
  0
ARC
  5
1618E
  8
0
 10
3470.4408141513190458
 20
192.9117825409801981
 30
0.0
 40
0.1481633255455278
 50
354.5445308656910015
 51
17.6279552053441009
  0
ARC
  5
1618F
  8
0
 10
3470.314456274359145
 20
192.8914175057740863
 30
0.0
 40
0.2754013876353667
 50
13.7018225090467602
 51
29.2153859644281297
  0
ARC
  5
16190
  8
0
 10
3470.5286854226751529
 20
193.0112415942228949
 30
0.0
 40
0.0299386870670495
 50
29.1820530290052602
 51
57.4419816019083669
  0
ARC
  5
16191
  8
0
 10
3470.5433863876460236
 20
193.0329179604723038
 30
0.0
 40
0.0038268456155674
 50
68.3696546649527335
 51
112.2471912356179047
  0
LINE
  5
16192
  8
0
 10
3470.6826480289828396
 20
192.7700696983928026
 30
0.0
 11
3470.6484210193912077
 21
192.7540156376809932
 31
0.0
  0
ARC
  5
16193
  8
0
 10
3470.6584867929627762
 20
192.7325555638188916
 30
0.0
 40
0.0237034716405323
 50
115.1287634465547001
 51
195.7629064677956023
  0
LINE
  5
16194
  8
0
 10
3470.6356747124841604
 20
192.7261163439924019
 30
0.0
 11
3470.651606232217091
 21
192.6696761043131119
 31
0.0
  0
ARC
  5
16195
  8
0
 10
3470.6826081321578386
 20
192.6459471814850133
 30
0.0
 40
0.0233899107499436
 50
237.1370220175128054
 51
278.5111375672714757
  0
LINE
  5
16196
  8
0
 10
3470.6860698777850303
 20
192.622814861192694
 30
0.0
 11
3470.7253290870107776
 21
192.6276143266719885
 31
0.0
  0
ARC
  5
16197
  8
0
 10
3470.7242730950260921
 20
192.6323569368094866
 30
0.0
 40
0.0048587518965045
 50
282.5527357083714151
 51
347.5096575636009106
  0
ARC
  5
16198
  8
0
 10
3470.5815246488241428
 20
192.6453923072502903
 30
0.0
 40
0.1481633255455278
 50
354.5445308656910015
 51
17.6279552053441009
  0
ARC
  5
16199
  8
0
 10
3470.4551667718637873
 20
192.6250272720442922
 30
0.0
 40
0.2754013876353667
 50
13.7018225090467602
 51
29.2153859644281297
  0
ARC
  5
1619A
  8
0
 10
3470.6693959201797952
 20
192.7448513604929872
 30
0.0
 40
0.0299386870670495
 50
29.1820530290052602
 51
57.4419816019083669
  0
ARC
  5
1619B
  8
0
 10
3470.6840968851520302
 20
192.766527726742396
 30
0.0
 40
0.0038268456155674
 50
68.3696546649527335
 51
112.2471912356179047
  0
LINE
  5
1619C
  8
0
 10
3470.6354483379691374
 20
192.6863211466059909
 30
0.0
 11
3470.6012213283761412
 21
192.6702670858942952
 31
0.0
  0
ARC
  5
1619D
  8
0
 10
3470.6112871019499835
 20
192.6488070120321083
 30
0.0
 40
0.0237034716405323
 50
115.1287634465547001
 51
195.7629064677956023
  0
LINE
  5
1619E
  8
0
 10
3470.5884750214690939
 20
192.6423677922057038
 30
0.0
 11
3470.612898129802943
 21
192.5558445909599925
 31
0.0
  0
ARC
  5
1619F
  8
0
 10
3470.6354084411432268
 20
192.5621986296982016
 30
0.0
 40
0.0233899107499436
 50
195.7629064677956023
 51
278.5111375672714757
  0
LINE
  5
161A0
  8
0
 10
3470.6388701867699638
 20
192.5390663094059107
 30
0.0
 11
3470.6781293959961658
 21
192.5438657748852052
 31
0.0
  0
ARC
  5
161A1
  8
0
 10
3470.6770734040110256
 20
192.5486083850227885
 30
0.0
 40
0.0048587518965045
 50
282.5527357083714151
 51
347.5096575636009106
  0
ARC
  5
161A2
  8
0
 10
3470.5343249578099858
 20
192.5616437554635922
 30
0.0
 40
0.1481633255455278
 50
354.5445308656910015
 51
17.6279552053441009
  0
ARC
  5
161A3
  8
0
 10
3470.407967080850085
 20
192.5412787202575089
 30
0.0
 40
0.2754013876353667
 50
13.7018225090467602
 51
29.2153859644281297
  0
ARC
  5
161A4
  8
0
 10
3470.6221962291670025
 20
192.6611028087062891
 30
0.0
 40
0.0299386870670495
 50
29.1820530290052602
 51
57.4419816019083669
  0
ARC
  5
161A5
  8
0
 10
3470.6368971941369637
 20
192.682779174955698
 30
0.0
 40
0.0038268456155674
 50
68.3696546649527335
 51
112.2471912356179047
  0
LINE
  5
161A6
  8
0
 10
3470.7934656341171831
 20
192.3771738078370959
 30
0.0
 11
3470.7592386245250964
 21
192.3611197471254002
 31
0.0
  0
ARC
  5
161A7
  8
0
 10
3470.7693043980989387
 20
192.3396596732629007
 30
0.0
 40
0.0237034716405323
 50
115.1287634465547001
 51
195.7629064677956023
  0
LINE
  5
161A8
  8
0
 10
3470.7464923176180491
 20
192.3332204534368088
 30
0.0
 11
3470.7709154259509887
 21
192.2466972521910975
 31
0.0
  0
ARC
  5
161A9
  8
0
 10
3470.7934257372908178
 20
192.2530512909293066
 30
0.0
 40
0.0233899107499436
 50
195.7629064677956023
 51
278.5111375672714757
  0
LINE
  5
161AA
  8
0
 10
3470.796887482918919
 20
192.2299189706369873
 30
0.0
 11
3470.8361466921451211
 21
192.2347184361163102
 31
0.0
  0
ARC
  5
161AB
  8
0
 10
3470.8350907001590713
 20
192.2394610462538935
 30
0.0
 40
0.0048587518965045
 50
282.5527357083714151
 51
347.5096575636009106
  0
ARC
  5
161AC
  8
0
 10
3470.6923422539580315
 20
192.252496416694612
 30
0.0
 40
0.1481633255455278
 50
354.5445308656910015
 51
17.6279552053441009
  0
ARC
  5
161AD
  8
0
 10
3470.5659843769981308
 20
192.2321313814886139
 30
0.0
 40
0.2754013876353667
 50
13.7018225090467602
 51
29.2153859644281297
  0
ARC
  5
161AE
  8
0
 10
3470.7802135253141387
 20
192.3519554699373941
 30
0.0
 40
0.0299386870670495
 50
29.1820530290052602
 51
57.4419816019083669
  0
ARC
  5
161AF
  8
0
 10
3470.7949144902850094
 20
192.373631836186803
 30
0.0
 40
0.0038268456155674
 50
68.3696546649527335
 51
112.2471912356179047
  0
LINE
  5
161B0
  8
0
 10
3470.7162848553971344
 20
192.3939849461347933
 30
0.0
 11
3470.6820578458041382
 21
192.3779308854232966
 31
0.0
  0
ARC
  5
161B1
  8
0
 10
3470.7172166291479698
 20
192.3439590194280129
 30
0.0
 40
0.0488899552612263
 50
135.9836255600154971
 51
191.5198792470937974
  0
LINE
  5
161B2
  8
0
 10
3470.6693115388970909
 20
192.3341953083769056
 30
0.0
 11
3470.69373464723094
 21
192.2476721071311943
 31
0.0
  0
ARC
  5
161B3
  8
0
 10
3470.7162449585698596
 20
192.2540261458694033
 30
0.0
 40
0.0233899107499436
 50
195.7629064677956023
 51
278.5111375672714757
  0
LINE
  5
161B4
  8
0
 10
3470.7197067041979608
 20
192.2308938255771125
 30
0.0
 11
3470.7589659134241629
 21
192.2356932910564069
 31
0.0
  0
ARC
  5
161B5
  8
0
 10
3470.7579099214372036
 20
192.2404359011943029
 30
0.0
 40
0.0048587518965045
 50
282.5527357083714151
 51
347.5096575636009106
  0
ARC
  5
161B6
  8
0
 10
3470.6151614752370733
 20
192.2534712716347087
 30
0.0
 40
0.1481633255455278
 50
354.5445308656910015
 51
17.6279552053441009
  0
ARC
  5
161B7
  8
0
 10
3470.3168091836200801
 20
192.2107615213153906
 30
0.0
 40
0.4470283737356123
 50
13.8970405854797292
 51
22.7127583672527109
  0
ARC
  5
161B8
  8
0
 10
3470.7030327465931805
 20
192.3687666082350916
 30
0.0
 40
0.0299386870670495
 50
29.1820530290052602
 51
57.4419816019083669
  0
ARC
  5
161B9
  8
0
 10
3470.7177337115649607
 20
192.3904429744843867
 30
0.0
 40
0.0038268456155674
 50
68.3696546649527335
 51
112.2471912356179047
  0
LINE
  5
161BA
  8
0
 10
3470.7207798893391555
 20
192.2099003279278122
 30
0.0
 11
3470.6865528797470688
 21
192.1938462672160028
 31
0.0
  0
ARC
  5
161BB
  8
0
 10
3470.6966186533190921
 20
192.1723861933535886
 30
0.0
 40
0.0237034716405323
 50
115.1287634465547001
 51
195.7629064677956023
  0
LINE
  5
161BC
  8
0
 10
3470.6738065728400215
 20
192.1659469735274968
 30
0.0
 11
3470.6982296811720516
 21
192.0794237722818139
 31
0.0
  0
ARC
  5
161BD
  8
0
 10
3470.7207399925127902
 20
192.0857778110199945
 30
0.0
 40
0.0233899107499436
 50
195.7629064677956023
 51
278.5111375672714757
  0
LINE
  5
161BE
  8
0
 10
3470.7242017381399819
 20
192.0626454907277036
 30
0.0
 11
3470.7634609473648197
 21
192.0674449562069981
 31
0.0
  0
ARC
  5
161BF
  8
0
 10
3470.7624049553801342
 20
192.0721875663446099
 30
0.0
 40
0.0048587518965045
 50
282.5527357083714151
 51
347.5096575636009106
  0
ARC
  5
161C0
  8
0
 10
3470.6196565091800039
 20
192.0852229367852999
 30
0.0
 40
0.1481633255455278
 50
354.5445308656910015
 51
17.6279552053441009
  0
ARC
  5
161C1
  8
0
 10
3470.4932986322191937
 20
192.0648579015793018
 30
0.0
 40
0.2754013876353667
 50
13.7018225090467602
 51
29.2153859644281297
  0
ARC
  5
161C2
  8
0
 10
3470.7075277805352016
 20
192.1846819900281105
 30
0.0
 40
0.0299386870670495
 50
29.1820530290052602
 51
57.4419816019083669
  0
ARC
  5
161C3
  8
0
 10
3470.7222287455069818
 20
192.2063583562774056
 30
0.0
 40
0.0038268456155674
 50
68.3696546649527335
 51
112.2471912356179047
  0
LINE
  5
161C4
  8
0
 10
3470.8814523321198067
 20
192.060238518096611
 30
0.0
 11
3470.8472253225268105
 21
192.0441844573851995
 31
0.0
  0
ARC
  5
161C5
  8
0
 10
3470.8572910961011075
 20
192.0227243835227
 30
0.0
 40
0.0237034716405323
 50
115.1287634465547001
 51
195.7629064677956023
  0
LINE
  5
161C6
  8
0
 10
3470.834479015620218
 20
192.0162851636966082
 30
0.0
 11
3470.8589021239540671
 21
191.9297619624506126
 31
0.0
  0
ARC
  5
161C7
  8
0
 10
3470.8814124352929866
 20
191.9361160011891059
 30
0.0
 40
0.0233899107499436
 50
195.7629064677956023
 51
278.5111375672714757
  0
LINE
  5
161C8
  8
0
 10
3470.8848741809210878
 20
191.9129836808967866
 30
0.0
 11
3470.9241333901468352
 21
191.9177831463757968
 31
0.0
  0
ARC
  5
161C9
  8
0
 10
3470.9230773981621496
 20
191.9225257565136928
 30
0.0
 40
0.0048587518965045
 50
282.5527357083714151
 51
347.5096575636009106
  0
ARC
  5
161CA
  8
0
 10
3470.7803289519611099
 20
191.9355611269542123
 30
0.0
 40
0.1481633255455278
 50
354.5445308656910015
 51
17.6279552053441009
  0
ARC
  5
161CB
  8
0
 10
3470.6539710750012091
 20
191.9151960917481006
 30
0.0
 40
0.2754013876353667
 50
13.7018225090467602
 51
29.2153859644281297
  0
ARC
  5
161CC
  8
0
 10
3470.8682002233181265
 20
192.0350201801969092
 30
0.0
 40
0.0299386870670495
 50
29.1820530290052602
 51
57.4419816019083669
  0
ARC
  5
161CD
  8
0
 10
3470.8829011882880877
 20
192.0566965464466023
 30
0.0
 40
0.0038268456155674
 50
68.3696546649527335
 51
112.2471912356179047
  0
LINE
  5
161CE
  8
0
 10
3470.8229598891261958
 20
192.0123428665818892
 30
0.0
 11
3470.7887328795341091
 21
191.9962888058701935
 31
0.0
  0
ARC
  5
161CF
  8
0
 10
3470.7987986531070419
 20
191.9748287320080067
 30
0.0
 40
0.0237034716405323
 50
115.1287634465547001
 51
195.7629064677956023
  0
LINE
  5
161D0
  8
0
 10
3470.7759865726270618
 20
191.9683895121816022
 30
0.0
 11
3470.8004096809600014
 21
191.8818663109360045
 31
0.0
  0
ARC
  5
161D1
  8
0
 10
3470.8229199922998305
 20
191.8882203496740999
 30
0.0
 40
0.0233899107499436
 50
195.7629064677956023
 51
278.5111375672714757
  0
LINE
  5
161D2
  8
0
 10
3470.8263817379270222
 20
191.8650880293818091
 30
0.0
 11
3470.8656409471532243
 21
191.8698874948611888
 31
0.0
  0
ARC
  5
161D3
  8
0
 10
3470.864584955168084
 20
191.8746301049986869
 30
0.0
 40
0.0048587518965045
 50
282.5527357083714151
 51
347.5096575636009106
  0
ARC
  5
161D4
  8
0
 10
3470.7218365089670442
 20
191.8876654754394906
 30
0.0
 40
0.1481633255455278
 50
354.5445308656910015
 51
11.7210843820378408
  0
ARC
  5
161D5
  8
0
 10
3470.5954786320071435
 20
191.8673004402334925
 30
0.0
 40
0.2754013876353667
 50
26.60495048761776
 51
29.2153859644281297
  0
ARC
  5
161D6
  8
0
 10
3470.8097077803231514
 20
191.9871245286821875
 30
0.0
 40
0.0299386870670495
 50
29.1820530290052602
 51
57.4419816019083669
  0
ARC
  5
161D7
  8
0
 10
3470.8244087452949316
 20
192.0088008949315963
 30
0.0
 40
0.0038268456155674
 50
68.3696546649527335
 51
112.2471912356179047
  0
LINE
  5
161D8
  8
0
 10
3470.9529378501251813
 20
191.8503050936074885
 30
0.0
 11
3470.9187108405321851
 21
191.8342510328957928
 31
0.0
  0
ARC
  5
161D9
  8
0
 10
3470.9287766141060274
 20
191.8127909590336913
 30
0.0
 40
0.0237034716405323
 50
115.1287634465547001
 51
195.7629064677956023
  0
LINE
  5
161DA
  8
0
 10
3470.9059645336251378
 20
191.8063517392072015
 30
0.0
 11
3470.9303876419589869
 21
191.7198285379616038
 31
0.0
  0
ARC
  5
161DB
  8
0
 10
3470.952897953298816
 20
191.7261825766996992
 30
0.0
 40
0.0233899107499436
 50
195.7629064677956023
 51
278.5111375672714757
  0
LINE
  5
161DC
  8
0
 10
3470.9563596989260077
 20
191.7030502564074084
 30
0.0
 11
3470.9956189081531193
 21
191.7078497218867881
 31
0.0
  0
ARC
  5
161DD
  8
0
 10
3470.994562916167979
 20
191.7125923320242862
 30
0.0
 40
0.0048587518965045
 50
282.5527357083714151
 51
347.5096575636009106
  0
ARC
  5
161DE
  8
0
 10
3470.8518144699660297
 20
191.7256277024650899
 30
0.0
 40
0.1481633255455278
 50
354.5445308656910015
 51
17.6279552053441009
  0
ARC
  5
161DF
  8
0
 10
3470.725456593006129
 20
191.7052626672590065
 30
0.0
 40
0.2754013876353667
 50
13.7018225090467602
 51
29.2153859644281297
  0
ARC
  5
161E0
  8
0
 10
3470.9396857413230464
 20
191.8250867557077868
 30
0.0
 40
0.0299386870670495
 50
29.1820530290052602
 51
57.4419816019083669
  0
ARC
  5
161E1
  8
0
 10
3470.9543867062930076
 20
191.8467631219571956
 30
0.0
 40
0.0038268456155674
 50
68.3696546649527335
 51
112.2471912356179047
  0
LINE
  5
161E2
  8
0
 10
3469.970547431005798
 20
195.1491056440555099
 30
0.0
 11
3469.9727689306841967
 21
195.1129553374865111
 31
0.0
  0
LINE
  5
161E3
  8
0
 10
3469.9855595809722217
 20
194.9993518546534119
 30
0.0
 11
3469.9888220290749814
 21
194.9590401292323065
 31
0.0
  0
LINE
  5
161E4
  8
0
 10
3469.9976445596012127
 20
194.8114948259458004
 30
0.0
 11
3470.0037194088040451
 21
194.7561093249956059
 31
0.0
  0
LINE
  5
161E5
  8
0
 10
3469.9681277981171661
 20
195.0603618558886865
 30
0.0
 11
3469.9292089226059943
 21
195.043027621386301
 31
0.0
  0
ARC
  5
161E6
  8
0
 10
3469.9388200138409957
 20
195.0214487703977113
 30
0.0
 40
0.0236224445120433
 50
114.0079054382834016
 51
196.0594193022477896
  0
LINE
  5
161E7
  8
0
 10
3469.9161194275270645
 20
195.0149139968187058
 30
0.0
 11
3469.9414285660682253
 21
194.9269947633457036
 31
0.0
  0
LINE
  5
161E8
  8
0
 10
3469.9993200006160805
 20
194.7962195266227923
 30
0.0
 11
3469.9514878175809827
 21
194.7749035203462995
 31
0.0
  0
ARC
  5
161E9
  8
0
 10
3469.961103202943832
 20
194.7533270173796893
 30
0.0
 40
0.0236220472431485
 50
114.0197370410127036
 51
195.9999997971102914
  0
LINE
  5
161EA
  8
0
 10
3469.9383962337287812
 20
194.7468158988187099
 30
0.0
 11
3469.9509683561991551
 21
194.7029716967390982
 31
0.0
  0
LINE
  5
161EB
  8
0
 10
3469.9851507687089907
 20
194.7404495617142004
 30
0.0
 11
3469.9640673733279073
 21
194.7310626293188989
 31
0.0
  0
ARC
  5
161EC
  8
0
 10
3469.9736753257561759
 20
194.7094828148156864
 30
0.0
 40
0.0236220478335929
 50
113.9999999718257016
 51
196.0122167596414897
  0
LINE
  5
161ED
  8
0
 10
3469.9509697448279439
 20
194.7029668545189054
 30
0.0
 11
3469.9754776606091582
 21
194.6175663241602933
 31
0.0
  0
ARC
  5
161EE
  8
0
 10
3469.9982035045331941
 20
194.6240880994537008
 30
0.0
 40
0.0236431287062091
 50
196.0122167596352938
 51
261.6348081578902907
  0
ARC
  5
161EF
  8
0
 10
3470.0538270036340691
 20
194.4647966305371938
 30
0.0
 40
0.0931334732684238
 50
14.66696462996447
 51
29.0697954142062009
  0
ARC
  5
161F0
  8
0
 10
3470.1311840397538617
 20
194.5077996063436956
 30
0.0
 40
0.0046271629534667
 50
29.0697954142019412
 51
91.7227949257114687
  0
LINE
  5
161F1
  8
0
 10
3470.1310449291290752
 20
194.5124246777195083
 30
0.0
 11
3470.0869330919290405
 21
194.4924489018193867
 31
0.0
  0
ARC
  5
161F2
  8
0
 10
3470.0966773799068505
 20
194.4709293143858133
 30
0.0
 40
0.0236209487298125
 50
114.3612172727168996
 51
195.9938795026334901
  0
LINE
  5
161F3
  8
0
 10
3470.0739707712968993
 20
194.4644209240829866
 30
0.0
 11
3470.0889331222228975
 21
194.412219960317401
 31
0.0
  0
LINE
  5
161F4
  8
0
 10
3470.0399322753028173
 20
194.4714491464904995
 30
0.0
 11
3470.0605786982309837
 21
194.3994334942526052
 31
0.0
  0
LINE
  5
161F5
  8
0
 10
3470.0984562950720829
 20
194.26707457794069
 30
0.0
 11
3470.13721743763017
 21
194.1318984095196072
 31
0.0
  0
LINE
  5
161F6
  8
0
 10
3470.1722026653987996
 20
194.1469662740263118
 30
0.0
 11
3470.1359769455498281
 21
194.131542704228508
 31
0.0
  0
ARC
  5
161F7
  8
0
 10
3470.1450608009608914
 20
194.1102072283578082
 30
0.0
 40
0.0231887679656734
 50
113.0625084330575021
 51
196.9468355217927069
  0
LINE
  5
161F8
  8
0
 10
3470.1228789905308076
 20
194.103448068219592
 30
0.0
 11
3470.1473492740310576
 21
194.0181100480195084
 31
0.0
  0
ARC
  5
161F9
  8
0
 10
3470.1700759921309327
 20
194.0245522940197134
 30
0.0
 40
0.0236220471999922
 50
196.0000000002229115
 51
278.0000000002510205
  0
LINE
  5
161FA
  8
0
 10
3470.173363545689881
 20
194.0011601349592922
 30
0.0
 11
3470.2063185685801727
 21
194.005791661383995
 31
0.0
  0
ARC
  5
161FB
  8
0
 10
3470.2034342552487942
 20
194.0105867391766026
 30
0.0
 40
0.0055957157212276
 50
301.0275582287467273
 51
357.0747116978106988
  0
ARC
  5
161FC
  8
0
 10
3469.5896503001999918
 20
194.0442873632894134
 30
0.0
 40
0.6203041233734502
 50
356.8592163214188986
 51
359.7329468318092154
  0
LINE
  5
161FD
  8
0
 10
3470.1704541320841599
 20
194.0009332736316026
 30
0.0
 11
3470.2193887446510416
 21
193.8302775877772035
 31
0.0
  0
LINE
  5
161FE
  8
0
 10
3470.2579369122559001
 20
193.6942618833157042
 30
0.0
 11
3470.3178981264882168
 21
193.4866393927509023
 31
0.0
  0
LINE
  5
161FF
  8
0
 10
3470.3549359446801645
 20
193.3575691483185039
 30
0.0
 11
3470.4125523441889527
 21
193.1558595128761056
 31
0.0
  0
LINE
  5
16200
  8
0
 10
3470.450368204570168
 20
193.0246791524957928
 30
0.0
 11
3470.5023529292238891
 21
192.8434651660168129
 31
0.0
  0
LINE
  5
16201
  8
0
 10
3470.5353409732351793
 20
192.8583489144211001
 30
0.0
 11
3470.5023529292238891
 21
192.8434651660168129
 31
0.0
  0
ARC
  5
16202
  8
0
 10
3470.5108193238538661
 20
192.8247004173059054
 30
0.0
 40
0.0205862971954535
 50
114.2842367270308017
 51
202.798155504822688
  0
LINE
  5
16203
  8
0
 10
3470.4918413182349468
 20
192.8167235172211065
 30
0.0
 11
3470.5161602235712053
 21
192.7319134155492861
 31
0.0
  0
ARC
  5
16204
  8
0
 10
3470.5390437081641721
 20
192.7378407403448932
 30
0.0
 40
0.0236386769159605
 50
194.5217138674991872
 51
270.9068225027090762
  0
LINE
  5
16205
  8
0
 10
3470.5394178227920747
 20
192.7142050240541096
 30
0.0
 11
3470.5872730631372178
 21
192.7207486468628019
 31
0.0
  0
ARC
  5
16206
  8
0
 10
3470.5780673943099828
 20
192.7287660441110972
 30
0.0
 40
0.0122074975806387
 50
318.9467553381504104
 51
24.9548296403818988
  0
ARC
  5
16207
  8
0
 10
3470.2504267933609299
 20
192.6672066599182074
 30
0.0
 40
0.3452152719320099
 50
11.1419906111988407
 51
33.4015190721974022
  0
ARC
  5
16208
  8
0
 10
3470.5359797148230427
 20
192.8548066695742023
 30
0.0
 40
0.0035993734691628
 50
42.722525887320387
 51
100.2217945906545964
  0
LINE
  5
16209
  8
0
 10
3470.5394032330350456
 20
192.714255904521309
 30
0.0
 11
3470.5787825027359759
 21
192.5769242348214902
 31
0.0
  0
LINE
  5
1620A
  8
0
 10
3470.603739552506795
 20
192.5882904785082133
 30
0.0
 11
3470.5787825027359759
 21
192.5769242348214902
 31
0.0
  0
ARC
  5
1620B
  8
0
 10
3470.5908200007738742
 20
192.5567557381677091
 30
0.0
 40
0.0234876481634366
 50
120.8307200207312064
 51
196.132826767480708
  0
LINE
  5
1620C
  8
0
 10
3470.568257293536135
 20
192.5502293411213088
 30
0.0
 11
3470.5920193915158052
 21
192.467361057545304
 31
0.0
  0
ARC
  5
1620D
  8
0
 10
3470.6163093180798569
 20
192.4720660720869034
 30
0.0
 40
0.0247414165787765
 50
190.9625623068808125
 51
226.5336918058993092
  0
ARC
  5
1620E
  8
0
 10
3470.6154494603520106
 20
192.4711589033441044
 30
0.0
 40
0.023491492404998
 50
226.5336918058993092
 51
281.4295844910025153
  0
LINE
  5
1620F
  8
0
 10
3470.6201046160940678
 20
192.448133271095486
 30
0.0
 11
3470.6667411234329848
 21
192.4546898088221099
 31
0.0
  0
ARC
  5
16210
  8
0
 10
3470.6665010826782236
 20
192.4558065686096029
 30
0.0
 40
0.0011422661628202
 50
282.1308103397794866
 51
330.4305580642766813
  0
ARC
  5
16211
  8
0
 10
3470.6525407994181478
 20
192.4593178781763072
 30
0.0
 40
0.015499066532141
 50
344.7566877846384727
 51
14.6413157205065794
  0
ARC
  5
16212
  8
0
 10
3470.2429880988561308
 20
192.3551309857541867
 30
0.0
 40
0.438095874101779
 50
14.2858693161588004
 51
24.8540848145408191
  0
LINE
  5
16213
  8
0
 10
3470.641246331937964
 20
192.3902347216790929
 30
0.0
 11
3470.6201046161158956
 21
192.4481332710990102
 31
0.0
  0
LINE
  5
16214
  8
0
 10
3470.6663541048969819
 20
192.4014134224900943
 30
0.0
 11
3470.6399903088990868
 21
192.3896755041731979
 31
0.0
  0
ARC
  5
16215
  8
0
 10
3470.6496281091181118
 20
192.3680286506171058
 30
0.0
 40
0.0236954312463012
 50
114.0000001531348062
 51
200.1846615889072893
  0
LINE
  5
16216
  8
0
 10
3470.6273879226541794
 20
192.3598526144164111
 30
0.0
 11
3470.6513823863929247
 21
192.2603376920621088
 31
0.0
  0
ARC
  5
16217
  8
0
 10
3470.6740893555920593
 20
192.2668488107615019
 30
0.0
 40
0.0236220472628135
 50
196.000000133642601
 51
277.9999997001457928
  0
LINE
  5
16218
  8
0
 10
3470.677376909036866
 20
192.2434566516218126
 30
0.0
 11
3470.6943343943507898
 21
192.2458398706718015
 31
0.0
  0
ARC
  5
16219
  8
0
 10
3470.6864578596378124
 20
192.2237147107217083
 30
0.0
 40
0.023622047199985
 50
124.231771723032395
 51
196.0000000002353886
  0
LINE
  5
1621A
  8
0
 10
3470.6637508904841525
 20
192.2172035920926021
 30
0.0
 11
3470.6743071716518898
 21
192.1803894646768072
 31
0.0
  0
LINE
  5
1621B
  8
0
 10
3470.7613660121560315
 20
192.0671888489289074
 30
0.0
 11
3470.7724576359801176
 21
192.0285079464667035
 31
0.0
  0
ARC
  5
1621C
  8
0
 10
3470.7951660802809783
 20
192.035019519511593
 30
0.0
 40
0.023623590457207
 50
196.000073261433414
 51
277.871698632793084
  0
LINE
  5
1621D
  8
0
 10
3470.7984014553749148
 20
192.0116185286333064
 30
0.0
 11
3470.8344367958547991
 21
192.0166007041187868
 31
0.0
  0
ARC
  5
1621E
  8
0
 10
3470.0375581963889999
 20
191.6615969922200975
 30
0.0
 40
0.8955076904469894
 50
25.2918767946538203
 51
33.2393195753699331
  0
ARC
  5
1621F
  8
0
 10
3470.7838332172809714
 20
192.1506774507799946
 30
0.0
 40
0.0032487023987422
 50
33.2393195753712902
 51
108.637798242134906
  0
LINE
  5
16220
  8
0
 10
3470.7827949823940799
 20
192.1537557840294141
 30
0.0
 11
3470.7578104519448061
 21
192.1415352876641975
 31
0.0
  0
LINE
  5
16221
  8
0
 10
3470.8193110351230644
 20
191.8651105389222096
 30
0.0
 11
3470.8258417685501627
 21
191.8423351649018116
 31
0.0
  0
ARC
  5
16222
  8
0
 10
3470.8561017968268061
 20
191.8510120884060939
 30
0.0
 40
0.0314794903526417
 50
196.0000000395737914
 51
265.2653062498467875
  0
LINE
  5
16223
  8
0
 10
3470.8535034174387874
 20
191.8196400190225006
 30
0.0
 11
3470.9070721790390053
 21
191.8271686174225863
 31
0.0
  0
LINE
  5
16224
  8
0
 10
3470.9070721790390053
 20
191.8271686174225863
 30
0.0
 11
3470.8824021553168677
 21
191.8744049331641861
 31
0.0
  0
LINE
  5
16225
  8
0
 10
3470.8689634064189704
 20
191.8725237729682931
 30
0.0
 11
3470.8925890372388494
 21
191.8758308960225065
 31
0.0
  0
ARC
  5
16226
  8
0
 10
3470.8915611493821416
 20
191.8765663119089027
 30
0.0
 40
0.001263878938507
 50
324.4176761324910103
 51
20.0089541819567103
  0
LINE
  5
16227
  8
0
 10
3470.8927487395249045
 20
191.8769987695663133
 30
0.0
 11
3470.8787687392350563
 21
191.9128759754565863
 31
0.0
  0
ARC
  5
16228
  8
0
 10
3470.9549211677490348
 20
191.6963388114226916
 30
0.0
 40
0.02128138083175
 50
144.9168748873333072
 51
193.3800439733693963
  0
LINE
  5
16229
  8
0
 10
3470.9342174372977752
 20
191.6914141068081108
 30
0.0
 11
3470.9597087271308737
 21
191.6023082017013905
 31
0.0
  0
ARC
  5
1622A
  8
0
 10
3470.9824466243539973
 20
191.6087309191109966
 30
0.0
 40
0.0236275954978673
 50
195.7732624472695022
 51
277.9715009616494967
  0
LINE
  5
1622B
  8
0
 10
3470.9857233116408679
 20
191.585331633022804
 30
0.0
 11
3471.041126802564122
 21
191.5930899857204963
 31
0.0
  0
LINE
  5
1622C
  8
0
 10
3471.041126802564122
 20
191.5930899857204963
 30
0.0
 11
3470.9794609326118007
 21
191.7058743982020985
 31
0.0
  0
LINE
  5
1622D
  8
0
 10
3471.0174152671279444
 20
191.5897695730199075
 30
0.0
 11
3471.1455984620961317
 21
191.3754515110119883
 31
0.0
  0
ARC
  5
1622E
  8
0
 10
3470.5959688779212229
 20
192.3373505753147867
 30
0.0
 40
0.095173903774526
 50
25.2380848281365395
 51
42.3077793074181798
  0
LINE
  5
1622F
  8
0
 10
3471.0382553819149507
 20
191.5926878902247097
 30
0.0
 11
3471.1734216772879336
 21
191.3832722641257078
 31
0.0
  0
LINE
  5
16230
  8
0
 10
3469.9643278837711478
 20
195.6257723846748888
 30
0.0
 11
3469.9531875079028396
 21
195.6635074598993072
 31
0.0
  0
ARC
  5
16231
  8
0
 10
3470.1011034632178962
 20
195.6899973620780031
 30
0.0
 40
0.1772152804786737
 50
54.8254294898720502
 51
88.3271704352158764
  0
ARC
  5
16232
  8
0
 10
3470.1122821767080495
 20
195.7032609723530925
 30
0.0
 40
0.1639861439114778
 50
92.0987213105390197
 51
194.02941177430111
  0
LINE
  5
16233
  8
0
 10
3470.2031917967169647
 20
195.8348532483879865
 30
0.0
 11
3470.5442740301691629
 21
195.9193391416773977
 31
0.0
  0
ARC
  5
16234
  8
0
 10
3470.5541842144648399
 20
195.8698167499491092
 30
0.0
 40
0.0505042476952422
 50
69.4214153103998655
 51
101.3162800224296944
  0
ARC
  5
16235
  8
0
 10
3470.6065971881398582
 20
196.0094176149758027
 30
0.0
 40
0.0986115506822524
 50
249.4214153103997944
 51
266.0863427138285147
  0
ARC
  5
16236
  8
0
 10
3470.6019254559068941
 20
195.9411300523755131
 30
0.0
 40
0.0301643718655757
 50
266.0863427138285147
 51
286.8395885547521971
  0
LINE
  5
16237
  8
0
 10
3470.6106638689698229
 20
195.9122591419775006
 30
0.0
 11
3470.6651633563778887
 21
195.927786359573588
 31
0.0
  0
ARC
  5
16238
  8
0
 10
3470.7406582396502017
 20
195.6627161441622036
 30
0.0
 40
0.2756275361170338
 50
35.7377746111583008
 51
89.9948428848940978
  0
ARC
  5
16239
  8
0
 10
3466.0811560944598568
 20
192.3101037881071136
 30
0.0
 40
6.0159210694887939
 50
19.0462097839693101
 51
35.7359194713243866
  0
ARC
  5
1623A
  8
0
 10
3465.421614046286777
 20
192.0824100879113985
 30
0.0
 40
6.7136603721063484
 50
357.1100961961226972
 51
19.0462097839693101
  0
ARC
  5
1623B
  8
0
 10
3471.8583924105309961
 20
191.7574740999064886
 30
0.0
 40
0.2686856548009739
 50
284.8616570382890245
 51
357.1100961961226972
  0
LINE
  5
1623C
  8
0
 10
3471.9273065264260367
 20
191.4977765340223073
 30
0.0
 11
3471.8728087444851553
 21
191.482249802395188
 31
0.0
  0
ARC
  5
1623D
  8
0
 10
3471.8876762542890901
 20
191.4384373841878073
 30
0.0
 40
0.0462663034720026
 50
108.744368666050093
 51
137.9722376240127915
  0
ARC
  5
1623E
  8
0
 10
3471.4464588246478343
 20
191.836098626018611
 30
0.0
 40
0.5477095238754847
 50
315.7559475160049942
 51
317.9722376240129051
  0
ARC
  5
1623F
  8
0
 10
3471.7984152311128128
 20
191.4933090720504936
 30
0.0
 40
0.056407182784177
 50
292.619553723607396
 51
315.7559475160049942
  0
LINE
  5
16240
  8
0
 10
3471.8201100185860923
 20
191.4412407854823073
 30
0.0
 11
3471.4857160265041784
 21
191.3332796153543995
 31
0.0
  0
ARC
  5
16241
  8
0
 10
3471.3402819814878058
 20
191.3853156243941953
 30
0.0
 40
0.154462965424685
 50
190.8310116859991012
 51
340.3128927315037799
  0
LINE
  5
16242
  8
0
 10
3470.2031917966519359
 20
195.8348532484382076
 30
0.0
 11
3471.4857160265041784
 21
191.3332796153543995
 31
0.0
  0
LINE
  5
16243
  8
0
 10
3470.5442740301691629
 20
195.9193391416773977
 30
0.0
 11
3471.8201100185860923
 21
191.4412407854823073
 31
0.0
  0
LINE
  5
16244
  8
0
 10
3471.8728087444851553
 20
191.482249802395188
 30
0.0
 11
3470.6106638689698229
 21
195.9122591419775006
 31
0.0
  0
LINE
  5
16245
  8
0
 10
3470.964384732137205
 20
195.8237037064951096
 30
0.0
 11
3472.1267363660567753
 21
191.7439277856917954
 31
0.0
  0
LINE
  5
16246
  8
0
 10
3471.7677397352749722
 20
194.2732830489821083
 30
0.0
 11
3472.0009598210758668
 21
194.2691022404827947
 31
0.0
  0
ARC
  5
16247
  8
0
 10
3471.9668937761189227
 20
192.7655341983316077
 30
0.0
 40
1.50395390647365
 50
0.3005156351165906
 51
88.7020828662729457
  0
ARC
  5
16248
  8
0
 10
3473.510236066978905
 20
192.0652039633586128
 30
0.0
 40
0.0394090895936604
 50
180.0554400374263082
 51
266.6172146169731718
  0
LINE
  5
16249
  8
0
 10
3473.5496558068339255
 20
192.0258636052886914
 30
0.0
 11
3472.5654038383340776
 21
192.0258620683100901
 31
0.0
  0
ARC
  5
1624A
  8
0
 10
3473.5490780333739167
 20
191.9274390758286017
 30
0.0
 40
0.0984262252736068
 50
297.1580513921512079
 51
89.6636651380777181
  0
ARC
  5
1624B
  8
0
 10
3473.6767574972000148
 20
191.6998086731501871
 30
0.0
 40
0.1626765241008805
 50
120.5771114995075948
 51
163.6184787360504913
  0
ARC
  5
1624C
  8
0
 10
3473.8266402239601121
 20
191.6412355114960064
 30
0.0
 40
0.3232942393384068
 50
161.1500980782477086
 51
181.863762336055288
  0
ARC
  5
1624D
  8
0
 10
3467.7581959653521153
 20
191.9761989704626046
 30
0.0
 40
4.8656272884970333
 50
351.9963651677484222
 51
355.9283564215875231
  0
ARC
  5
1624E
  8
0
 10
3472.3226146634738143
 20
191.6440335440942135
 30
0.0
 40
0.2892344995143188
 50
357.3619246664857201
 51
32.9210941176290532
  0
ARC
  5
1624F
  8
0
 10
3472.4611389541078097
 20
191.7263191370786046
 30
0.0
 40
0.1283840467896279
 50
35.6951703117567192
 51
62.179951317662443
  0
ARC
  5
16250
  8
0
 10
3472.5659803380349331
 20
191.9274385662214115
 30
0.0
 40
0.0984251904509498
 50
90.3355968981084061
 51
242.8424728651226019
  0
ARC
  5
16251
  8
0
 10
3478.2989483860328619
 20
191.9705915426646072
 30
0.0
 40
4.8074602496841399
 50
184.0539920465542991
 51
188.0100778844006015
  0
LINE
  5
16252
  8
0
 10
3472.5210552932321662
 20
191.8398642636850866
 30
0.0
 11
3473.594004351823969
 21
191.8398642636269074
 31
0.0
  0
LINE
  5
16253
  8
0
 10
3470.6268521653842072
 20
192.3614918433707999
 30
0.0
 11
3470.5979416599338947
 21
192.3548570331269048
 31
0.0
  0
ARC
  5
16254
  8
0
 10
3470.5935406436387893
 20
192.3740340104500888
 30
0.0
 40
0.0196755026286128
 50
204.3357983234388939
 51
282.9252691605365158
  0
ARC
  5
16255
  8
0
 10
3496.7040331485618481
 20
204.1830186334771895
 30
0.0
 40
28.6764362525202294
 50
204.2614053386143098
 51
204.3357983234388939
  0
LINE
  5
16256
  8
0
 10
3470.5602920741598609
 20
192.3998612136907127
 30
0.0
 11
3470.5411558378859809
 21
192.394415803607302
 31
0.0
  0
LINE
  5
16257
  8
0
 10
3470.54115846083414
 20
192.3944099564268129
 30
0.0
 11
3470.4532311192410816
 21
192.5930132293144936
 31
0.0
  0
LINE
  5
16258
  8
0
 10
3470.4933751866537932
 20
192.5023390086371933
 30
0.0
 11
3470.4666807585799688
 21
192.494733612471606
 31
0.0
  0
ARC
  5
16259
  8
0
 10
3470.4634445124220292
 20
192.5060926184243044
 30
0.0
 40
0.0118110247410975
 50
195.878154463675088
 51
285.9025575812427178
  0
LINE
  5
1625A
  8
0
 10
3470.452084129134164
 20
192.5028612105267882
 30
0.0
 11
3470.3604529441340674
 21
192.824480496126796
 31
0.0
  0
ARC
  5
1625B
  8
0
 10
3470.3718109744008871
 20
192.8277201640501914
 30
0.0
 40
0.0118110245020712
 50
105.902559382830205
 51
195.9198183200130927
  0
LINE
  5
1625C
  8
0
 10
3470.3685747279500902
 20
192.8390791696712938
 30
0.0
 11
3470.3843302092350314
 21
192.8435679969267937
 31
0.0
  0
LINE
  5
1625D
  8
0
 10
3470.3864678959339471
 20
192.8379263804268078
 30
0.0
 11
3470.3927206119351467
 21
192.7929073947267966
 31
0.0
  0
LINE
  5
1625E
  8
0
 10
3470.3927206119351467
 20
192.7929073947267966
 30
0.0
 11
3470.4102394085348351
 21
192.7540300547267975
 31
0.0
  0
LINE
  5
1625F
  8
0
 10
3470.4102394085348351
 20
192.7540300547267975
 30
0.0
 11
3470.428574757233946
 21
192.7592539010267956
 31
0.0
  0
ARC
  5
16260
  8
0
 10
3470.4920625172449036
 20
192.7788449817095113
 30
0.0
 40
0.0664417497770528
 50
193.4350641298111952
 51
197.1492024242647858
  0
ARC
  5
16261
  8
0
 10
3686.8103853226789397
 20
309.7930325065563011
 30
0.0
 40
246.0030742367698906
 50
208.4043122908836949
 51
208.4065155104281928
  0
ARC
  5
16262
  8
0
 10
3470.4064998307658243
 20
192.7707002325923895
 30
0.0
 40
0.0164712835370408
 50
355.716598199165901
 51
3.579000979880941
  0
ARC
  5
16263
  8
0
 10
3470.4190221915150687
 20
192.769760225313604
 30
0.0
 40
0.003913691648074
 50
333.9765706218454966
 51
355.7471730097859108
  0
ARC
  5
16264
  8
0
 10
3470.4215061143008825
 20
192.7685899344261031
 30
0.0
 40
0.0011687731192743
 50
308.3001466619941198
 51
332.105929888541084
  0
ARC
  5
16265
  8
0
 10
3470.4217643791471346
 20
192.7682812294872008
 30
0.0
 40
0.0007665256505626
 50
278.9973855371126206
 51
307.4517126767811988
  0
ARC
  5
16266
  8
0
 10
3470.4217260382388304
 20
192.7685233759750929
 30
0.0
 40
0.0010116887532851
 50
247.9012312222637036
 51
278.9973855369279931
  0
ARC
  5
16267
  8
0
 10
3470.4238737782170574
 20
192.7728849095146018
 30
0.0
 40
0.0058711886571351
 50
218.3134532209969905
 51
244.4921088472981126
  0
ARC
  5
16268
  8
0
 10
3470.5499281523248101
 20
192.8604101103634036
 30
0.0
 40
0.1593216867646878
 50
203.9020355522715136
 51
214.9043308459430079
  0
LINE
  5
16269
  8
0
 10
3470.4042699633341726
 20
192.7958570945268093
 30
0.0
 11
3470.410239085835201
 21
192.7540319597268024
 31
0.0
  0
LINE
  5
1626A
  8
0
 10
3470.3825413073268464
 20
192.74695182955071
 30
0.0
 11
3470.3478286937688608
 21
192.8302377626611985
 31
0.0
  0
LINE
  5
1626B
  8
0
 10
3470.361982651469134
 20
192.8342703066549859
 30
0.0
 11
3470.3201246705361882
 21
192.8223447270254098
 31
0.0
  0
LINE
  5
1626C
  8
0
 10
3470.3201246705361882
 20
192.8223447270254098
 30
0.0
 11
3470.1973418408338148
 21
193.2533041864267886
 31
0.0
  0
LINE
  5
1626D
  8
0
 10
3470.1973418408338148
 20
193.2533041864267886
 30
0.0
 11
3470.2107627065538509
 21
193.2571278682736136
 31
0.0
  0
LINE
  5
1626E
  8
0
 10
3470.0070667913819307
 20
194.5056137696871019
 30
0.0
 11
3469.9871242680251271
 21
194.4987849232628037
 31
0.0
  0
ARC
  5
1626F
  8
0
 10
3469.9935014265070095
 20
194.4801614802813958
 30
0.0
 40
0.0196850394666558
 50
108.9025575771773049
 51
187.4466050495641127
  0
LINE
  5
16270
  8
0
 10
3469.9739824092757772
 20
194.477610256043107
 30
0.0
 11
3469.9788079592831309
 21
194.440690728422112
 31
0.0
  0
LINE
  5
16271
  8
0
 10
3469.9788079592831309
 20
194.440690728422112
 30
0.0
 11
3469.9597138093317881
 21
194.4352381473246965
 31
0.0
  0
LINE
  5
16272
  8
0
 10
3469.9597138093317881
 20
194.4352381473246965
 30
0.0
 11
3469.9762892946350803
 21
194.3184244115269053
 31
0.0
  0
LINE
  5
16273
  8
0
 10
3469.9762892946350803
 20
194.3184244115269053
 30
0.0
 11
3469.9492921494920665
 21
194.3107327695832112
 31
0.0
  0
ARC
  5
16274
  8
0
 10
3469.9524090315471767
 20
194.2994401947804874
 30
0.0
 40
0.0117148281854566
 50
105.4301245888328964
 51
196.3749905362504933
  0
LINE
  5
16275
  8
0
 10
3469.9411704237340928
 20
194.2961338923267931
 30
0.0
 11
3470.0328028323338003
 21
193.974510312126796
 31
0.0
  0
ARC
  5
16276
  8
0
 10
3470.0441621779841626
 20
193.9777466550634983
 30
0.0
 40
0.0118113779552231
 50
195.9025575621853932
 51
285.9008384656156068
  0
LINE
  5
16277
  8
0
 10
3470.0473981800960246
 20
193.9663872123155954
 30
0.0
 11
3470.0631549397198796
 21
193.9708758926614962
 31
0.0
  0
LINE
  5
16278
  8
0
 10
3470.0392965690348319
 20
193.9670097593267997
 30
0.0
 11
3469.9974036428338877
 21
193.9550737899267858
 31
0.0
  0
LINE
  5
16279
  8
0
 10
3469.9974036428338877
 20
193.9550737899267858
 30
0.0
 11
3470.1201863593719281
 21
193.5241147319225092
 31
0.0
  0
LINE
  5
1627A
  8
0
 10
3470.1201863593719281
 20
193.5241147319225092
 30
0.0
 11
3470.1345977154342108
 21
193.5282206102268105
 31
0.0
  0
LINE
  5
1627B
  8
0
 10
3469.9736712726339647
 20
194.3561019648269053
 30
0.0
 11
3470.0575466524342119
 21
194.0617049849269051
 31
0.0
  0
LINE
  5
1627C
  8
0
 10
3470.0575466524342119
 20
194.0617049849269051
 30
0.0
 11
3470.0581077209340037
 21
194.0522610777267971
 31
0.0
  0
ARC
  5
1627D
  8
0
 10
3470.042137912328144
 20
194.0436224260031111
 30
0.0
 40
0.0181565715521115
 50
28.4105716563423201
 51
34.284157309172123
  0
ARC
  5
1627E
  8
0
 10
3470.0535698119329027
 20
194.051597795118397
 30
0.0
 40
0.0042210818055957
 50
32.2460460207696187
 51
59.9666634112621182
  0
ARC
  5
1627F
  8
0
 10
3470.0553003723230177
 20
194.0545911901023999
 30
0.0
 40
0.0007634449259989
 50
59.9666634115384909
 51
131.7387833815564875
  0
ARC
  5
16280
  8
0
 10
3470.0579688147140587
 20
194.0523612185936031
 30
0.0
 40
0.0042343123249719
 50
138.610033383398104
 51
172.8916941488145085
  0
ARC
  5
16281
  8
0
 10
3470.1028664902651144
 20
194.0455229841062987
 30
0.0
 40
0.0496483378443791
 50
171.4723221865081939
 51
182.58196635948741
  0
ARC
  5
16282
  8
0
 10
3470.3112697840369947
 20
194.052938586820801
 30
0.0
 40
0.2581817163879527
 50
182.1425165450355053
 51
186.9010650192859941
  0
LINE
  5
16283
  8
0
 10
3470.0549583701349547
 20
194.0219170227267966
 30
0.0
 11
3470.0379854651278038
 21
194.0606132680821077
 31
0.0
  0
LINE
  5
16284
  8
0
 10
3470.0379854651278038
 20
194.0606132680821077
 30
0.0
 11
3470.0563166038341478
 21
194.0658363873268115
 31
0.0
  0
LINE
  5
16285
  8
0
 10
3470.0379853977351559
 20
194.0606137212267868
 30
0.0
 11
3470.0435851374340928
 21
194.0183441588268067
 31
0.0
  0
LINE
  5
16286
  8
0
 10
3470.0435851374340928
 20
194.0183441588268067
 30
0.0
 11
3470.0620017309338436
 21
193.9767820642267964
 31
0.0
  0
ARC
  5
16287
  8
0
 10
3470.8943313824711367
 20
194.1362328150154895
 30
0.0
 40
0.8474651560705598
 50
190.8448524673578959
 51
191.2517007296144129
  0
ARC
  5
16288
  8
0
 10
3470.6199494135698842
 20
194.0816463811449921
 30
0.0
 40
0.5677060746796002
 50
191.2517007296144129
 51
194.7470734980981035
  0
ARC
  5
16289
  8
0
 10
3470.223379610282791
 20
193.9772599245652884
 30
0.0
 40
0.1576278611687365
 50
194.7470734980981035
 51
205.6903058898988093
  0
LINE
  5
1628A
  8
0
 10
3470.0813332031348182
 20
193.9089272030267921
 30
0.0
 11
3470.1055995999258812
 21
193.8026790899571949
 31
0.0
  0
LINE
  5
1628B
  8
0
 10
3470.1294110390340393
 20
193.8094631059267954
 30
0.0
 11
3470.0949074608352021
 21
193.7996328380268096
 31
0.0
  0
ARC
  5
1628C
  8
0
 10
3470.0981437071068285
 20
193.788273831590601
 30
0.0
 40
0.0118110252373161
 50
105.9025574692440017
 51
195.9327450012256122
  0
LINE
  5
1628D
  8
0
 10
3470.0867864073347846
 20
193.7850316010267875
 30
0.0
 11
3470.1515091378341822
 21
193.5578591778267992
 31
0.0
  0
ARC
  5
1628E
  8
0
 10
3470.1630223512888733
 20
193.5613699105549017
 30
0.0
 40
0.0120365829179381
 50
196.9580753791069014
 51
284.8385259685238111
  0
LINE
  5
1628F
  8
0
 10
3470.1661048695850695
 20
193.5497347307411928
 30
0.0
 11
3470.1763891378318476
 21
193.5526577915360917
 31
0.0
  0
LINE
  5
16290
  8
0
 10
3470.1110597995671014
 20
193.8042347322426906
 30
0.0
 11
3470.0852662016350223
 21
193.9155377456272049
 31
0.0
  0
ARC
  5
16291
  8
0
 10
3469.9142914903000019
 20
193.9168663757994864
 30
0.0
 40
0.1709798735953381
 50
359.5547682546437045
 51
7.2967337043635832
  0
ARC
  5
16292
  8
0
 10
3469.2152233980978053
 20
193.8273541937215043
 30
0.0
 40
0.8757554607682434
 50
7.2967337043619658
 51
9.4388472848082081
  0
ARC
  5
16293
  8
0
 10
3469.6242467370198028
 20
193.895352524004295
 30
0.0
 40
0.4611184331111977
 50
9.4388472848082081
 51
12.3843151938165992
  0
LINE
  5
16294
  8
0
 10
3470.0746354172351857
 20
193.9942476507268054
 30
0.0
 11
3470.0740812590552196
 21
194.0035751478305883
 31
0.0
  0
LINE
  5
16295
  8
0
 10
3470.0740732594349538
 20
194.0036949838269038
 30
0.0
 11
3470.0766048898271947
 21
193.994809131724594
 31
0.0
  0
LINE
  5
16296
  8
0
 10
3470.0766048898271947
 20
193.994809131724594
 30
0.0
 11
3470.0981444220351477
 21
193.9192068247268139
 31
0.0
  0
LINE
  5
16297
  8
0
 10
3470.0981444220351477
 20
193.9192068247268139
 30
0.0
 11
3470.1946667655251986
 21
193.5804199027265895
 31
0.0
  0
LINE
  5
16298
  8
0
 10
3470.1946667655251986
 20
193.5804199027265895
 30
0.0
 11
3470.2317060015348034
 21
193.4504171044268048
 31
0.0
  0
LINE
  5
16299
  8
0
 10
3470.2317060015348034
 20
193.4504171044268048
 30
0.0
 11
3470.2297363262341605
 21
193.4498559326268037
 31
0.0
  0
ARC
  5
1629A
  8
0
 10
3469.9671244328301327
 20
193.3515110032533926
 30
0.0
 40
0.2804224165273216
 50
20.5303081126090703
 51
23.1033707153092287
  0
ARC
  5
1629B
  8
0
 10
3470.1298218825018012
 20
193.4226282137753117
 30
0.0
 40
0.1028798081874537
 50
22.2276110781613205
 51
32.1705513978161619
  0
ARC
  5
1629C
  8
0
 10
3470.2043536920009501
 20
193.4695099175515054
 30
0.0
 40
0.0148293409758516
 50
32.170551397796757
 51
50.6655110589838031
  0
ARC
  5
1629D
  8
0
 10
3470.2120483141748082
 20
193.4788993717270955
 30
0.0
 40
0.0026897750810078
 50
50.6655110589533209
 51
96.6260085170202956
  0
ARC
  5
1629E
  8
0
 10
3470.2124112992460141
 20
193.4796913479083003
 30
0.0
 40
0.0019967910696562
 50
109.7074431455338015
 51
149.0101360822183949
  0
ARC
  5
1629F
  8
0
 10
3470.2168514296099602
 20
193.4771415319532935
 30
0.0
 40
0.0071167027494567
 50
149.8177611965915901
 51
170.4782312821139101
  0
LINE
  5
162A0
  8
0
 10
3470.2117379462351892
 20
193.4815711804268972
 30
0.0
 11
3470.2219966250918333
 21
193.4844939370609893
 31
0.0
  0
LINE
  5
162A1
  8
0
 10
3470.2098329548339279
 20
193.4783180608268083
 30
0.0
 11
3470.1762872936328677
 21
193.5751832908663914
 31
0.0
  0
LINE
  5
162A2
  8
0
 10
3470.1762872936328677
 20
193.5751832908663914
 30
0.0
 11
3470.1946668167970529
 21
193.5804197227697045
 31
0.0
  0
ARC
  5
162A3
  8
0
 10
3470.1030615815211604
 20
193.5686757700308931
 30
0.0
 40
0.0735143029742868
 50
349.7886529636709838
 51
5.078496669500657
  0
LINE
  5
162A4
  8
0
 10
3470.175411456034908
 20
193.5556431801267934
 30
0.0
 11
3470.2116169862338211
 21
193.4516405762267937
 31
0.0
  0
ARC
  5
162A5
  8
0
 10
3470.6552015194329215
 20
193.5301374660610918
 30
0.0
 40
0.4504764142619483
 50
190.0351932641814017
 51
201.7701229676457046
  0
LINE
  5
162A6
  8
0
 10
3470.2368533752342046
 20
193.3630631411267871
 30
0.0
 11
3470.2608913963349551
 21
193.2556176939268084
 31
0.0
  0
ARC
  5
162A7
  8
0
 10
3470.2123869692818516
 20
193.2105934140209058
 30
0.0
 40
0.0661791552977666
 50
25.8648785031698694
 51
42.8654869934921905
  0
LINE
  5
162A8
  8
0
 10
3470.2719366517339949
 20
193.2394640897267948
 30
0.0
 11
3470.2903152281269286
 21
193.2447002518561874
 31
0.0
  0
LINE
  5
162A9
  8
0
 10
3469.9762892946350803
 20
194.3184244115269053
 30
0.0
 11
3469.9896585025121567
 21
194.2201218795898114
 31
0.0
  0
LINE
  5
162AA
  8
0
 10
3470.0107040183352183
 20
194.2261154932268994
 30
0.0
 11
3469.9762007714462015
 21
194.2162853196701917
 31
0.0
  0
ARC
  5
162AB
  8
0
 10
3469.9797647608179432
 20
194.2042684310995924
 30
0.0
 40
0.0125342582621562
 50
106.5193932965386949
 51
178.278755654361305
  0
LINE
  5
162AC
  8
0
 10
3469.9788079592831309
 20
194.440690728422112
 30
0.0
 11
3470.560292207133898
 21
192.3998612515296998
 31
0.0
  0
LINE
  5
162AD
  8
0
 10
3470.260208824115125
 20
193.2586686637652917
 30
0.0
 11
3470.24987044624595
 21
193.255723200422608
 31
0.0
  0
ARC
  5
162AE
  8
0
 10
3470.2531066930009729
 20
193.2443641923684936
 30
0.0
 40
0.0118110269255277
 50
105.902557569159697
 51
195.8599145111097926
  0
LINE
  5
162AF
  8
0
 10
3470.2417452794788915
 20
193.2411364005841961
 30
0.0
 11
3470.3064687171340665
 21
193.0139614954267984
 31
0.0
  0
ARC
  5
162B0
  8
0
 10
3470.3178292016841624
 20
193.0171925512840119
 30
0.0
 40
0.0118110258291174
 50
195.8763774650610117
 51
285.9025528649154921
  0
LINE
  5
162B1
  8
0
 10
3470.321065447205001
 20
193.0058335440184862
 30
0.0
 11
3470.3555648755300354
 21
193.0156626296968057
 31
0.0
  0
LINE
  5
162B2
  8
0
 10
3470.54115846083414
 20
192.3944099564268129
 30
0.0
 11
3469.9597129567350748
 21
194.4352444994268012
 31
0.0
  0
LINE
  5
162B3
  8
0
 10
3470.5113114487348867
 20
192.4690211716267925
 30
0.0
 11
3470.4834262270351246
 21
192.566892385326895
 31
0.0
  0
LINE
  5
162B4
  8
0
 10
3470.4834262270351246
 20
192.566892385326895
 30
0.0
 11
3470.4286178286838549
 21
192.7592661723303138
 31
0.0
  0
LINE
  5
162B5
  8
0
 10
3470.4742753818341043
 20
192.5990112354267865
 30
0.0
 11
3470.4532311192419911
 21
192.5930132293132999
 31
0.0
  0
LINE
  5
162B6
  8
0
 10
3470.4532311192419911
 20
192.5930132293132999
 30
0.0
 11
3470.4397727623509127
 21
192.5891788659909878
 31
0.0
  0
ARC
  5
162B7
  8
0
 10
3470.4364778191920777
 20
192.6007438944548085
 30
0.0
 40
0.0120252456850814
 50
206.7335855431614959
 51
285.9025575843867841
  0
LINE
  5
162B8
  8
0
 10
3470.5113105039349648
 20
192.4690204523269017
 30
0.0
 11
3470.5054645708341923
 21
192.4820686892267929
 31
0.0
  0
ARC
  5
162B9
  8
0
 10
3469.3632699133909227
 20
192.0225247646116031
 30
0.0
 40
1.2311739136062501
 50
21.9166311508991996
 51
22.5453593543540904
  0
ARC
  5
162BA
  8
0
 10
3468.5005368316687964
 20
191.6643685745686128
 30
0.0
 40
2.1652960826836281
 50
22.5453593543540904
 51
23.1318744082658299
  0
ARC
  5
162BB
  8
0
 10
3468.1359656316849396
 20
191.5086260082705962
 30
0.0
 40
2.5617401604746912
 50
23.1318744082658299
 51
24.0820547080291298
  0
ARC
  5
162BC
  8
0
 10
3468.9796546359648346
 20
191.8857092603849992
 30
0.0
 40
1.63761737914717
 50
24.0820547080291298
 51
24.4387127266941597
  0
LINE
  5
162BD
  8
0
 10
3470.4705485936351579
 20
192.5632237528269002
 30
0.0
 11
3470.4586066655438117
 21
192.5944850288950079
 31
0.0
  0
LINE
  5
162BE
  8
0
 10
3470.4705486898760682
 20
192.5632235008893076
 30
0.0
 11
3470.4834267165688289
 21
192.5668906671658078
 31
0.0
  0
LINE
  5
162BF
  8
0
 10
3470.3131885936381877
 20
193.0063491237276878
 30
0.0
 11
3470.3348557064541637
 21
192.9386687631024131
 31
0.0
  0
LINE
  5
162C0
  8
0
 10
3470.3348557064541637
 20
192.9386687631024131
 30
0.0
 11
3470.2905774692349041
 21
192.926053412926791
 31
0.0
  0
LINE
  5
162C1
  8
0
 10
3470.3314890536871644
 20
192.9377163242540121
 30
0.0
 11
3470.3698821450138894
 21
192.8394123800744069
 31
0.0
  0
ARC
  5
162C2
  8
0
 10
3470.4141127302050336
 20
192.8029725456341055
 30
0.0
 40
0.0072368342289386
 50
214.229298709753806
 51
233.2038652620803134
  0
ARC
  5
162C3
  8
0
 10
3470.4720262923819973
 20
192.8423738691853941
 30
0.0
 40
0.0772828546842864
 50
206.0750419028861984
 51
214.229298709753806
  0
ARC
  5
162C4
  8
0
 10
3470.714258231398162
 20
192.9609112594299063
 30
0.0
 40
0.3469630822970884
 50
203.1391359357288025
 51
206.0750419028848057
  0
ARC
  5
162C5
  8
0
 10
3470.6981838119640997
 20
192.954041957521099
 30
0.0
 40
0.3294823995633448
 50
200.5906172081639909
 51
203.1391359357288025
  0
ARC
  5
162C6
  8
0
 10
3470.7587433851540482
 20
192.9767934868775967
 30
0.0
 40
0.394174701987928
 50
196.8220141673712931
 51
200.5906172081639909
  0
ARC
  5
162C7
  8
0
 10
3470.4634612439358534
 20
192.8875187429729863
 30
0.0
 40
0.0856920885044791
 50
189.1685751752889928
 51
196.8220141673729131
  0
ARC
  5
162C8
  8
0
 10
3470.3933136645300692
 20
192.8761967936227109
 30
0.0
 40
0.0146366915689214
 50
177.5525668571710867
 51
189.1685751752841043
  0
ARC
  5
162C9
  8
0
 10
3470.3817105970520061
 20
192.8766927292153071
 30
0.0
 40
0.0030230303457583
 50
159.8747896527399064
 51
177.552566857154801
  0
ARC
  5
162CA
  8
0
 10
3470.3796931750321164
 20
192.8774320075461901
 30
0.0
 40
0.0008744205491499
 50
127.0808966901046944
 51
159.8747896528923889
  0
ARC
  5
162CB
  8
0
 10
3470.3794494315729935
 20
192.8777545176172055
 30
0.0
 40
0.0004701636759252
 50
74.3239015132853496
 51
127.0808966895500021
  0
ARC
  5
162CC
  8
0
 10
3470.3790325355362256
 20
192.8762689841456961
 30
0.0
 40
0.0020130868758292
 50
53.6373466310372891
 51
74.3239015133126344
  0
ARC
  5
162CD
  8
0
 10
3470.3761738399362002
 20
192.8723862476344948
 30
0.0
 40
0.0068346823949209
 50
28.5873431129220386
 51
53.6373466310640623
  0
ARC
  5
162CE
  8
0
 10
3470.2887302869012274
 20
192.8161720201181879
 30
0.0
 40
0.1107717862898053
 50
23.9323095702700002
 51
32.4797461667593765
  0
ARC
  5
162CF
  8
0
 10
3470.0542554122789625
 20
192.70748910724231
 30
0.0
 40
0.3691999052501288
 50
20.1064921027596384
 51
24.5876165248340008
  0
ARC
  5
162D0
  8
0
 10
3469.99622492264416
 20
192.6880701711606889
 30
0.0
 40
0.430372727345977
 50
16.8000975583623386
 51
19.8783775261096096
  0
ARC
  5
162D1
  8
0
 10
3470.3112131787888757
 20
192.7837724521725988
 30
0.0
 40
0.1011689617627704
 50
10.3341443405616502
 51
16.4741813888804316
  0
ARC
  5
162D2
  8
0
 10
3470.3958926907707792
 20
192.7990151389278992
 30
0.0
 40
0.0151299897815172
 50
355.8294618280680766
 51
11.0730156661998898
  0
ARC
  5
162D3
  8
0
 10
3470.4096662602592005
 20
192.7980127581691079
 30
0.0
 40
0.0013199955914962
 50
316.5034039734165958
 51
355.7443263159833009
  0
ARC
  5
162D4
  8
0
 10
3470.4102498026209105
 20
192.7977045160291141
 30
0.0
 40
0.0007072971215933
 50
228.1696247349503039
 51
301.9228722265499982
  0
LINE
  5
162D5
  8
0
 10
3470.3864678959339471
 20
192.8379263804268078
 30
0.0
 11
3470.3843302092350314
 21
192.8435679969267937
 31
0.0
  0
ARC
  5
162D6
  8
0
 10
3470.8529102772740771
 20
193.0211194805019943
 30
0.0
 40
0.5010906200315438
 50
198.1028186070533934
 51
200.7523926246514065
  0
ARC
  5
162D7
  8
0
 10
3470.7036159347258035
 20
192.9723144385426963
 30
0.0
 40
0.3440214224221359
 50
192.490371143050595
 51
198.1028186070533934
  0
ARC
  5
162D8
  8
0
 10
3470.3950290498751201
 20
192.9039567796565109
 30
0.0
 40
0.0279539691303519
 50
176.2593443877721029
 51
192.490371143050595
  0
LINE
  5
162D9
  8
0
 10
3470.367134634534068
 20
192.905780507426897
 30
0.0
 11
3470.3317556714350758
 21
193.0088803479268051
 31
0.0
  0
LINE
  5
162DA
  8
0
 10
3470.3372171297378372
 20
193.0104352513270953
 30
0.0
 11
3470.3739617699338851
 21
192.9022358771267989
 31
0.0
  0
ARC
  5
162DB
  8
0
 10
3469.9839795369812236
 20
192.6841736801727052
 30
0.0
 40
0.4468078600021978
 50
19.0134621194099402
 51
29.2121445810490705
  0
LINE
  5
162DC
  8
0
 10
3470.4064097121340637
 20
192.829741805526794
 30
0.0
 11
3470.4109112246351287
 21
192.8214164296267938
 31
0.0
  0
LINE
  5
162DD
  8
0
 10
3470.4109112246351287
 20
192.8214164296267938
 30
0.0
 11
3470.4083811542600415
 21
192.8303030839489907
 31
0.0
  0
LINE
  5
162DE
  8
0
 10
3470.4083811542600415
 20
192.8303030839489907
 30
0.0
 11
3470.3555706816200654
 21
193.0156642838852861
 31
0.0
  0
LINE
  5
162DF
  8
0
 10
3470.3555706816200654
 20
193.0156642838852861
 30
0.0
 11
3470.2903152281269286
 21
193.2447002518561874
 31
0.0
  0
LINE
  5
162E0
  8
0
 10
3470.2903152281269286
 20
193.2447002518561874
 30
0.0
 11
3470.2532809738340802
 21
193.3746904053267883
 31
0.0
  0
LINE
  5
162E1
  8
0
 10
3470.2532809738340802
 20
193.3746904053267883
 30
0.0
 11
3470.2513119809741511
 21
193.3741278672129909
 31
0.0
  0
ARC
  5
162E2
  8
0
 10
3469.9360435808807779
 20
193.3116862925724888
 30
0.0
 40
0.3213924615498789
 50
10.3461540938757199
 51
11.2029292841244192
  0
ARC
  5
162E3
  8
0
 10
3470.0401048092257952
 20
193.3300075422214093
 30
0.0
 40
0.215733824166575
 50
6.8268882605570589
 51
10.5228983809076304
  0
ARC
  5
162E4
  8
0
 10
3470.1827177334498629
 20
193.3460270969711132
 30
0.0
 40
0.0722353855207021
 50
358.198551753247898
 51
7.656915777491859
  0
ARC
  5
162E5
  8
0
 10
3470.2411269344879656
 20
193.3438976268107012
 30
0.0
 40
0.0137912074166937
 50
339.0719524056423779
 51
359.4128607718919284
  0
ARC
  5
162E6
  8
0
 10
3470.2513191640500736
 20
193.3402046727632921
 30
0.0
 40
0.0029584468662905
 50
311.1745775819248934
 51
335.3647344134654986
  0
ARC
  5
162E7
  8
0
 10
3470.2523768556061441
 20
193.3389953992210906
 30
0.0
 40
0.0013518809863128
 50
285.7454699882140972
 51
311.1745775820255062
  0
ARC
  5
162E8
  8
0
 10
3470.2523050504310049
 20
193.3392500782385071
 30
0.0
 40
0.0016164889698829
 50
248.5048522147214101
 51
285.7454699879716031
  0
ARC
  5
162E9
  8
0
 10
3470.2536048189531357
 20
193.3425505525067933
 30
0.0
 40
0.0051636749822734
 50
234.0805456267906948
 51
248.5048522146917946
  0
ARC
  5
162EA
  8
0
 10
3470.2546383531598622
 20
193.3439773038543876
 30
0.0
 40
0.0069254389746868
 50
220.8181612034287014
 51
234.0805456267906948
  0
LINE
  5
162EB
  8
0
 10
3470.2493972647348528
 20
193.3394504178268107
 30
0.0
 11
3470.2719366517339949
 21
193.2394640897267948
 31
0.0
  0
LINE
  5
162EC
  8
0
 10
3470.2629890746347883
 20
193.3406132092268024
 30
0.0
 11
3470.2527508371072145
 21
193.3376962764253051
 31
0.0
  0
LINE
  5
162ED
  8
0
 10
3470.1151182671837887
 20
193.5965949054709085
 30
0.0
 11
3470.2312355877729715
 21
193.1890312608587976
 31
0.0
  0
LINE
  5
162EE
  8
0
 10
3470.2168220123348874
 20
193.1849300972268964
 30
0.0
 11
3470.2546855349619364
 21
193.1957169759162127
 31
0.0
  0
LINE
  5
162EF
  8
0
 10
3470.1515685147019212
 20
193.4686570952453906
 30
0.0
 11
3470.1371891272351604
 21
193.4644361582267891
 31
0.0
  0
LINE
  5
162F0
  8
0
 10
3470.1371891272351604
 20
193.4644361582267891
 30
0.0
 11
3470.1803390719342133
 21
193.3129827598268093
 31
0.0
  0
LINE
  5
162F1
  8
0
 10
3470.1803390719342133
 20
193.3129827598268093
 30
0.0
 11
3470.1947512104479756
 21
193.3170888643097953
 31
0.0
  0
LINE
  5
162F2
  8
0
 10
3470.0575562422282019
 20
193.743942219224806
 30
0.0
 11
3470.0954195918338883
 21
193.7547297054267972
 31
0.0
  0
LINE
  5
162F3
  8
0
 10
3470.0912301676348761
 20
193.7694343018268057
 30
0.0
 11
3470.070262184673993
 21
193.7634604027973921
 31
0.0
  0
LINE
  5
162F4
  8
0
 10
3470.070262184673993
 20
193.7634604027973921
 30
0.0
 11
3470.0728007292041184
 21
193.7482854612946142
 31
0.0
  0
LINE
  5
162F5
  8
0
 10
3470.0884851054352112
 20
193.7950432931268097
 30
0.0
 11
3470.0712292925882139
 21
193.8639804764204086
 31
0.0
  0
LINE
  5
162F6
  8
0
 10
3470.0712292925882139
 20
193.8639804764204086
 30
0.0
 11
3470.0269508442352162
 21
193.8513651040267973
 31
0.0
  0
LINE
  5
162F7
  8
0
 10
3470.0678659244467781
 20
193.8630155136752933
 30
0.0
 11
3470.0486920159992223
 21
193.9667557916384055
 31
0.0
  0
LINE
  5
162F8
  8
0
 10
3470.0633701708948138
 20
193.8873397522320943
 30
0.0
 11
3470.039982678351862
 21
193.8807129380977017
 31
0.0
  0
LINE
  5
162F9
  8
0
 10
3470.039982678351862
 20
193.8807129380977017
 30
0.0
 11
3470.0439587306650537
 21
193.856211182375489
 31
0.0
  0
LINE
  5
162FA
  8
0
 10
3470.0251397139340952
 20
193.9627556765267968
 30
0.0
 11
3470.0113835079250748
 21
194.049677867822993
 31
0.0
  0
LINE
  5
162FB
  8
0
 10
3470.2978353065409465
 20
193.0442641849284939
 30
0.0
 11
3470.2599719569761874
 21
193.0334766987683963
 31
0.0
  0
LINE
  5
162FC
  8
0
 10
3470.2752164460048334
 20
193.0378199414109019
 30
0.0
 11
3470.2810566304660824
 21
193.0235854830727931
 31
0.0
  0
LINE
  5
162FD
  8
0
 10
3470.2810566304660824
 20
193.0235854830727931
 30
0.0
 11
3470.3020248502930372
 21
193.0295591686150942
 31
0.0
  0
LINE
  5
162FE
  8
0
 10
3470.3075854726412217
 20
192.9308990909819954
 30
0.0
 11
3470.3171199142348087
 21
192.9079805971267945
 31
0.0
  0
LINE
  5
162FF
  8
0
 10
3470.3171199142348087
 20
192.9079805971267945
 30
0.0
 11
3470.3404949487298836
 21
192.9146570973705082
 31
0.0
  0
LINE
  5
16300
  8
0
 10
3470.2856600969348619
 20
193.0869983502267928
 30
0.0
 11
3470.2754752096348057
 21
193.0840966172268907
 31
0.0
  0
LINE
  5
16301
  8
0
 10
3470.2754752096348057
 20
193.0840966172268907
 30
0.0
 11
3470.2596878930339699
 21
193.1308488192267987
 31
0.0
  0
ARC
  5
16302
  8
0
 10
3470.2863353197499237
 20
193.1275996008291997
 30
0.0
 40
0.0268447903839935
 50
131.9173520212430049
 51
173.0480336040419047
  0
LINE
  5
16303
  8
0
 10
3470.1151182671837887
 20
193.5965949054709085
 30
0.0
 11
3470.1385695364051571
 21
193.6032763070084002
 31
0.0
  0
LINE
  5
16304
  8
0
 10
3473.4708269958359779
 20
192.7734223812832113
 30
0.0
 11
3473.4708269958318851
 21
192.0651658325267874
 31
0.0
  0
ARC
  5
16305
  8
0
 10
3472.6048251883257763
 20
192.0652032596973129
 30
0.0
 40
0.0394074787815088
 50
273.3253547421344933
 51
359.9455834452418799
  0
LINE
  5
16306
  8
0
 10
3472.6442326493338442
 20
192.0651658325267874
 30
0.0
 11
3472.6442326493338442
 21
192.7734223813268102
 31
0.0
  0
ARC
  5
16307
  8
0
 10
3471.9717241113398813
 20
192.7724488416938016
 30
0.0
 40
0.6725092426538777
 50
0.0829426989366631
 51
28.02008076721064
  0
ARC
  5
16308
  8
0
 10
3471.9760647076632267
 20
192.774758729420995
 30
0.0
 40
0.6675922966753399
 50
28.02008076721064
 51
88.2753044875695139
  0
ARC
  5
16309
  8
0
 10
3493.3409674959880249
 20
188.8071899438596972
 30
0.0
 40
20.9134849503837188
 50
173.1577863372083925
 51
178.0317698427309949
  0
ARC
  5
1630A
  8
0
 10
3484.9434468254530657
 20
189.095775911631506
 30
0.0
 40
12.5110070258153794
 50
178.0317698427309949
 51
185.6736299686835139
  0
ARC
  5
1630B
  8
0
 10
3289.2117899175877938
 20
169.6501369007561948
 30
0.0
 40
184.1842252306869909
 50
5.443443009165934
 51
5.6736299686835316
  0
ARC
  5
1630C
  8
0
 10
3464.4969284651901944
 20
186.0295597906905982
 30
0.0
 40
8.1421535165544743
 50
4.7137615146214813
 51
7.7137464899516441
  0
ARC
  5
1630D
  8
0
 10
3471.7869824370500282
 20
186.6542370651183944
 30
0.0
 40
0.8257561812611978
 50
356.2453852210139189
 51
3.0841392675715129
  0
ARC
  5
1630E
  8
0
 10
3472.4091570606979076
 20
186.6126525966814995
 30
0.0
 40
0.2021952664963757
 50
338.4312544661875108
 51
356.4587741204476856
  0
ARC
  5
1630F
  8
0
 10
3472.5236898295038372
 20
186.5696276541980865
 30
0.0
 40
0.0798930886976337
 50
319.0909644579041924
 51
336.9307827379042237
  0
ARC
  5
16310
  8
0
 10
3472.5445443535618324
 20
186.5519416089395008
 30
0.0
 40
0.0525511974372334
 50
293.3867991704955784
 51
318.7741681973128038
  0
ARC
  5
16311
  8
0
 10
3472.5416183428787917
 20
186.5614805566507926
 30
0.0
 40
0.0624776207105922
 50
275.2573685959025056
 51
292.3773120656726974
  0
ARC
  5
16312
  8
0
 10
3472.564836383075999
 20
186.4024075455511991
 30
0.0
 40
0.0984252452182696
 50
100.2376355775721066
 51
269.9224767582430218
  0
ARC
  5
16313
  8
0
 10
3473.550223262093823
 20
186.4024075455511991
 30
0.0
 40
0.098425245218255
 50
270.0775232408972215
 51
79.7623644224806441
  0
ARC
  5
16314
  8
0
 10
3473.5717473862991937
 20
186.5538706300166041
 30
0.0
 40
0.0547534366159759
 50
222.1569757206399061
 51
265.7781273250557206
  0
ARC
  5
16315
  8
0
 10
3473.6374857572541259
 20
186.5957121783553134
 30
0.0
 40
0.1322193461504895
 50
184.03449076800689
 51
216.4692844521572965
  0
ARC
  5
16316
  8
0
 10
3474.2123877885987895
 20
186.6556339449568895
 30
0.0
 40
0.7101755920604762
 50
176.5262208446891066
 51
185.5937844257460938
  0
ARC
  5
16317
  8
0
 10
3482.9190173758211131
 20
185.890409853677113
 30
0.0
 40
9.4501281639712271
 50
172.503743023352996
 51
175.0935861664557933
  0
ARC
  5
16318
  8
0
 10
3453.1614597849497841
 20
189.4834014022497968
 30
0.0
 40
20.5243435200301292
 50
353.3968951883938985
 51
358.4328230730782821
  0
ARC
  5
16319
  8
0
 10
3455.5102602699412273
 20
189.0458933218355071
 30
0.0
 40
18.1682877096589195
 50
359.6095418839386753
 51
6.8289037394478678
  0
ARC
  5
1631A
  8
0
 10
3482.1469619405547746
 20
192.2789425759451944
 30
0.0
 40
8.6639753145213252
 50
186.4831455037316914
 51
187.1124703852673008
  0
LINE
  5
1631B
  8
0
 10
3472.5647032102351659
 20
186.3039823904267962
 30
0.0
 11
3473.5503564349351109
 21
186.3039823904267962
 31
0.0
  0
LINE
  5
1631C
  8
0
 10
3472.5473431475811594
 20
186.4992657698300889
 30
0.0
 11
3473.5677164975868436
 21
186.4992657698300889
 31
0.0
  0
ARC
  5
1631D
  8
0
 10
3470.7748291185957896
 20
195.4187003073288906
 30
0.0
 40
0.5207640425309008
 50
93.7595343467799438
 51
102.156711925088203
  0
LINE
  5
1631E
  8
0
 10
3470.9070721790390053
 20
191.8271686174225863
 30
0.0
 11
3470.9084432871168246
 21
191.8249733389897074
 31
0.0
  0
LINE
  5
1631F
  8
0
 10
3478.6628920272569303
 20
166.4614620213801004
 30
0.0
 11
3478.6628920272569303
 21
164.2567385778800997
 31
0.0
  0
LINE
  5
16320
  8
0
 10
3478.5371399538571495
 20
166.414421907114189
 30
0.0
 11
3478.5371399538571495
 21
164.3037786921460963
 31
0.0
  0
LINE
  5
16321
  8
0
 10
3477.9400573816178621
 20
166.2331160476271066
 30
0.0
 11
3477.9400573816178621
 21
164.4850845515271089
 31
0.0
  0
LINE
  5
16322
  8
0
 10
3477.8202832830179432
 20
166.2226703440271081
 30
0.0
 11
3477.8202832830179432
 21
164.4955302551271075
 31
0.0
  0
LINE
  5
16323
  8
0
 10
3472.899561722118051
 20
165.5953207720276907
 30
0.0
 11
3472.899561722118051
 21
165.1228798271266101
 31
0.0
  0
LINE
  5
16324
  8
0
 10
3473.02107394311588
 20
165.7030532391439124
 30
0.0
 11
3473.02107394311588
 21
165.0151473600101042
 31
0.0
  0
LINE
  5
16325
  8
0
 10
3473.5409717864181403
 20
165.7134310082271043
 30
0.0
 11
3473.0461285707178831
 21
165.7134310082271043
 31
0.0
  0
LINE
  5
16326
  8
0
 10
3473.5693174934181116
 20
165.0181813783160862
 30
0.0
 11
3473.5693174934181116
 21
165.2652362857581068
 31
0.0
  0
LINE
  5
16327
  8
0
 10
3473.5693174934181116
 20
165.4529643135020933
 30
0.0
 11
3473.5693174934181116
 21
165.7000192208381861
 31
0.0
  0
LINE
  5
16328
  8
0
 10
3473.7280958286178247
 20
165.0166906824271109
 30
0.0
 11
3473.7280958286178247
 21
165.2652368887850116
 31
0.0
  0
LINE
  5
16329
  8
0
 10
3473.7280958286178247
 20
165.4529637104751885
 30
0.0
 11
3473.7280958286178247
 21
165.7015099167271899
 31
0.0
  0
LINE
  5
1632A
  8
0
 10
3473.9237324285181785
 20
164.7100106656270952
 30
0.0
 11
3473.9237324285181785
 21
166.0081899335270919
 31
0.0
  0
LINE
  5
1632B
  8
0
 10
3474.6257739132179267
 20
164.7361527898686973
 30
0.0
 11
3474.6257739132179267
 21
165.9820478092856035
 31
0.0
  0
LINE
  5
1632C
  8
0
 10
3474.7313959642178816
 20
164.7343168337272061
 30
0.0
 11
3474.7313959642178816
 21
165.9838837654272083
 31
0.0
  0
LINE
  5
1632D
  8
0
 10
3474.7510810036178555
 20
164.7870689943271998
 30
0.0
 11
3474.7510810036178555
 21
165.931131604827101
 31
0.0
  0
LINE
  5
1632E
  8
0
 10
3476.5621046257178932
 20
166.0975499686080923
 30
0.0
 11
3476.5621046257178932
 21
164.6206506305460948
 31
0.0
  0
LINE
  5
1632F
  8
0
 10
3477.6263898615179642
 20
166.200766170264302
 30
0.0
 11
3477.6263898615179642
 21
164.5174344288899988
 31
0.0
  0
LINE
  5
16330
  8
0
 10
3474.7313959641192014
 20
165.8709113232270909
 30
0.0
 11
3474.7510810036178555
 21
165.8709113232270909
 31
0.0
  0
LINE
  5
16331
  8
0
 10
3478.6628920272569303
 20
166.4614620213801004
 30
0.0
 11
3478.5619441227099742
 21
166.4344131118679115
 31
0.0
  0
ARC
  5
16332
  8
0
 10
3478.5721330090650554
 20
166.396387670332814
 30
0.0
 40
0.0393668338720055
 50
105.0000000059563945
 51
152.7349530925114038
  0
ARC
  5
16333
  8
0
 10
3478.0330534971781162
 20
166.6742352866604051
 30
0.0
 40
0.5671032957045431
 50
269.9918237224753739
 51
332.7327731223423939
  0
ARC
  5
16334
  8
0
 10
3477.9282463580179865
 20
166.2331160476271066
 30
0.0
 40
0.0118110235999972
 50
0.0
 51
90.0
  0
LINE
  5
16335
  8
0
 10
3477.9282463580179865
 20
166.2449270712270959
 30
0.0
 11
3477.855739401018127
 21
166.2449270712270959
 31
0.0
  0
ARC
  5
16336
  8
0
 10
3477.855739401018127
 20
166.2055569923844871
 30
0.0
 40
0.0393700788426248
 50
90.0
 51
154.2351217806846932
  0
ARC
  5
16337
  8
0
 10
3477.7848271639632003
 20
166.2397836961791029
 30
0.0
 40
0.0393700800142972
 50
309.4020823598319794
 51
334.2351217806861996
  0
ARC
  5
16338
  8
0
 10
3477.7098556787309462
 20
166.3310487131996069
 30
0.0
 40
0.1574803121264039
 50
243.4889087469663878
 51
309.4020823598330026
  0
ARC
  5
16339
  8
0
 10
3477.6571346912478475
 20
166.2253580122500978
 30
0.0
 40
0.0393700806119487
 50
218.6552379619236035
 51
243.4889087469670983
  0
ARC
  5
1633A
  8
0
 10
3477.5956450327958009
 20
166.1761743288859918
 30
0.0
 40
0.0393700794453734
 50
38.6552379619411823
 51
96.0006249510114031
  0
ARC
  5
1633B
  8
0
 10
3474.7707660430178294
 20
165.931131604827101
 30
0.0
 40
0.019685039400011
 50
96.7683229852437563
 51
179.9999999999689919
  0
ARC
  5
1633C
  8
0
 10
3474.6790881495658141
 20
165.9540162059130068
 30
0.0
 40
0.0602343638216774
 50
29.7261995370577701
 51
152.2654668505595055
  0
ARC
  5
1633D
  8
0
 10
3474.5944187577611046
 20
165.998533748956504
 30
0.0
 40
0.0354250191329685
 50
263.9922590121375947
 51
332.2654668505551854
  0
LINE
  5
1633E
  8
0
 10
3474.5907110750790707
 20
165.96330329239251
 30
0.0
 11
3473.960063797237126
 21
166.0296731387753084
 31
0.0
  0
ARC
  5
1633F
  8
0
 10
3473.9563595249687751
 20
165.9944750880173956
 30
0.0
 40
0.0353924343636362
 50
83.9922590121375521
 51
157.2004819545718988
  0
ARC
  5
16340
  8
0
 10
3441.9366893253509261
 20
179.4539881255442992
 30
0.0
 40
34.6981327380072528
 50
336.799518073015804
 51
337.2004819545718988
  0
ARC
  5
16341
  8
0
 10
3473.7206235185171863
 20
165.8310600772755947
 30
0.0
 40
0.1177533097262759
 50
284.1685737473110862
 51
336.7995180730143261
  0
ARC
  5
16342
  8
0
 10
3473.7581960738230009
 20
165.6822315728938975
 30
0.0
 40
0.0357446401907617
 50
104.1685737473111004
 51
147.3616032882534057
  0
ARC
  5
16343
  8
0
 10
3473.6980700207359405
 20
165.7207405855899935
 30
0.0
 40
0.0356562443888651
 50
270.1967960969798241
 51
327.3616032882601985
  0
LINE
  5
16344
  8
0
 10
3473.6981924904180232
 20
165.6850845515272113
 30
0.0
 11
3473.5982205782888741
 21
165.6847411726666053
 31
0.0
  0
ARC
  5
16345
  8
0
 10
3473.5981012113279576
 20
165.7194938751142104
 30
0.0
 40
0.034752907445082
 50
214.0817230503130872
 51
270.1967960969798241
  0
ARC
  5
16346
  8
0
 10
3473.5380539915058762
 20
165.6706041637407054
 30
0.0
 40
0.0429261241647682
 50
43.2551440578972333
 51
86.1024588342862529
  0
ARC
  5
16347
  8
0
 10
3515.5808066902109204
 20
-200.1288932537939047
 30
0.0
 40
368.3086669457508719
 50
95.9203150715110127
 51
96.0796849280344247
  0
ARC
  5
16348
  8
0
 10
3476.5423801922647726
 20
166.0859883794502139
 30
0.0
 40
0.0198254765320901
 50
5.7871364861013728
 51
95.7252058591538031
  0
ARC
  5
16349
  8
0
 10
3476.5739658218171826
 20
166.0963956483832931
 30
0.0
 40
0.011917232400357
 50
96.1910999762203858
 51
174.4415336760567072
  0
ARC
  5
1634A
  8
0
 10
3473.0461285707178831
 20
165.6779979373272056
 30
0.0
 40
0.0354330708999839
 50
90.0000000001042082
 51
134.9991515755729949
  0
ARC
  5
1634B
  8
0
 10
4591.5474393271842928
 20
-952.8564383961903559
 30
0.0
 40
1581.8585797683660985
 50
134.9991515755729949
 51
135.000810920138008
  0
ARC
  5
1634C
  8
0
 10
3473.0137355805259176
 20
165.6456040770924858
 30
0.0
 40
0.0354337011064471
 50
135.000810920138008
 51
179.9939365719438058
  0
ARC
  5
1634D
  8
0
 10
3472.9685743232271307
 20
165.6366146236319139
 30
0.0
 40
0.0097282097914901
 50
359.3359308567020207
 51
88.3951918720356957
  0
LINE
  5
1634E
  8
0
 10
3472.9688467668361227
 20
165.6463390177121937
 30
0.0
 11
3472.9507432495938701
 21
165.6463390177121937
 31
0.0
  0
ARC
  5
1634F
  8
0
 10
3472.9511018934272215
 20
165.5947974372901115
 30
0.0
 40
0.0515428281898318
 50
90.3986770713900682
 51
179.418243274925004
  0
ARC
  5
16350
  8
0
 10
3460.9744408719511739
 20
333.8109905451632926
 30
0.0
 40
168.4261221375724915
 50
274.6977540199869168
 51
275.3028499117668844
  0
LINE
  5
16351
  8
0
 10
3472.9783018796179022
 20
165.6456078269364127
 30
0.0
 11
3472.9783018796179022
 21
165.0725927722178028
 31
0.0
  0
LINE
  5
16352
  8
0
 10
3473.5409717864181403
 20
165.0047695909271113
 30
0.0
 11
3473.0461285707178831
 21
165.0047695909271113
 31
0.0
  0
LINE
  5
16353
  8
0
 10
3474.7313959641192014
 20
164.8472892759270962
 30
0.0
 11
3474.7510810036178555
 21
164.8472892759270962
 31
0.0
  0
LINE
  5
16354
  8
0
 10
3478.6628920272569303
 20
164.2567385778800997
 30
0.0
 11
3478.5619441227099742
 21
164.2837874873922885
 31
0.0
  0
ARC
  5
16355
  8
0
 10
3478.5721330090650554
 20
164.3218129289274998
 30
0.0
 40
0.0393668338720055
 50
207.2650469074885962
 51
254.9999999940436055
  0
ARC
  5
16356
  8
0
 10
3478.0330526067277788
 20
164.0439645935408919
 30
0.0
 40
0.567104416637095
 50
27.2672502368183096
 51
90.0080862973424871
  0
ARC
  5
16357
  8
0
 10
3477.9282463580179865
 20
164.4850845515271089
 30
0.0
 40
0.0118110235999972
 50
270.0
 51
0.0
  0
LINE
  5
16358
  8
0
 10
3477.9282463580179865
 20
164.4732735279270912
 30
0.0
 11
3477.855739401018127
 21
164.4732735279270912
 31
0.0
  0
ARC
  5
16359
  8
0
 10
3477.855739401018127
 20
164.5126436067697
 30
0.0
 40
0.0393700788426248
 50
205.7648782193153068
 51
270.0
  0
ARC
  5
1635A
  8
0
 10
3477.7848271639632003
 20
164.4784169029751979
 30
0.0
 40
0.0393700800142972
 50
25.7648782193138111
 51
50.5979176401680277
  0
ARC
  5
1635B
  8
0
 10
3477.7098556787309462
 20
164.3871518859546086
 30
0.0
 40
0.1574803121264039
 50
50.5979176401669974
 51
116.511091253033598
  0
ARC
  5
1635C
  8
0
 10
3477.6571346912478475
 20
164.4928425869040893
 30
0.0
 40
0.0393700806119487
 50
116.5110912530329017
 51
141.3447620380763965
  0
ARC
  5
1635D
  8
0
 10
3477.5956450327958009
 20
164.5420262702681953
 30
0.0
 40
0.0393700794453734
 50
263.9993750489886111
 51
321.344762038058775
  0
ARC
  5
1635E
  8
0
 10
3474.7707660430178294
 20
164.7870689943270861
 30
0.0
 40
0.019685039400011
 50
180.0000000000308944
 51
263.2316770147562011
  0
ARC
  5
1635F
  8
0
 10
3474.6790881495658141
 20
164.7641843932412087
 30
0.0
 40
0.0602343638216774
 50
207.7345331494404945
 51
330.2738004629421766
  0
ARC
  5
16360
  8
0
 10
3474.5944187577611046
 20
164.7196668501977115
 30
0.0
 40
0.0354250191329685
 50
27.7345331494448502
 51
96.0077409878624621
  0
LINE
  5
16361
  8
0
 10
3474.5907110750790707
 20
164.7548973067617055
 30
0.0
 11
3473.960063797237126
 21
164.6885274603789071
 31
0.0
  0
ARC
  5
16362
  8
0
 10
3473.9563595249687751
 20
164.7237255111367915
 30
0.0
 40
0.0353924343636362
 50
202.7995180454281012
 51
276.007740987862519
  0
ARC
  5
16363
  8
0
 10
3441.9366893253509261
 20
151.2642124736098879
 30
0.0
 40
34.6981327380072528
 50
22.7995180454281297
 51
23.2004819269841818
  0
ARC
  5
16364
  8
0
 10
3473.7206235185171863
 20
164.8871405218785924
 30
0.0
 40
0.1177533097262759
 50
23.200481926985681
 51
75.8314262526888569
  0
ARC
  5
16365
  8
0
 10
3473.7581960738230009
 20
165.0359690262604033
 30
0.0
 40
0.0357446401907617
 50
212.6383967117452016
 51
255.8314262526888001
  0
ARC
  5
16366
  8
0
 10
3473.6980700207359405
 20
164.9974600135641936
 30
0.0
 40
0.0356562443888651
 50
32.6383967117397731
 51
89.8032039030201759
  0
LINE
  5
16367
  8
0
 10
3473.6981924904180232
 20
165.0331160476270895
 30
0.0
 11
3473.5982205782888741
 21
165.0334594264876102
 31
0.0
  0
ARC
  5
16368
  8
0
 10
3473.5981012113279576
 20
164.9987067240400052
 30
0.0
 40
0.034752907445082
 50
89.8032039030201759
 51
145.9182769496867991
  0
ARC
  5
16369
  8
0
 10
3473.5380539915058762
 20
165.0475964354135101
 30
0.0
 40
0.0429261241647682
 50
273.897541165713676
 51
316.744855942102788
  0
ARC
  5
1636A
  8
0
 10
3515.5808066902109204
 20
530.8470938529479781
 30
0.0
 40
368.3086669457508719
 50
263.9203150719656037
 51
264.0796849284889731
  0
ARC
  5
1636B
  8
0
 10
3476.5423801922647726
 20
164.6322122197040017
 30
0.0
 40
0.0198254765320901
 50
264.2747941408462111
 51
354.2128635138985828
  0
ARC
  5
1636C
  8
0
 10
3476.5739658218171826
 20
164.621804950770894
 30
0.0
 40
0.011917232400357
 50
185.5584663239415875
 51
263.8089000237795858
  0
ARC
  5
1636D
  8
0
 10
3473.0461285707178831
 20
165.0402026618270952
 30
0.0
 40
0.0354330708999839
 50
225.0008484244268914
 51
269.999999999895806
  0
ARC
  5
1636E
  8
0
 10
4591.5474393271842928
 20
1283.5746389953449125
 30
0.0
 40
1581.8585797683660985
 50
224.9991890798619067
 51
225.0008484244268914
  0
ARC
  5
1636F
  8
0
 10
3473.0137355805259176
 20
165.0725965220617013
 30
0.0
 40
0.0354337011064471
 50
180.0060634280561089
 51
224.9991890798619067
  0
ARC
  5
16370
  8
0
 10
3472.9683709808009553
 20
165.0816701021799133
 30
0.0
 40
0.0099309400646143
 50
269.6013229286098749
 51
0.1651363461696348
  0
LINE
  5
16371
  8
0
 10
3472.9683018796181386
 20
165.0717394025271005
 30
0.0
 11
3472.9507432495938701
 21
165.0718615814421071
 31
0.0
  0
ARC
  5
16372
  8
0
 10
3472.9511018934272215
 20
165.1234031618641893
 30
0.0
 40
0.0515428281898318
 50
180.5817567250732907
 51
269.6013229286098749
  0
ARC
  5
16373
  8
0
 10
3460.9744408719511739
 20
-3.0927899460090771
 30
0.0
 40
168.4261221375724915
 50
84.6971500882331014
 51
85.3022459800131259
  0
LINE
  5
16375
  8
0
 10
3460.7635811358218234
 20
204.1867697920301055
 30
0.0
 11
3459.0496674856231039
 21
204.1867697920301055
 31
0.0
  0
LINE
  5
16376
  8
0
 10
3463.9176243107449409
 20
201.6705178235301048
 30
0.0
 11
3455.8956243107231785
 21
201.6705178235301048
 31
0.0
  0
LINE
  5
16377
  8
0
 10
3463.9766243107228547
 20
202.2375178235301121
 30
0.0
 11
3455.8366243107220726
 21
202.2375178235301121
 31
0.0
  0
LINE
  5
16378
  8
0
 10
3464.0166905354358278
 20
202.5264662755301117
 30
0.0
 11
3455.7965580860141017
 21
202.5264662755301117
 31
0.0
  0
LINE
  5
16379
  8
0
 10
3463.9766243107228547
 20
202.7334974132301113
 30
0.0
 11
3455.8366243033701721
 21
202.7334974132301113
 31
0.0
  0
LINE
  5
1637A
  8
0
 10
3463.5711834073831596
 20
203.2755909081301979
 30
0.0
 11
3456.2420651199158783
 21
203.2755909081301979
 31
0.0
  0
LINE
  5
1637B
  8
0
 10
3460.8195613185680486
 20
204.05676979203011
 30
0.0
 11
3458.9936873028218542
 21
204.05676979203011
 31
0.0
  0
LINE
  5
1637C
  8
0
 10
3460.4035613186229057
 20
204.625726857030088
 30
0.0
 11
3460.4035613186229057
 21
205.1292894770301132
 31
0.0
  0
LINE
  5
1637D
  8
0
 10
3460.4035613186229057
 20
204.1867697920301055
 30
0.0
 11
3460.4035613186229057
 21
204.05676979203011
 31
0.0
  0
LINE
  5
1637E
  8
0
 10
3460.3835613186229239
 20
205.149289477030095
 30
0.0
 11
3459.4296873028229129
 21
205.149289477030095
 31
0.0
  0
LINE
  5
1637F
  8
0
 10
3460.1014343338229082
 20
204.625726857030088
 30
0.0
 11
3460.1014343338229082
 21
204.9751477469907002
 31
0.0
  0
LINE
  5
16380
  8
0
 10
3460.7635811358218234
 20
204.1867697920301055
 30
0.0
 11
3460.7635811358218234
 21
204.05676979203011
 31
0.0
  0
LINE
  5
16381
  8
0
 10
3460.5732597093228833
 20
204.1867697920301055
 30
0.0
 11
3460.5732597093228833
 21
204.05676979203011
 31
0.0
  0
LINE
  5
16382
  8
0
 10
3460.0969457372220859
 20
204.1867697920301055
 30
0.0
 11
3460.0969457372220859
 21
204.05676979203011
 31
0.0
  0
ARC
  5
16383
  8
0
 10
3463.8185235747428123
 20
201.9504964729237031
 30
0.0
 40
0.2969999999797535
 50
289.4918342760337282
 51
359.9999999987787191
  0
ARC
  5
16384
  8
0
 10
3463.8185235747610022
 20
201.9504964729119081
 30
0.0
 40
0.2969999999618018
 50
0.0000000010552317
 51
51.6477956318005766
  0
ARC
  5
16385
  8
0
 10
3464.0456243106477814
 20
202.2375178234715918
 30
0.0
 40
0.0689999999260784
 50
179.9999999513877071
 51
231.6477956322665079
  0
LINE
  5
16386
  8
0
 10
3463.9766243107228547
 20
202.2375178235301121
 30
0.0
 11
3463.9766243108911112
 21
202.4365178235302096
 31
0.0
  0
ARC
  5
16387
  8
0
 10
3464.0976243114628232
 20
202.4365178234274936
 30
0.0
 40
0.121000000571545
 50
131.9802327739039924
 51
179.9999999513860018
  0
ARC
  5
16388
  8
0
 10
3463.99662429841419
 20
202.5487675534836001
 30
0.0
 40
0.0300000144407643
 50
311.9802377761673142
 51
359.999968678107507
  0
LINE
  5
16389
  8
0
 10
3464.0266243128539827
 20
202.5487675370835063
 30
0.0
 11
3464.0266243128539827
 21
202.6834974132300999
 31
0.0
  0
ARC
  5
1638A
  8
0
 10
3463.9766243180752099
 20
202.6834974184507985
 30
0.0
 40
0.0499999947793096
 50
359.9999940175299002
 51
90.0000084249178656
  0
LINE
  5
1638B
  8
0
 10
3463.9585613186218325
 20
202.7334974132301113
 30
0.0
 11
3463.9585613186218325
 21
202.779769792184311
 31
0.0
  0
ARC
  5
1638C
  8
0
 10
3463.4475612649021059
 20
202.7797697735327063
 30
0.0
 40
0.5110000537204979
 50
0.0000020740237287
 51
75.9999844020429123
  0
ARC
  5
1638D
  8
0
 10
3125.7370590051559702
 20
-1146.6048382339558884
 30
0.0
 40
1391.5132297808220301
 50
75.9492155832537463
 51
76.0507854747352354
  0
ARC
  5
1638E
  8
0
 10
3461.3903310474879618
 20
204.7252478508339948
 30
0.0
 40
0.8789999991423313
 50
229.508152024502408
 51
256.0000000076238962
  0
ARC
  5
1638F
  8
0
 10
3460.0037139323139854
 20
204.6273555192628066
 30
0.0
 40
0.0977339726591012
 50
316.8551043462738903
 51
359.0451652676368894
  0
ARC
  5
16390
  8
0
 10
3460.1741405626021333
 20
204.6253401132937029
 30
0.0
 40
0.229421081995012
 50
292.4437247065142742
 51
0.0965856936721602
  0
ARC
  5
16391
  8
0
 10
3460.2885613186222145
 20
204.3486438370300959
 30
0.0
 40
0.0700000000000001
 50
112.5403106307643952
 51
230.546520200891905
  0
ARC
  5
16392
  8
0
 10
3459.9085613179317988
 20
203.8869036497385991
 30
0.0
 40
0.5280000009071126
 50
34.6058857144050975
 51
50.5465201848569166
  0
ARC
  5
16393
  8
0
 10
3460.3835613186229239
 20
205.1292894770301132
 30
0.0
 40
0.0199999999999623
 50
359.9999999998876206
 51
90.0000000001042082
  0
LINE
  5
16394
  8
0
 10
3459.4096873028229311
 20
204.625726857030088
 30
0.0
 11
3459.4096873028229311
 21
205.1292894770301132
 31
0.0
  0
LINE
  5
16395
  8
0
 10
3459.4096873028229311
 20
204.1867697920301055
 30
0.0
 11
3459.4096873028229311
 21
204.05676979203011
 31
0.0
  0
LINE
  5
16396
  8
0
 10
3459.7118142876229285
 20
204.625726857030088
 30
0.0
 11
3459.7118142876229285
 21
204.9751477469907002
 31
0.0
  0
LINE
  5
16397
  8
0
 10
3459.0496674856231039
 20
204.1867697920301055
 30
0.0
 11
3459.0496674856231039
 21
204.05676979203011
 31
0.0
  0
LINE
  5
16398
  8
0
 10
3459.2399889121229535
 20
204.1867697920301055
 30
0.0
 11
3459.2399889121229535
 21
204.05676979203011
 31
0.0
  0
LINE
  5
16399
  8
0
 10
3459.7163028842228414
 20
204.1867697920301055
 30
0.0
 11
3459.7163028842228414
 21
204.05676979203011
 31
0.0
  0
ARC
  5
1639A
  8
0
 10
3455.9947250467021149
 20
201.9504964729237031
 30
0.0
 40
0.2969999999797535
 50
180.0000000012196892
 51
250.5081657239663002
  0
ARC
  5
1639B
  8
0
 10
3455.994725046683925
 20
201.9504964729119081
 30
0.0
 40
0.2969999999618018
 50
128.3522043681994091
 51
179.9999999989447019
  0
ARC
  5
1639C
  8
0
 10
3455.7676243107971459
 20
202.2375178234715918
 30
0.0
 40
0.0689999999260784
 50
308.3522043677324973
 51
0.0000000486123102
  0
LINE
  5
1639D
  8
0
 10
3455.8366243107220726
 20
202.2375178235301121
 30
0.0
 11
3455.836624310553816
 21
202.4365178235302096
 31
0.0
  0
ARC
  5
1639E
  8
0
 10
3455.715624309982104
 20
202.4365178234274936
 30
0.0
 40
0.121000000571545
 50
0.0000000486123102
 51
48.0197672260960005
  0
ARC
  5
1639F
  8
0
 10
3455.8166243230321015
 20
202.5487675534836001
 30
0.0
 40
0.0300000144407643
 50
180.0000313218924077
 51
228.0197622238326005
  0
LINE
  5
163A0
  8
0
 10
3455.7866243085909446
 20
202.5487675370835063
 30
0.0
 11
3455.7866243085909446
 21
202.6834974132300999
 31
0.0
  0
ARC
  5
163A1
  8
0
 10
3455.8366243033701721
 20
202.6834974184507985
 30
0.0
 40
0.0499999947793128
 50
90.0
 51
180.0000059824635059
  0
LINE
  5
163A2
  8
0
 10
3455.8546873028230948
 20
202.7334974132301113
 30
0.0
 11
3455.8546873028230948
 21
202.779769792184311
 31
0.0
  0
ARC
  5
163A3
  8
0
 10
3456.3656873565428214
 20
202.7797697735327063
 30
0.0
 40
0.5110000537204979
 50
104.0000155979571019
 51
179.9999979259762029
  0
ARC
  5
163A4
  8
0
 10
3794.076189616288957
 20
-1146.6048382339558884
 30
0.0
 40
1391.5132297808220301
 50
103.9492145252646935
 51
104.0507844167461968
  0
ARC
  5
163A5
  8
0
 10
3458.422917573956056
 20
204.7252478508339948
 30
0.0
 40
0.8789999991423313
 50
283.9999999923762175
 51
310.4918479754974783
  0
ARC
  5
163A6
  8
0
 10
3459.8095346891309418
 20
204.6273555192628066
 30
0.0
 40
0.0977339726591012
 50
180.9548347323614905
 51
223.144895653725996
  0
ARC
  5
163A7
  8
0
 10
3459.639108058842794
 20
204.6253401132937029
 30
0.0
 40
0.229421081995012
 50
179.9034143063277895
 51
247.5562752934856974
  0
ARC
  5
163A8
  8
0
 10
3459.5246873028231676
 20
204.3486438370300959
 30
0.0
 40
0.0700000000000001
 50
309.453479799108095
 51
67.4596893692355621
  0
ARC
  5
163A9
  8
0
 10
3459.9046873035131284
 20
203.8869036497385991
 30
0.0
 40
0.5280000009071126
 50
129.4534798151431119
 51
145.3941142855948954
  0
ARC
  5
163AA
  8
0
 10
3459.4296873028229129
 20
205.1292894770301132
 30
0.0
 40
0.0199999999999623
 50
89.9999999998957776
 51
180.0000000001122942
  0
ARC
  5
163AB
  8
0
 10
3459.9066243107217815
 20
204.535270678937195
 30
0.0
 40
0.4810850029876045
 50
66.1127027906950104
 51
113.8872972093049043
  0
ARC
  5
163AC
  8
0
 10
3459.9066243107217815
 20
204.7612665504942129
 30
0.0
 40
0.2620250990595338
 50
230.0078647498131943
 51
309.9921352501867773
  0
LINE
  5
163AD
  8
0
 10
3459.7118142876229285
 20
204.9751477469907002
 30
0.0
 11
3460.1014343338229082
 21
204.9751477469907002
 31
0.0
  0
LINE
  5
163AE
  8
0
 10
3460.2617279851010608
 20
204.4132965416301033
 30
0.0
 11
3459.5515206363438665
 21
204.4132965416301033
 31
0.0
  0
LINE
  5
163AF
  8
0
 10
3475.2799779960278101
 20
163.0047697920300891
 30
0.0
 11
3476.0332076332870201
 21
163.0047697920300891
 31
0.0
  0
LINE
  5
163B0
  8
0
 10
3478.6628920272569303
 20
199.7961113900300916
 30
0.0
 11
3478.6628920272569303
 21
201.7882367478300978
 31
0.0
  0
LINE
  5
163B1
  8
0
 10
3478.6628920272569303
 20
199.7961113900300916
 30
0.0
 11
3478.568403838256927
 21
199.8214294239301125
 31
0.0
  0
LINE
  5
163B2
  8
0
 10
3478.568403838256927
 20
199.8214294239301125
 30
0.0
 11
3478.568403838256927
 21
201.7629187139301052
 31
0.0
  0
LINE
  5
163B3
  8
0
 10
3478.3530495076570332
 20
200.0047724941300942
 30
0.0
 11
3478.3530495076570332
 21
201.5795756437300952
 31
0.0
  0
LINE
  5
163B4
  8
0
 10
3478.2579948529642024
 20
200.0310199162252047
 30
0.0
 11
3478.2579948529642024
 21
201.5533282216350131
 31
0.0
  0
LINE
  5
163B5
  8
0
 10
3478.1207225533330529
 20
200.0519585466612966
 30
0.0
 11
3478.1207183726542098
 21
201.5323951767572055
 31
0.0
  0
ARC
  5
163B6
  8
0
 10
3478.0585752382280589
 20
199.6004651077761878
 30
0.0
 40
0.5556531565839994
 50
23.4323438783465505
 51
54.1182933825930519
  0
ARC
  5
163B7
  8
0
 10
3478.372613333307072
 20
200.0349037376867045
 30
0.0
 40
0.0195973300325173
 50
53.5694642039343378
 51
176.6491739992729038
  0
LINE
  5
163B8
  8
0
 10
3478.3530495076570332
 20
200.0047724941300942
 30
0.0
 11
3478.2951135676571539
 21
200.0047724941300942
 31
0.0
  0
ARC
  5
163B9
  8
0
 10
3478.2951135676571539
 20
200.0441425728301112
 30
0.0
 40
0.0393700786999928
 50
199.4701355517966022
 51
270.0000000000259774
  0
ARC
  5
163BA
  8
0
 10
3478.1837581690601837
 20
200.0047724941236993
 30
0.0
 40
0.0787401575059788
 50
19.4717631562769284
 51
143.18287739248089
  0
ARC
  5
163BB
  8
0
 10
3478.0892014184260006
 20
200.0755471298363943
 30
0.0
 40
0.0393700800364921
 50
259.9991087364833788
 51
323.190955401769088
  0
LINE
  5
163BC
  8
0
 10
3478.0823642726568323
 20
200.0367752761301006
 30
0.0
 11
3476.6493347661571534
 21
200.2894570423300991
 31
0.0
  0
LINE
  5
163BD
  8
0
 10
3476.6217900630567783
 20
200.2778569309301133
 30
0.0
 11
3476.6217900630567783
 21
201.3064912069301045
 31
0.0
  0
LINE
  5
163BE
  8
0
 10
3476.510529822557146
 20
200.3847882449026088
 30
0.0
 11
3476.510529822557146
 21
201.1995598929576943
 31
0.0
  0
ARC
  5
163BF
  8
0
 10
3476.6445496610349437
 20
200.2623165851454132
 30
0.0
 40
0.0275590574444171
 50
80.0010027269969868
 51
145.6745802091452049
  0
ARC
  5
163C0
  8
0
 10
3476.5892712495369778
 20
200.3000609086587076
 30
0.0
 40
0.0393762601033674
 50
203.0185595227430895
 51
325.674580209147905
  0
ARC
  5
163C1
  8
0
 10
3631.0807649195871818
 20
265.9368778405226976
 30
0.0
 40
167.8959023570957925
 50
202.9814404358257889
 51
203.0185595227430895
  0
LINE
  5
163C2
  8
0
 10
3478.6628920272569303
 20
201.7882367478300978
 30
0.0
 11
3478.568403838256927
 21
201.7629187139301052
 31
0.0
  0
ARC
  5
163C3
  8
0
 10
3478.0585752382280589
 20
201.9838830300840016
 30
0.0
 40
0.5556531565839994
 50
305.8817066174070192
 51
336.5676561216534992
  0
ARC
  5
163C4
  8
0
 10
3478.372613333307072
 20
201.5494444001735985
 30
0.0
 40
0.0195973300325173
 50
183.3508260007270962
 51
306.4305357960657261
  0
LINE
  5
163C5
  8
0
 10
3478.3530495076570332
 20
201.5795756437300952
 30
0.0
 11
3478.2951135676571539
 21
201.5795756437300952
 31
0.0
  0
ARC
  5
163C6
  8
0
 10
3478.2951135676571539
 20
201.5402055650301065
 30
0.0
 40
0.0393700786999928
 50
89.9999999999739515
 51
160.5298644482018915
  0
ARC
  5
163C7
  8
0
 10
3478.1837581690601837
 20
201.5795756437366038
 30
0.0
 40
0.0787401575059788
 50
216.81712260751911
 51
340.5282368437231071
  0
ARC
  5
163C8
  8
0
 10
3478.0892014184260006
 20
201.5088010080239087
 30
0.0
 40
0.0393700800364921
 50
36.809044598230912
 51
100.000891263516607
  0
LINE
  5
163C9
  8
0
 10
3478.0823642726568323
 20
201.5475728617300888
 30
0.0
 11
3476.6493347661571534
 21
201.294891095530204
 31
0.0
  0
ARC
  5
163CA
  8
0
 10
3476.6445496610349437
 20
201.3220315527148898
 30
0.0
 40
0.0275590574444171
 50
214.3254197908534024
 51
279.998997273002999
  0
ARC
  5
163CB
  8
0
 10
3476.5892712495369778
 20
201.2842872292015954
 30
0.0
 40
0.0393762601033674
 50
34.3254197908520808
 51
156.9814404772569105
  0
ARC
  5
163CC
  8
0
 10
3631.0807649195871818
 20
135.6474702973374065
 30
0.0
 40
167.8959023570957925
 50
156.9814404772569105
 51
157.0185595641725911
  0
LINE
  5
163CD
  8
0
 10
3476.2863113427829376
 20
201.3433524691301102
 30
0.0
 11
3475.0264688229840431
 21
201.3433524691301102
 31
0.0
  0
LINE
  5
163CE
  8
0
 10
3476.2863113427829376
 20
200.2409902644301951
 30
0.0
 11
3475.0264688229840431
 21
200.2409902644301951
 31
0.0
  0
LINE
  5
163CF
  8
0
 10
3476.2863113427829376
 20
201.3433524691301102
 30
0.0
 11
3476.2863113427829376
 21
201.1842704155482977
 31
0.0
  0
LINE
  5
163D0
  8
0
 10
3476.2863113427829376
 20
200.4000777223120053
 30
0.0
 11
3476.2863113427829376
 21
200.2409902644301951
 31
0.0
  0
LINE
  5
163D1
  8
0
 10
3475.0264688229840431
 20
201.3433524691301102
 30
0.0
 11
3475.0264688229840431
 21
200.2409902644301951
 31
0.0
  0
LINE
  5
163D2
  8
0
 10
3476.1487187989569065
 20
205.6341115296220039
 30
0.0
 11
3476.1487187989569065
 21
201.3433524691301102
 31
0.0
  0
LINE
  5
163D3
  8
0
 10
3476.1487187989569065
 20
200.2409902644301951
 30
0.0
 11
3476.1487187989569065
 21
186.4614627053300921
 31
0.0
  0
LINE
  5
163D4
  8
0
 10
3476.1487187989569065
 20
184.5716989258301055
 30
0.0
 11
3476.1487187989569065
 21
175.4077597805282096
 31
0.0
  0
LINE
  5
163D5
  8
0
 10
3476.1487187989569065
 20
174.777908609953414
 30
0.0
 11
3476.1487187989569065
 21
168.2331162486300968
 31
0.0
  0
LINE
  5
163D6
  8
0
 10
3475.1644668304570587
 20
205.6341115296220039
 30
0.0
 11
3475.1644668304570587
 21
201.3433524691301102
 31
0.0
  0
LINE
  5
163D7
  8
0
 10
3475.1644668304570587
 20
200.2409902644301951
 30
0.0
 11
3475.1644668304570587
 21
186.4614627053300921
 31
0.0
  0
LINE
  5
163D8
  8
0
 10
3475.1644668304570587
 20
184.5716989258301055
 30
0.0
 11
3475.1644668304570587
 21
175.904721069493803
 31
0.0
  0
LINE
  5
163D9
  8
0
 10
3475.1644668304570587
 20
175.303879283559894
 30
0.0
 11
3475.1644668304570587
 21
168.2331162486300968
 31
0.0
  0
LINE
  5
163DA
  8
0
 10
3460.3987502950230919
 20
205.6346910518302025
 30
0.0
 11
3460.3987502950230919
 21
205.2409902644301098
 31
0.0
  0
LINE
  5
163DB
  8
0
 10
3460.3987502950230919
 20
205.2416241115944047
 30
0.0
 11
3460.3987502950230919
 21
205.2409902644301098
 31
0.0
  0
LINE
  5
163DC
  8
0
 10
3459.4144983264231996
 20
205.6341115296220039
 30
0.0
 11
3459.4144983264231996
 21
205.2409902644301098
 31
0.0
  0
LINE
  5
163DD
  8
0
 10
3459.4144983264231996
 20
205.2416241115944047
 30
0.0
 11
3459.4144983264231996
 21
205.2409902644301098
 31
0.0
  0
LINE
  5
163DE
  8
0
 10
3460.3987502950230919
 20
205.2409902644301098
 30
0.0
 11
3459.4144983264231996
 21
205.2409902644301098
 31
0.0
  0
LINE
  5
163DF
  8
0
 10
3460.270797539123123
 20
205.2409902644301098
 30
0.0
 11
3460.270797539123123
 21
205.149289477030095
 31
0.0
  0
LINE
  5
163E0
  8
0
 10
3459.5424510824218487
 20
205.2409902644301098
 30
0.0
 11
3459.5424510824218487
 21
205.149289477030095
 31
0.0
  0
ARC
  5
163E1
  8
0
 10
3467.781608536090971
 20
205.6337223082801131
 30
0.0
 40
7.382858304625576
 50
0.0030206106200957
 51
179.992481920318113
  0
ARC
  5
163E2
  8
0
 10
3467.7816085626900531
 20
205.6337223715281084
 30
0.0
 40
8.3671102453171695
 50
0.0026648527028353
 51
179.997335147297207
  0
ARC
  5
163E3
  8
0
 10
3476.3260824258090906
 20
201.1863249785095888
 30
0.0
 40
0.0398241167377077
 50
182.9572550200535943
 51
269.7138411098451911
  0
LINE
  5
163E4
  8
0
 10
3476.3258835284768793
 20
201.1465013584607959
 30
0.0
 11
3476.510529822557146
 21
201.1465022086653107
 31
0.0
  0
ARC
  5
163E5
  8
0
 10
3476.3260824258090906
 20
200.3980231593507142
 30
0.0
 40
0.0398241167377077
 50
90.2861588901547805
 51
177.0427449799479973
  0
LINE
  5
163E6
  8
0
 10
3476.3258835284768793
 20
200.4378467793995071
 30
0.0
 11
3476.510529822557146
 21
200.4378459291949923
 31
0.0
  0
ARC
  5
163E7
  8
0
 10
3476.7590689530070449
 20
200.7921740689301089
 30
0.0
 40
0.5878087158490604
 50
141.5718557421199932
 51
218.4281442578800068
  0
LINE
  5
163E8
  8
0
 10
3473.4353626185938992
 20
184.8905965636301119
 30
0.0
 11
3472.6822734673778541
 21
184.8905965636301119
 31
0.0
  0
LINE
  5
163E9
  8
0
 10
3476.238582931719975
 20
184.5716989258301055
 30
0.0
 11
3475.0746026975948553
 21
184.5716989258301055
 31
0.0
  0
LINE
  5
163EA
  8
0
 10
3476.3455691926128566
 20
184.6285247397300964
 30
0.0
 11
3474.9676164367019737
 21
184.6285247397300964
 31
0.0
  0
LINE
  5
163EB
  8
0
 10
3476.3455691926619693
 20
186.4046368914301013
 30
0.0
 11
3474.9676164366519515
 21
186.4046368914301013
 31
0.0
  0
LINE
  5
163EC
  8
0
 10
3476.2384565996107995
 20
186.4614627053300921
 30
0.0
 11
3475.0747290297031213
 21
186.4614627053300921
 31
0.0
  0
ARC
  5
163ED
  8
0
 10
3476.2362542705632222
 20
186.4212704795085074
 30
0.0
 40
0.0402525187998259
 50
60.1653340660318605
 51
86.8636198808861053
  0
LINE
  5
163EE
  8
0
 10
3476.2562798543171994
 20
186.4561881149531075
 30
0.0
 11
3476.3455688209091932
 21
186.4046371060589991
 31
0.0
  0
ARC
  5
163EF
  8
0
 10
3476.3258841531651342
 20
186.3705414031055057
 30
0.0
 40
0.0393700787917162
 50
0.0000000357671439
 51
60.0006245411677881
  0
LINE
  5
163F0
  8
0
 10
3476.3652542319568965
 20
186.3705414031300904
 30
0.0
 11
3476.3652542319568965
 21
184.6626202280301072
 31
0.0
  0
ARC
  5
163F1
  8
0
 10
3476.3258841532569932
 20
184.6626202280301072
 30
0.0
 40
0.0393700786999975
 50
299.9999999996055067
 51
0.0000000000016284
  0
LINE
  5
163F2
  8
0
 10
3476.3455691926069449
 20
184.6285247397267995
 30
0.0
 11
3476.2562798543572171
 21
184.5769735162301117
 31
0.0
  0
ARC
  5
163F3
  8
0
 10
3476.2362296942551438
 20
184.6119193472532913
 30
0.0
 40
0.0402892048323685
 50
273.3484740486427995
 51
299.8450357547396266
  0
LINE
  5
163F4
  8
0
 10
3473.5686432153320311
 20
186.3048253343033878
 30
0.0
 11
3473.6857672428877777
 21
186.2551091341443907
 31
0.0
  0
ARC
  5
163F5
  8
0
 10
3473.6703841275862032
 20
186.218868785630093
 30
0.0
 40
0.0393700787000011
 50
0.0000000000016284
 51
66.9999999633714367
  0
LINE
  5
163F6
  8
0
 10
3473.7097542062861066
 20
186.218868785630093
 30
0.0
 11
3473.7097542062861066
 21
186.2010085580074019
 31
0.0
  0
LINE
  5
163F7
  8
0
 10
3473.7097542062861066
 20
185.3833341756530046
 30
0.0
 11
3473.7097542062861066
 21
185.3654739479300986
 31
0.0
  0
ARC
  5
163F8
  8
0
 10
3473.6703841275862032
 20
185.3654739479300986
 30
0.0
 40
0.0393700786999851
 50
292.9999999999449187
 51
0.0
  0
LINE
  5
163F9
  8
0
 10
3473.6857672428650403
 20
185.3292335994059954
 30
0.0
 11
3473.5780022488661416
 21
185.2834900733847974
 31
0.0
  0
ARC
  5
163FA
  8
0
 10
3473.5617781409951021
 20
185.3217116762974968
 30
0.0
 40
0.0415224349652389
 50
275.2032267960543095
 51
292.9999999999449187
  0
ARC
  5
163FB
  8
0
 10
3473.4334789907397862
 20
184.9103528761559119
 30
0.0
 40
0.0198459048296724
 50
275.4462935693164241
 51
357.4274475711487185
  0
LINE
  5
163FC
  8
0
 10
3473.4533048945950213
 20
184.9094621041170967
 30
0.0
 11
3473.4699692435688121
 21
185.2803603431300985
 31
0.0
  0
LINE
  5
163FD
  8
0
 10
3472.5453316221892237
 20
186.2551091342301106
 30
0.0
 11
3473.6857672426858699
 21
186.2551091342301106
 31
0.0
  0
LINE
  5
163FE
  8
0
 10
3472.5453316221892237
 20
185.3292335993301094
 30
0.0
 11
3473.6857672426858699
 21
185.3292335993301094
 31
0.0
  0
LINE
  5
163FF
  8
0
 10
3472.6655551096241652
 20
185.2803603431300985
 30
0.0
 11
3473.5655437552509284
 21
185.2803603431300985
 31
0.0
  0
ARC
  5
16400
  8
0
 10
3475.0769313587511533
 20
186.4212704795085074
 30
0.0
 40
0.0402525187998259
 50
93.1363801191139089
 51
119.8346659339680969
  0
LINE
  5
16401
  8
0
 10
3475.0569057749971762
 20
186.4561881149531075
 30
0.0
 11
3474.9676168084051824
 21
186.4046371060589991
 31
0.0
  0
ARC
  5
16402
  8
0
 10
3474.9873014761478771
 20
186.3705414031055057
 30
0.0
 40
0.0393700787917162
 50
119.9993754588322048
 51
179.9999999642328135
  0
LINE
  5
16403
  8
0
 10
3474.9479313973579337
 20
186.3705414031300904
 30
0.0
 11
3474.9479313973579337
 21
186.3586187945462882
 31
0.0
  0
LINE
  5
16404
  8
0
 10
3474.9479313973579337
 20
185.225723939113891
 30
0.0
 11
3474.9479313973579337
 21
184.6626202280301072
 31
0.0
  0
ARC
  5
16405
  8
0
 10
3474.9873014760569276
 20
184.6626202280301072
 30
0.0
 40
0.0393700786999975
 50
179.9999999999984084
 51
240.000000000394607
  0
LINE
  5
16406
  8
0
 10
3474.9676164367069759
 20
184.6285247397267995
 30
0.0
 11
3475.0569057749571584
 21
184.5769735162301117
 31
0.0
  0
ARC
  5
16407
  8
0
 10
3475.0769559350601412
 20
184.6119193472532913
 30
0.0
 40
0.0402892048323685
 50
240.1549642452604019
 51
266.6515259513572005
  0
LINE
  5
16408
  8
0
 10
3472.6624556495430625
 20
186.3048253343033878
 30
0.0
 11
3472.5453316219868611
 21
186.2551091341443907
 31
0.0
  0
ARC
  5
16409
  8
0
 10
3472.5607147372888903
 20
186.218868785630093
 30
0.0
 40
0.0393700787000011
 50
113.0000000366285065
 51
179.9999999999984084
  0
LINE
  5
1640A
  8
0
 10
3472.5213446585898964
 20
186.218868785630093
 30
0.0
 11
3472.5213446585898964
 21
185.3654739479300986
 31
0.0
  0
ARC
  5
1640B
  8
0
 10
3472.5607147372888903
 20
185.3654739479300986
 30
0.0
 40
0.0393700786999851
 50
180.0
 51
247.000000000054996
  0
LINE
  5
1640C
  8
0
 10
3472.5453316220100533
 20
185.3292335994059954
 30
0.0
 11
3472.653096616008952
 21
185.2834900733847974
 31
0.0
  0
ARC
  5
1640D
  8
0
 10
3472.6693207238809009
 20
185.3217116762974968
 30
0.0
 40
0.0415224349652389
 50
247.000000000054996
 51
264.7967732039197131
  0
ARC
  5
1640E
  8
0
 10
3472.6841570952319671
 20
184.9103528761559119
 30
0.0
 40
0.0198459048296724
 50
182.57255242885131
 51
264.5537064306835759
  0
LINE
  5
1640F
  8
0
 10
3472.6643311913758225
 20
184.9094621041170967
 30
0.0
 11
3472.6474179231859125
 21
185.2859005354767987
 31
0.0
  0
ARC
  5
16410
  8
0
 10
3473.7275849212051071
 20
186.2039315723866082
 30
0.0
 40
0.0180687135022159
 50
189.3097723217852888
 51
271.7940129085524177
  0
LINE
  5
16411
  8
0
 10
3473.7281505860610196
 20
186.1858717154962903
 30
0.0
 11
3474.0306029794628557
 21
186.1858717154962903
 31
0.0
  0
LINE
  5
16412
  8
0
 10
3474.0617896650569492
 20
186.1858717154962903
 30
0.0
 11
3474.081789665056931
 21
186.1858717154962903
 31
0.0
  0
LINE
  5
16413
  8
0
 10
3474.081789665056931
 20
186.1858721542301112
 30
0.0
 11
3474.081789665056931
 21
185.3984710181638889
 31
0.0
  0
LINE
  5
16414
  8
0
 10
3474.0617896650569492
 20
186.1858721542301112
 30
0.0
 11
3474.0617896650569492
 21
185.3984710181638889
 31
0.0
  0
LINE
  5
16415
  8
0
 10
3474.0417817910570193
 20
186.1746078408675089
 30
0.0
 11
3474.0417817910570193
 21
185.4097348927926987
 31
0.0
  0
ARC
  5
16416
  8
0
 10
3474.0936561195630929
 20
186.1753406528229107
 30
0.0
 40
0.0119221022412887
 50
97.3267984276524487
 51
174.4619862713450971
  0
LINE
  5
16417
  8
0
 10
3474.0921357114571038
 20
186.187165409946914
 30
0.0
 11
3474.8789577559568897
 21
186.2855181655301067
 31
0.0
  0
ARC
  5
16418
  8
0
 10
3474.869019975386891
 20
186.3639850347738047
 30
0.0
 40
0.0790936726392714
 50
277.2180461754351768
 51
356.1096851309185922
  0
LINE
  5
16419
  8
0
 10
3474.0417817910570193
 20
186.1169745164301048
 30
0.0
 11
3474.0617896650569492
 21
186.1169745164301048
 31
0.0
  0
LINE
  5
1641A
  8
0
 10
3474.0417817910570193
 20
186.0514577810301091
 30
0.0
 11
3474.0617896650569492
 21
186.0514577810301091
 31
0.0
  0
LINE
  5
1641B
  8
0
 10
3474.0417817910570193
 20
186.0224247539300961
 30
0.0
 11
3474.0617896650569492
 21
186.0224247539300961
 31
0.0
  0
ARC
  5
1641C
  8
0
 10
3474.0299285946539385
 20
186.1740232907519896
 30
0.0
 40
0.0118676014337333
 50
2.8233011017706939
 51
86.7423721442964535
  0
ARC
  5
1641D
  8
0
 10
3473.7275849212051071
 20
185.3804111612737131
 30
0.0
 40
0.0180687135022159
 50
88.2059870914475965
 51
170.6902276782145975
  0
LINE
  5
1641E
  8
0
 10
3473.7281505860610196
 20
185.3984710181638889
 30
0.0
 11
3474.0306029794628557
 21
185.3984710181638889
 31
0.0
  0
LINE
  5
1641F
  8
0
 10
3474.0617896650569492
 20
185.3984710181638889
 30
0.0
 11
3474.081789665056931
 21
185.3984710181638889
 31
0.0
  0
ARC
  5
16420
  8
0
 10
3474.0936561195630929
 20
185.4090020808374106
 30
0.0
 40
0.0119221022412887
 50
185.5380137286547892
 51
262.6732015723475229
  0
LINE
  5
16421
  8
0
 10
3474.0921357114571038
 20
185.3971773237132936
 30
0.0
 11
3474.1517872207550681
 21
185.3897208850495986
 31
0.0
  0
LINE
  5
16422
  8
0
 10
3474.4415473527010363
 20
185.3535008685485934
 30
0.0
 11
3474.6644274603568192
 21
185.3256408550857088
 31
0.0
  0
ARC
  5
16423
  8
0
 10
3474.869019975386891
 20
185.2203576988864029
 30
0.0
 40
0.0790936726392714
 50
3.8903148690814162
 51
67.8421740054425584
  0
ARC
  5
16424
  8
0
 10
3474.0299285946539385
 20
185.4103194429081896
 30
0.0
 40
0.0118676014337333
 50
273.2576278557035039
 51
357.1766988982292901
  0
LINE
  5
16425
  8
0
 10
3474.0417817910570193
 20
185.4673682172301028
 30
0.0
 11
3474.0617896650569492
 21
185.4673682172301028
 31
0.0
  0
LINE
  5
16426
  8
0
 10
3474.0417817910570193
 20
185.5328849526300985
 30
0.0
 11
3474.0617896650569492
 21
185.5328849526300985
 31
0.0
  0
LINE
  5
16427
  8
0
 10
3474.0417817910570193
 20
185.5619179797301115
 30
0.0
 11
3474.0617896650569492
 21
185.5619179797301115
 31
0.0
  0
ARC
  5
16428
  8
0
 10
3474.3873687646760118
 20
185.7921713668301038
 30
0.0
 40
0.7802862510543712
 50
149.3479883457000881
 51
210.6520116542999119
  0
ARC
  5
16429
  8
0
 10
3474.4322261159231857
 20
185.7921713668301038
 30
0.0
 40
0.7156780051414612
 50
313.6858843277265123
 51
46.3141156722734806
  0
ARC
  5
1642A
  8
0
 10
3474.2272900971888703
 20
184.8707669444141004
 30
0.0
 40
0.5244176549766002
 50
78.8698670472770829
 51
98.2779110586366045
  0
ARC
  5
1642B
  8
0
 10
3474.1870102738212154
 20
184.6660289802372859
 30
0.0
 40
0.7330802969273327
 50
69.6828833168979855
 51
78.8698670472770829
  0
LINE
  5
1642C
  8
0
 10
3474.6644274603568192
 20
185.3256408550857088
 30
0.0
 11
3474.6644274603568192
 21
185.3503058811301116
 31
0.0
  0
ARC
  5
1642D
  8
0
 10
3474.6803424826898663
 20
185.3267487567077012
 30
0.0
 40
0.0284293166804593
 50
89.4016544965707141
 51
124.0426749565338014
  0
LINE
  5
1642E
  8
0
 10
3474.680639367465119
 20
185.3551765231754871
 30
0.0
 11
3474.7310022634569577
 21
185.3485515494301126
 31
0.0
  0
ARC
  5
1642F
  8
0
 10
3474.7325290870930985
 20
185.3818560333668017
 30
0.0
 40
0.0333394637134188
 50
267.3751479978973862
 51
303.0004967550713104
  0
LINE
  5
16430
  8
0
 10
3474.7506873028569316
 20
185.3538953638301052
 30
0.0
 11
3474.7506873028569316
 21
185.3774092894300907
 31
0.0
  0
ARC
  5
16431
  8
0
 10
3474.7676173682912122
 20
185.3662633849459098
 30
0.0
 40
0.0202696399176076
 50
82.1883930059726993
 51
146.641101077535609
  0
LINE
  5
16432
  8
0
 10
3474.7703723422569055
 20
185.3863449292300913
 30
0.0
 11
3474.8722883310570069
 21
185.3713607882301062
 31
0.0
  0
ARC
  5
16433
  8
0
 10
3474.8643629390981005
 20
185.3371885570745121
 30
0.0
 40
0.0350792420079398
 50
34.4097843552007205
 51
76.9425310674825482
  0
LINE
  5
16434
  8
0
 10
3474.89330391035719
 20
185.357012113830109
 30
0.0
 11
3474.8988508796351198
 21
185.2936101814605081
 31
0.0
  0
ARC
  5
16435
  8
0
 10
3472.5187974372461213
 20
185.4021713793542858
 30
0.0
 40
2.270000102194567
 50
336.522584656344975
 51
359.5324337188558843
  0
ARC
  5
16436
  8
0
 10
3474.6192247358940222
 20
184.4898638995639999
 30
0.0
 40
0.0199998485887262
 50
156.5225846563390064
 51
246.0226172572922962
  0
LINE
  5
16437
  8
0
 10
3474.6110972775568371
 20
184.4715899190300945
 30
0.0
 11
3474.6476468868559095
 21
184.4553342692962019
 31
0.0
  0
ARC
  5
16438
  8
0
 10
3474.6557744891952098
 20
184.4736085736078905
 30
0.0
 40
0.0200002029452703
 50
246.0226172572936036
 51
329.8687764525553803
  0
ARC
  5
16439
  8
0
 10
3472.5226098859811827
 20
185.4016692201313958
 30
0.0
 40
2.3461714799281981
 50
336.4316320398618245
 51
359.2730888717198923
  0
LINE
  5
1643A
  8
0
 10
3477.9400573816178621
 20
166.1071319967300894
 30
0.0
 11
3478.032972569856156
 21
166.1071319967300894
 31
0.0
  0
LINE
  5
1643B
  8
0
 10
3477.940057381556926
 20
164.6110690046301102
 30
0.0
 11
3478.032972569856156
 21
164.6110690045300942
 31
0.0
  0
LINE
  5
1643C
  8
0
 10
3476.148718799056951
 20
168.182451394536514
 30
0.0
 11
3476.148718799056951
 21
168.0738453070219975
 31
0.0
  0
LINE
  5
1643D
  8
0
 10
3476.148718799056951
 20
168.2331162486300968
 30
0.0
 11
3475.1644668304570587
 21
168.2331162486302105
 31
0.0
  0
LINE
  5
1643E
  8
0
 10
3476.1310693850100506
 20
168.2016201857300928
 30
0.0
 11
3475.182116244503959
 21
168.2016201857300928
 31
0.0
  0
LINE
  5
1643F
  8
0
 10
3475.9715534446568199
 20
168.2016201857300928
 30
0.0
 11
3475.9715534446568199
 21
168.2331162486300968
 31
0.0
  0
ARC
  5
16440
  8
0
 10
3476.1288073353412074
 20
168.1818278037592052
 30
0.0
 40
0.0199212261868846
 50
1.7938131360876091
 51
83.480017772549644
  0
LINE
  5
16441
  8
0
 10
3476.1290337595569326
 20
167.5835099494300948
 30
0.0
 11
3475.1841518697569882
 21
167.5835099494300948
 31
0.0
  0
LINE
  5
16442
  8
0
 10
3476.1953095358949213
 20
167.5441398707301062
 30
0.0
 11
3475.1178760936190884
 21
167.5441398707301062
 31
0.0
  0
LINE
  5
16443
  8
0
 10
3476.0699786415561903
 20
167.5441398707301062
 30
0.0
 11
3476.0699786415561903
 21
167.5835099494300948
 31
0.0
  0
LINE
  5
16444
  8
0
 10
3476.1290337595569326
 20
167.5835099494300948
 30
0.0
 11
3476.1290337595569326
 21
168.055950894359313
 31
0.0
  0
LINE
  5
16445
  8
0
 10
3475.1841518697569882
 20
168.0559508943300955
 30
0.0
 11
3475.1841518697569882
 21
167.5835099494300948
 31
0.0
  0
ARC
  5
16446
  8
0
 10
3476.1919084349328841
 20
167.5033875001921899
 30
0.0
 40
0.0408940483714796
 50
55.3284957858244297
 51
85.2292792609320031
  0
LINE
  5
16447
  8
0
 10
3476.2151718552768216
 20
167.5370198724858994
 30
0.0
 11
3476.3287808633958775
 21
167.4574699885810958
 31
0.0
  0
ARC
  5
16448
  8
0
 10
3476.3061991139561542
 20
167.4252199081300887
 30
0.0
 40
0.0393700786999949
 50
0.0
 51
55.0000000001119034
  0
LINE
  5
16449
  8
0
 10
3476.3455691926578766
 20
167.1504390833300988
 30
0.0
 11
3474.9676164368570426
 21
167.1504390833300988
 31
0.0
  0
LINE
  5
1644A
  8
0
 10
3476.3455691926578766
 20
167.1287855400300941
 30
0.0
 11
3474.9676164368570426
 21
167.1287855400302931
 31
0.0
  0
LINE
  5
1644B
  8
0
 10
3476.3455691926578766
 20
167.1091005006300918
 30
0.0
 11
3474.9676164368570426
 21
167.1091005006300918
 31
0.0
  0
LINE
  5
1644C
  8
0
 10
3476.3455691926578766
 20
166.5185493195301092
 30
0.0
 11
3474.9676164368570426
 21
166.5185493195301092
 31
0.0
  0
LINE
  5
1644D
  8
0
 10
3476.3455691926578766
 20
167.4252199081300887
 30
0.0
 11
3476.3455691926578766
 21
167.1504390833300988
 31
0.0
  0
LINE
  5
1644E
  8
0
 10
3476.3455691926578766
 20
167.1287855400300941
 30
0.0
 11
3476.3455691926578766
 21
167.1091005006300918
 31
0.0
  0
LINE
  5
1644F
  8
0
 10
3476.3455691926578766
 20
167.0972974041368957
 30
0.0
 11
3476.3455691926578766
 21
166.5298671289189087
 31
0.0
  0
LINE
  5
16450
  8
0
 10
3476.3455691926578766
 20
166.5185493195301092
 30
0.0
 11
3476.3455691926578766
 21
166.4890217605301075
 31
0.0
  0
ARC
  5
16451
  8
0
 10
3476.3336090391399011
 20
167.0971886459138886
 30
0.0
 40
0.0119606479972588
 50
0.5209979456151091
 51
84.8228822970573333
  0
LINE
  5
16452
  8
0
 10
3476.2766715549569199
 20
167.1287855400300941
 30
0.0
 11
3476.2766715549569199
 21
167.1504390833300988
 31
0.0
  0
ARC
  5
16453
  8
0
 10
3476.3334413032112025
 20
166.5305491873430128
 30
0.0
 40
0.0121470533921735
 50
278.9284135146675112
 51
356.7811425545677935
  0
LINE
  5
16454
  8
0
 10
3475.1644668304570587
 20
168.182451394536514
 30
0.0
 11
3475.1644668304570587
 21
168.0738453070219975
 31
0.0
  0
LINE
  5
16455
  8
0
 10
3475.3416321848571897
 20
168.2016201857300928
 30
0.0
 11
3475.3416321848571897
 21
168.2331162486300968
 31
0.0
  0
ARC
  5
16456
  8
0
 10
3475.1843782941728023
 20
168.1818278037592052
 30
0.0
 40
0.0199212261868846
 50
96.519982227450356
 51
178.2061868639123929
  0
LINE
  5
16457
  8
0
 10
3475.2432069879569099
 20
167.5441398707301062
 30
0.0
 11
3475.2432069879569099
 21
167.5835099494300948
 31
0.0
  0
ARC
  5
16458
  8
0
 10
3475.1212771945811255
 20
167.5033875001921899
 30
0.0
 40
0.0408940483714796
 50
94.7707207390679827
 51
124.6715042141754992
  0
LINE
  5
16459
  8
0
 10
3475.098013774237188
 20
167.5370198724858994
 30
0.0
 11
3474.9844047661172226
 21
167.4574699885810958
 31
0.0
  0
ARC
  5
1645A
  8
0
 10
3475.0069865155578555
 20
167.4252199081300887
 30
0.0
 40
0.0393700786999949
 50
124.9999999998881037
 51
180.0
  0
LINE
  5
1645B
  8
0
 10
3474.9676164368570426
 20
167.4252199081300887
 30
0.0
 11
3474.9676164368570426
 21
167.1504390833300988
 31
0.0
  0
LINE
  5
1645C
  8
0
 10
3474.9676164368570426
 20
167.1287855400300941
 30
0.0
 11
3474.9676164368570426
 21
167.1091005006300918
 31
0.0
  0
LINE
  5
1645D
  8
0
 10
3474.9676164368570426
 20
167.0972974041368957
 30
0.0
 11
3474.9676164368570426
 21
166.5298671289189087
 31
0.0
  0
LINE
  5
1645E
  8
0
 10
3474.9676164368570426
 20
166.5185493195301092
 30
0.0
 11
3474.9676164368570426
 21
166.4890226528426069
 31
0.0
  0
ARC
  5
1645F
  8
0
 10
3474.979576590375018
 20
167.0971886459138886
 30
0.0
 40
0.0119606479972588
 50
95.1771177029426667
 51
179.4790020543848925
  0
LINE
  5
16460
  8
0
 10
3475.0365140745561803
 20
167.1287855400300941
 30
0.0
 11
3475.0365140745561803
 21
167.1504390833300988
 31
0.0
  0
ARC
  5
16461
  8
0
 10
3474.9797443263028072
 20
166.5305491873430128
 30
0.0
 40
0.0121470533921735
 50
183.2188574454305012
 51
261.0715864853324888
  0
ARC
  5
16462
  8
0
 10
3474.6920998181690265
 20
170.3917204467452109
 30
0.0
 40
3.2934611085212082
 50
263.2361601063259968
 51
273.8118440484631719
  0
ARC
  5
16463
  8
0
 10
3475.0109658740020677
 20
165.9675295361494136
 30
0.0
 40
1.1423936047939931
 50
92.1745069874469323
 51
95.017624473513024
  0
ARC
  5
16464
  8
0
 10
3474.3063647811081864
 20
167.1075968466647055
 30
0.0
 40
0.0137554816577966
 50
99.0337157263624732
 51
121.1480593453871961
  0
LINE
  5
16465
  8
0
 10
3474.2992497392569931
 20
167.1193692489300986
 30
0.0
 11
3474.2671517856570063
 21
167.0849348953300932
 31
0.0
  0
ARC
  5
16466
  8
0
 10
3474.2866571157510407
 20
167.0652638588998968
 30
0.0
 40
0.0277021222349674
 50
134.7576544759913872
 51
180.0782589666310116
  0
LINE
  5
16467
  8
0
 10
3474.2589550193570176
 20
167.065226021230103
 30
0.0
 11
3474.2589550193570176
 21
166.5619385118257014
 31
0.0
  0
LINE
  5
16468
  8
0
 10
3474.9844047661881632
 20
167.4574699886300948
 30
0.0
 11
3476.3287808633258464
 21
167.4574699886300948
 31
0.0
  0
LINE
  5
16469
  8
0
 10
3475.1841518697569882
 20
168.0559508943300955
 30
0.0
 11
3475.1644668304570587
 21
168.0738453070219975
 31
0.0
  0
LINE
  5
1646A
  8
0
 10
3476.1290337597570215
 20
168.0559508943300955
 30
0.0
 11
3476.148718799056951
 21
168.0738453070219975
 31
0.0
  0
ARC
  5
1646B
  8
0
 10
3473.0137427557888259
 20
165.3851402087094868
 30
0.0
 40
0.0354429335330525
 50
135.0023083553585082
 51
180.6173483798615962
  0
LINE
  5
1646C
  8
0
 10
3472.9886798074571743
 20
165.4102011376301107
 30
0.0
 11
3473.0210734800571117
 21
165.4425898764301053
 31
0.0
  0
ARC
  5
1646D
  8
0
 10
3473.0461297120082236
 20
165.4175261080189046
 30
0.0
 40
0.0354401925297979
 50
90.0018450481013446
 51
134.9913845298935087
  0
LINE
  5
1646E
  8
0
 10
3473.0461285707569914
 20
165.4529663005303064
 30
0.0
 11
3473.8147341308567775
 21
165.4529633814300951
 31
0.0
  0
ARC
  5
1646F
  8
0
 10
3473.7450356758808994
 20
165.3259640171472995
 30
0.0
 40
0.1510267824564056
 50
41.3184570277211876
 51
53.7928087292794075
  0
ARC
  5
16470
  8
0
 10
3473.8142342979349451
 20
165.4114383140770883
 30
0.0
 40
0.0415280754625599
 50
61.1879637118989805
 51
89.3103699594053637
  0
ARC
  5
16471
  8
0
 10
3473.7937856284729605
 20
165.3718185400396123
 30
0.0
 40
0.0841680406069963
 50
11.3653384285832004
 51
39.7850903828110489
  0
ARC
  5
16472
  8
0
 10
3474.6914362095958495
 20
170.3604120340716861
 30
0.0
 40
3.2934611085212082
 50
262.736330229110024
 51
274.8103091407979264
  0
ARC
  5
16473
  8
0
 10
3474.6920998181690265
 20
163.2354440863105935
 30
0.0
 40
3.2934611085212082
 50
86.188155951536757
 51
96.7638398936740316
  0
ARC
  5
16474
  8
0
 10
3475.0109658740020677
 20
167.6596349969063908
 30
0.0
 40
1.1423936047939931
 50
264.982375526486976
 51
267.8254930125531246
  0
ARC
  5
16475
  8
0
 10
3474.3063647811081864
 20
166.519567686391099
 30
0.0
 40
0.0137554816577966
 50
238.8519406546128039
 51
260.9662842736374841
  0
LINE
  5
16476
  8
0
 10
3474.2992497392569931
 20
166.5077952841257058
 30
0.0
 11
3474.2671517856570063
 21
166.5422296377257112
 31
0.0
  0
ARC
  5
16477
  8
0
 10
3474.2866571157510407
 20
166.5619006741559076
 30
0.0
 40
0.0277021222349674
 50
179.9217410333689884
 51
225.2423455240086128
  0
ARC
  5
16478
  8
0
 10
3474.6914362095958495
 20
163.2667524989840899
 30
0.0
 40
3.2934611085212082
 50
85.1896908592020878
 51
97.2636697708899476
  0
LINE
  5
16479
  8
0
 10
3476.1290337595569326
 20
164.6501590346005912
 30
0.0
 11
3476.1290337595569326
 21
164.4319351463300904
 31
0.0
  0
LINE
  5
1647A
  8
0
 10
3476.1290337595569326
 20
164.4319351463300904
 30
0.0
 11
3476.1191912398571731
 21
164.4220926266301035
 31
0.0
  0
LINE
  5
1647B
  8
0
 10
3476.1191912398571731
 20
164.4220926266301035
 30
0.0
 11
3475.1939952881571116
 21
164.4220926266301035
 31
0.0
  0
LINE
  5
1647C
  8
0
 10
3475.1939952881571116
 20
164.4220926266301035
 30
0.0
 11
3475.1841518697569882
 21
164.4319351463300904
 31
0.0
  0
LINE
  5
1647D
  8
0
 10
3475.1841518697569882
 20
164.4319351463300904
 30
0.0
 11
3476.1290337595569326
 21
164.4319351463300904
 31
0.0
  0
ARC
  5
1647E
  8
0
 10
3476.1009476365429691
 20
164.4141459624082131
 30
0.0
 40
0.0080633792227742
 50
358.1866760676430204
 51
80.2395985896404227
  0
LINE
  5
1647F
  8
0
 10
3476.1090069778579164
 20
164.4138908113677076
 30
0.0
 11
3476.0510796662570101
 21
163.0236353324179106
 31
0.0
  0
ARC
  5
16480
  8
0
 10
3476.0312483432549016
 20
163.0245240941430893
 30
0.0
 40
0.0198512284102725
 50
275.6642395901187115
 51
357.4339460487959741
  0
LINE
  5
16481
  8
0
 10
3470.0317703906071074
 20
163.6008227826281995
 30
0.0
 11
3470.9182530873049473
 21
163.0890117589401029
 31
0.0
  0
ARC
  5
16482
  8
0
 10
3470.8887255278800694
 20
163.037868525805095
 30
0.0
 40
0.0590551188387076
 50
239.987049935127402
 51
59.9999999943107127
  0
LINE
  5
16483
  8
0
 10
3470.8591864097570578
 20
162.9867319678301101
 30
0.0
 11
3469.9728425318207883
 21
163.4987299893084867
 31
0.0
  0
ARC
  5
16484
  8
0
 10
3470.0023174288348855
 20
163.5497700554682865
 30
0.0
 40
0.0589394427153805
 50
60.0188108364032402
 51
239.9941901603999099
  0
LINE
  5
16485
  8
0
 10
3470.0317703906148381
 20
163.6008227826237089
 30
0.0
 11
3470.2286207843671946
 21
163.941777665980112
 31
0.0
  0
ARC
  5
16486
  8
0
 10
3473.5699786420041164
 20
162.0126438067823926
 30
0.0
 40
3.8582677174477338
 50
90.0000000081291915
 51
149.9999999918751996
  0
LINE
  5
16487
  8
0
 10
3473.5699786414570553
 20
165.8709115242301095
 30
0.0
 11
3473.8656800007279344
 21
165.8709115242720031
 31
0.0
  0
LINE
  5
16488
  8
0
 10
3470.9182530872831194
 20
163.0890117589530064
 30
0.0
 11
3471.1151034810791316
 21
163.4299666423171971
 31
0.0
  0
ARC
  5
16489
  8
0
 10
3473.5699786421828321
 20
162.012643806472397
 30
0.0
 40
2.8346456705577481
 50
90.0000000146690269
 51
149.9999999867864915
  0
LINE
  5
1648A
  8
0
 10
3473.5699786414570553
 20
164.8472894770301025
 30
0.0
 11
3473.8656798296160559
 21
164.8472894771057895
 31
0.0
  0
ARC
  5
1648B
  8
0
 10
3474.3716131256969675
 20
166.492310587093499
 30
0.0
 40
0.5960123802611949
 50
304.948182873076405
 51
359.6839231572349718
  0
ARC
  5
1648C
  8
0
 10
3480.973880202689088
 20
166.4900461468810988
 30
0.0
 40
4.6283111233963137
 50
180.0126813028369952
 51
184.9667404975907914
  0
LINE
  5
1648D
  8
0
 10
3475.1841518697569882
 20
164.7328419808789874
 30
0.0
 11
3475.1841518697569882
 21
164.4319351463300904
 31
0.0
  0
LINE
  5
1648E
  8
0
 10
3475.2041786514560044
 20
164.4138908113677076
 30
0.0
 11
3475.2621059630578202
 21
163.0236353324179106
 31
0.0
  0
ARC
  5
1648F
  8
0
 10
3475.2819372860590192
 20
163.0245240941430893
 30
0.0
 40
0.0198512284102725
 50
182.5660539512039122
 51
264.3357604098811748
  0
ARC
  5
16490
  8
0
 10
3475.2122379927709517
 20
164.4141459624082131
 30
0.0
 40
0.0080633792227742
 50
99.7604014103595915
 51
181.8133239323570081
  0
ARC
  5
16491
  8
0
 10
3473.0137427557888259
 20
165.3330603905507132
 30
0.0
 40
0.0354429335330525
 50
179.3826516201382901
 51
224.9976916446414066
  0
LINE
  5
16492
  8
0
 10
3472.9886798074571743
 20
165.3079994616300894
 30
0.0
 11
3473.0210734800571117
 21
165.2756107228300948
 31
0.0
  0
ARC
  5
16493
  8
0
 10
3473.0461297120082236
 20
165.3006744912412955
 30
0.0
 40
0.0354401925297979
 50
225.0086154701064913
 51
269.9981549518986981
  0
LINE
  5
16494
  8
0
 10
3473.0461285707569914
 20
165.2652342987298937
 30
0.0
 11
3473.8147341308567775
 21
165.265237217830105
 31
0.0
  0
ARC
  5
16495
  8
0
 10
3473.7450356758808994
 20
165.3922365821129006
 30
0.0
 40
0.1510267824564056
 50
306.2071912707206138
 51
318.6815429722788053
  0
ARC
  5
16496
  8
0
 10
3473.8142342979349451
 20
165.3067622851831118
 30
0.0
 40
0.0415280754625599
 50
270.6896300405945794
 51
298.8120362881010124
  0
ARC
  5
16497
  8
0
 10
3473.7937856284729605
 20
165.3463820592205877
 30
0.0
 40
0.0841680406069963
 50
320.21490961718888
 51
348.6346615714168138
  0
ARC
  5
16498
  8
0
 10
3473.708938174368086
 20
165.3591002996300858
 30
0.0
 40
0.1699111954880413
 50
350.068480252425104
 51
9.9315197475764734
  0
ARC
  5
16499
  8
0
 10
3473.5745358179151481
 20
165.3591002996300858
 30
0.0
 40
0.2578866178484561
 50
338.6557701634162072
 51
21.3442298365837999
  0
LINE
  5
1649A
  8
0
 10
3474.3465751158241801
 20
164.7292042344508047
 30
0.0
 11
3474.5542304291238906
 21
164.7291540970865924
 31
0.0
  0
ARC
  5
1649B
  8
0
 10
3474.5535951189631305
 20
162.0978723637533108
 30
0.0
 40
2.6312818100295061
 50
76.1347873863422677
 51
86.2945786645692863
  0
ARC
  5
1649C
  8
0
 10
3474.5535951189631305
 20
162.0978723637533108
 30
0.0
 40
2.6312818100295061
 50
88.3160155450306945
 51
89.9861662133184552
  0
LINE
  5
1649D
  8
0
 10
3474.3463338042970463
 20
165.9890217605301075
 30
0.0
 11
3474.5542306099569032
 21
165.9890217605301075
 31
0.0
  0
ARC
  5
1649E
  8
0
 10
3474.5542306099569032
 20
166.9674426744506093
 30
0.0
 40
0.978420913920436
 50
270.0
 51
274.5863086221846174
  0
LINE
  5
1649F
  8
0
 10
3472.781939271356805
 20
184.8905965636301119
 30
0.0
 11
3472.781939271356805
 21
183.9538744363300964
 31
0.0
  0
ARC
  5
164A0
  8
0
 10
3460.4058683782618573
 20
184.314785839528696
 30
0.0
 40
12.3813322300900897
 50
348.5034692216582926
 51
358.3296119212693043
  0
ARC
  5
164A1
  8
0
 10
3487.443472831786039
 20
178.3602960919550071
 30
0.0
 40
15.3070962974235805
 50
166.8330811429308085
 51
174.1856069559430011
  0
ARC
  5
164A2
  8
0
 10
3476.9894001334469067
 20
179.0566018280819094
 30
0.0
 40
4.8501215972677922
 50
169.8538201980587985
 51
199.8818586334444944
  0
ARC
  5
164A3
  8
0
 10
3475.7081519076459699
 20
179.1427558218614138
 30
0.0
 40
3.7106975563227089
 50
207.8868294160753862
 51
248.109803870869797
  0
ARC
  5
164A4
  8
0
 10
3466.1031911107102133
 20
157.1635579946276948
 30
0.0
 40
20.2775238659694992
 50
58.3746243685745085
 51
66.0807229280149073
  0
ARC
  5
164A5
  8
0
 10
3475.8262317131411692
 20
172.8594924703994877
 30
0.0
 40
1.814768975057516
 50
3.0391771341362328
 51
59.9139382990148306
  0
LINE
  5
164A6
  8
0
 10
3477.6384482438570558
 20
172.9557093017301099
 30
0.0
 11
3477.63844010988214
 21
166.1907095508852876
 31
0.0
  0
LINE
  5
164A7
  8
0
 10
3477.6384381100911014
 20
164.5274899692068971
 30
0.0
 11
3477.6384353147568618
 21
162.2026196920301118
 31
0.0
  0
LINE
  5
164A8
  8
0
 10
3475.9321836892190731
 20
163.0047697920300891
 30
0.0
 11
3475.9321824283570095
 21
162.2026196922300869
 31
0.0
  0
LINE
  5
164A9
  8
0
 10
3475.3810032122059965
 20
163.0047697920300891
 30
0.0
 11
3475.3810019513439329
 21
162.2026196922300869
 31
0.0
  0
LINE
  5
164AA
  8
0
 10
3478.189628053701199
 20
172.9557093017301099
 30
0.0
 11
3478.1896198457370701
 21
166.1291727888697096
 31
0.0
  0
LINE
  5
164AB
  8
0
 10
3478.189617993927186
 20
164.5890285337357
 30
0.0
 11
3478.1896151246010049
 21
162.2026196920301118
 31
0.0
  0
ARC
  5
164AC
  8
0
 10
3476.047374999459862
 20
162.2094462915221129
 30
0.0
 40
0.6664080144433548
 50
180.5869409737879892
 51
234.6050911907335887
  0
ARC
  5
164AD
  8
0
 10
3476.5238803410297805
 20
162.8800806385353042
 30
0.0
 40
1.4890912876044271
 50
234.6050911907335887
 51
259.28788057076531
  0
ARC
  5
164AE
  8
0
 10
3476.7809234399569505
 20
164.2388673237099113
 30
0.0
 40
2.8719768253526401
 50
259.28788057076531
 51
282.2478455837630804
  0
ARC
  5
164AF
  8
0
 10
3477.1134257420371796
 20
162.7071768079838137
 30
0.0
 40
1.304611642361168
 50
282.2478455837630804
 51
313.9416162015954797
  0
ARC
  5
164B0
  8
0
 10
3477.5453809441060002
 20
162.2048126937156098
 30
0.0
 40
0.6442379130221692
 50
317.2852616278224218
 51
359.8049633820635904
  0
ARC
  5
164B1
  8
0
 10
3476.3939035593589324
 20
162.5358307472600075
 30
0.0
 40
0.5693989323968855
 50
215.8169714017529088
 51
252.7047287870013008
  0
ARC
  5
164B2
  8
0
 10
3476.7799341544427989
 20
163.9128925655664943
 30
0.0
 40
1.9993794630352131
 50
253.8745431619005046
 51
288.6553967106136156
  0
ARC
  5
164B3
  8
0
 10
3477.3068122309077808
 20
162.3748483263578066
 30
0.0
 40
0.3736789400832459
 50
287.5493684959790244
 51
332.5548000599039824
  0
LINE
  5
164B4
  8
0
 10
3473.3331203737570831
 20
184.8905965636301119
 30
0.0
 11
3473.3331203737570831
 21
183.9538744363300964
 31
0.0
  0
ARC
  5
164B5
  8
0
 10
3460.957049480663045
 20
184.314785839528696
 30
0.0
 40
12.3813322300900897
 50
348.5034692216582926
 51
358.3296119212693043
  0
ARC
  5
164B6
  8
0
 10
3487.994653934184953
 20
178.3602960919550071
 30
0.0
 40
15.3070962974235805
 50
166.8330811429308085
 51
174.1856069559430011
  0
ARC
  5
164B7
  8
0
 10
3476.8239483837551234
 20
179.0896348862546006
 30
0.0
 40
4.1399377696882951
 50
168.5565674958046998
 51
203.5299347678974868
  0
ARC
  5
164B8
  8
0
 10
3476.5149435915800495
 20
180.1191111995281915
 30
0.0
 40
4.3990454515766091
 50
217.5704099089155079
 51
248.5682937601470996
  0
ARC
  5
164B9
  8
0
 10
3465.9310742051679881
 20
156.3944567636578995
 30
0.0
 40
21.5848547054717201
 50
59.3911834643142598
 51
65.4258833886980682
  0
ARC
  5
164BA
  8
0
 10
3475.7859395742771085
 20
172.8506200119466882
 30
0.0
 40
2.405984635225177
 50
2.503377976315027
 51
61.8370528731726594
  0
ENDSEC
  0
EOF
