  0
SECTION
  2
HEADER
  9
$ACADVER
  1
AC1009
  9
$INSBASE
 10
701.2156222014231162
 20
88.0824612971851053
 30
0.0
  9
$EXTMIN
 10
679.2866926325159511
 20
83.3052080968712829
 30
0.0
  9
$EXTMAX
 10
701.2156222014233435
 20
141.8698715164987902
 30
0.0
  9
$LIMMIN
 10
0.0
 20
0.0
  9
$LIMMAX
 10
11.6929133858000007
 20
8.2677165353999982
  9
$ORTHOMODE
 70
     0
  9
$REGENMODE
 70
     1
  9
$FILLMODE
 70
     1
  9
$QTEXTMODE
 70
     0
  9
$MIRRTEXT
 70
     0
  9
$DRAGMODE
 70
     2
  9
$LTSCALE
 40
0.6431102362
  9
$OSMODE
 70
  3839
  9
$ATTMODE
 70
     1
  9
$TEXTSIZE
 40
0.2
  9
$TRACEWID
 40
0.05
  9
$TEXTSTYLE
  7
STANDARD
  9
$CLAYER
  8
0
  9
$CELTYPE
  6
BYLAYER
  9
$CECOLOR
 62
   256
  9
$DIMSCALE
 40
1.0
  9
$DIMASZ
 40
0.1875
  9
$DIMEXO
 40
0.0625
  9
$DIMDLI
 40
0.4443307087
  9
$DIMRND
 40
0.0
  9
$DIMDLE
 40
0.0
  9
$DIMEXE
 40
0.125
  9
$DIMTP
 40
0.01
  9
$DIMTM
 40
0.01
  9
$DIMTXT
 40
1.0
  9
$DIMCEN
 40
0.1052362205
  9
$DIMTSZ
 40
0.0
  9
$DIMTOL
 70
     1
  9
$DIMLIM
 70
     0
  9
$DIMTIH
 70
     0
  9
$DIMTOH
 70
     1
  9
$DIMSE1
 70
     0
  9
$DIMSE2
 70
     0
  9
$DIMTAD
 70
     0
  9
$DIMZIN
 70
     0
  9
$DIMBLK
  1

  9
$DIMASO
 70
     1
  9
$DIMSHO
 70
     1
  9
$DIMPOST
  1
\X
  9
$DIMAPOST
  1

  9
$DIMALT
 70
     1
  9
$DIMALTD
 70
     2
  9
$DIMALTF
 40
25.3999999999999986
  9
$DIMLFAC
 40
1.0
  9
$DIMTOFL
 70
     0
  9
$DIMTVP
 40
0.0
  9
$DIMTIX
 70
     0
  9
$DIMSOXD
 70
     0
  9
$DIMSAH
 70
     0
  9
$DIMBLK1
  1

  9
$DIMBLK2
  1

  9
$DIMSTYLE
  2
STANDARD
  9
$DIMCLRD
 70
     0
  9
$DIMCLRE
 70
     0
  9
$DIMCLRT
 70
     0
  9
$DIMTFAC
 40
1.0
  9
$DIMGAP
 40
0.09
  9
$LUNITS
 70
     2
  9
$LUPREC
 70
     4
  9
$SKETCHINC
 40
0.1
  9
$FILLETRAD
 40
0.0
  9
$AUNITS
 70
     0
  9
$AUPREC
 70
     0
  9
$MENU
  1
.
  9
$ELEVATION
 40
0.0
  9
$PELEVATION
 40
0.0
  9
$THICKNESS
 40
0.0
  9
$LIMCHECK
 70
     0
  9
$BLIPMODE
 70
     0
  9
$CHAMFERA
 40
0.0
  9
$CHAMFERB
 40
0.0
  9
$SKPOLY
 70
     0
  9
$TDCREATE
 40
2458172.5207638889551163
  9
$TDUPDATE
 40
2459131.6748726852238178
  9
$TDINDWG
 40
0.3977784954
  9
$TDUSRTIMER
 40
0.3977784954
  9
$USRTIMER
 70
     1
  9
$ANGBASE
 50
0.0
  9
$ANGDIR
 70
     0
  9
$PDMODE
 70
     0
  9
$PDSIZE
 40
0.3125
  9
$PLINEWID
 40
0.0
  9
$COORDS
 70
     1
  9
$SPLFRAME
 70
     0
  9
$SPLINETYPE
 70
     6
  9
$SPLINESEGS
 70
     8
  9
$ATTDIA
 70
     1
  9
$ATTREQ
 70
     1
  9
$HANDLING
 70
     1
  9
$HANDSEED
  5
111FF
  9
$SURFTAB1
 70
     6
  9
$SURFTAB2
 70
     6
  9
$SURFTYPE
 70
     6
  9
$SURFU
 70
     6
  9
$SURFV
 70
     6
  9
$UCSNAME
  2

  9
$UCSORG
 10
0.0
 20
0.0
 30
0.0
  9
$UCSXDIR
 10
1.0
 20
0.0
 30
0.0
  9
$UCSYDIR
 10
0.0
 20
1.0
 30
0.0
  9
$PUCSNAME
  2

  9
$PUCSORG
 10
0.0
 20
0.0
 30
0.0
  9
$PUCSXDIR
 10
1.0
 20
0.0
 30
0.0
  9
$PUCSYDIR
 10
0.0
 20
1.0
 30
0.0
  9
$USERI1
 70
     0
  9
$USERI2
 70
     0
  9
$USERI3
 70
     0
  9
$USERI4
 70
     0
  9
$USERI5
 70
     0
  9
$USERR1
 40
0.0
  9
$USERR2
 40
0.0
  9
$USERR3
 40
0.0
  9
$USERR4
 40
0.0
  9
$USERR5
 40
0.0
  9
$WORLDVIEW
 70
     1
  9
$SHADEDGE
 70
     3
  9
$SHADEDIF
 70
    70
  9
$TILEMODE
 70
     1
  9
$MAXACTVP
 70
    64
  9
$PLIMCHECK
 70
     0
  9
$PEXTMIN
 10
1.0000000000000000E+20
 20
1.0000000000000000E+20
 30
1.0000000000000000E+20
  9
$PEXTMAX
 10
-1.0000000000000000E+20
 20
-1.0000000000000000E+20
 30
-1.0000000000000000E+20
  9
$PLIMMIN
 10
0.0
 20
0.0
  9
$PLIMMAX
 10
12.0
 20
9.0
  9
$UNITMODE
 70
     0
  9
$VISRETAIN
 70
     1
  9
$PLINEGEN
 70
     0
  9
$PSLTSCALE
 70
     1
  0
ENDSEC
  0
SECTION
  2
TABLES
  0
TABLE
  2
VPORT
 70
     1
  0
VPORT
  2
*ACTIVE
 70
     0
 10
0.0
 20
0.0
 11
1.0
 21
1.0
 12
0.0
 22
0.0
 13
0.0
 23
0.0
 14
1.0
 24
1.0
 15
0.0
 25
0.0
 16
0.0
 26
0.0
 36
247.2754878317925886
 17
690.25115966796875
 27
112.5894813537596946
 37
0.0
 40
62.5319472080266365
 41
3.1396160558464219
 42
50.0
 43
0.0
 44
0.0
 50
0.0
 51
0.0
 71
     0
 72
   100
 73
     1
 74
     1
 75
     0
 76
     0
 77
     0
 78
     0
  0
ENDTAB
  0
TABLE
  2
LTYPE
 70
     2
  0
LTYPE
  2
CONTINUOUS
 70
     0
  3
Solid line
 72
    65
 73
     0
 40
0.0
  0
LTYPE
  2
PHANTOM2
 70
     0
  3
___ _ _ ___ _ _ ___ _ _ ___ _ _
 72
    65
 73
     6
 40
1.25
 49
0.625
 49
-0.125
 49
0.125
 49
-0.125
 49
0.125
 49
-0.125
  0
ENDTAB
  0
TABLE
  2
LAYER
 70
     2
  0
LAYER
  2
0
 70
     0
 62
   255
  6
CONTINUOUS
  0
LAYER
  2
DEFPOINTS
 70
     0
 62
     7
  6
CONTINUOUS
  0
ENDTAB
  0
TABLE
  2
STYLE
 70
     1
  0
STYLE
  2
STANDARD
 70
     0
 40
0.0
 41
0.8
 50
0.0
 71
     0
 42
0.2
  3
txt
  4

  0
ENDTAB
  0
TABLE
  2
VIEW
 70
     0
  0
ENDTAB
  0
TABLE
  2
UCS
 70
     0
  0
ENDTAB
  0
TABLE
  2
APPID
 70
    10
  0
APPID
  2
ACAD
 70
     0
  0
APPID
  2
ACAD_MLEADERVER
 70
     0
  0
APPID
  2
ACAD_EXEMPT_FROM_CAD_STANDARDS
 70
     0
  0
APPID
  2
ACAD_DSTYLE_DIMJAG
 70
     0
  0
APPID
  2
ACAD_DSTYLE_DIMTALN
 70
     0
  0
APPID
  2
ACAD_NAV_VCDISPLAY
 70
     0
  0
APPID
  2
ACAECLAYERSTANDARD
 70
     0
  0
APPID
  2
ACCMTRANSPARENCY
 70
     0
  0
APPID
  2
DCO15
 70
     0
  0
APPID
  2
ACDBATTR
 70
     0
  0
ENDTAB
  0
TABLE
  2
DIMSTYLE
 70
     1
  0
DIMSTYLE
  2
STANDARD
 70
     0
  3

  4

  5

  6

  7

 40
1.0
 41
0.1875
 42
0.0625
 43
0.38
 44
0.125
 45
0.0
 46
0.0
 47
0.01
 48
0.01
140
0.15625
141
0.09
142
0.0
143
25.3999999999999986
144
1.0
145
0.0
146
1.0
147
0.09
 71
     1
 72
     0
 73
     1
 74
     1
 75
     0
 76
     0
 77
     0
 78
     4
170
     0
171
     2
172
     0
173
     0
174
     0
175
     0
176
     0
177
     0
178
     0
  0
ENDTAB
  0
ENDSEC
  0
SECTION
  2
BLOCKS
  0
BLOCK
  8
0
  2
$MODEL_SPACE
 70
     0
 10
0.0
 20
0.0
 30
0.0
  3
$MODEL_SPACE
  1

  0
ENDBLK
  5
21
  8
0
  0
BLOCK
 67
     1
  8
0
  2
$PAPER_SPACE
 70
     0
 10
0.0
 20
0.0
 30
0.0
  3
$PAPER_SPACE
  1

  0
ENDBLK
  5
1D
 67
     1
  8
0
  0
BLOCK
  8
0
  2
_FILLED
 70
     0
 10
0.0
 20
0.0
 30
0.0
  3
_FILLED
  1

  0
SOLID
  5
CB2C
  8
0
  6
BYBLOCK
 62
     0
 10
0.0
 20
0.0
 30
0.0
 11
-1.0
 21
0.1666666667
 31
0.0
 12
-1.0
 22
-0.1666666667
 32
0.0
 13
-1.0
 23
-0.1666666667
 33
0.0
  0
ENDBLK
  5
CB2D
  8
0
  6
BYBLOCK
 62
     0
  0
ENDSEC
  0
SECTION
  2
ENTITIES
  0
ATTDEF
  5
829
  8
DEFPOINTS
 10
701.2045300068230063
 20
88.0814169095873467
 30
0.0
 40
0.001
  1
K-72704IN-4
  3

  2
MODELNUMBER
 70
     0
1001
ACDBATTR
1070
     0
1070
     1
  0
ATTDEF
  5
82A
  8
DEFPOINTS
 10
701.2045300068230063
 20
88.0797502429206673
 30
0.0
 40
0.001
  1
ODEON
  3

  2
TRADENAME
 70
     0
1001
ACDBATTR
1070
     0
1070
     1
  0
ATTDEF
  5
82B
  8
DEFPOINTS
 10
701.2045300068230063
 20
88.0780835762540164
 30
0.0
 40
0.001
  1
BATH AND SHOWER FAUCET
  3

  2
PRODUCT
 70
     0
1001
ACDBATTR
1070
     0
1070
     1
  0
LINE
  5
10980
  8
0
 10
698.0463308628229697
 20
123.7005801779487939
 30
0.0
 11
698.0463308628230834
 21
117.886050872608493
 31
0.0
  0
LINE
  5
10981
  8
0
 10
698.0463308628229697
 20
114.6221212926377007
 30
0.0
 11
698.0463308628234245
 21
92.69664317004883
 31
0.0
  0
LINE
  5
10982
  8
0
 10
699.030582831323045
 20
123.7005801779487939
 30
0.0
 11
699.030582831323045
 21
115.9991847817989026
 31
0.0
  0
LINE
  5
10983
  8
0
 10
697.9085505478230971
 20
123.7005801779487939
 30
0.0
 11
699.1683631462231006
 21
123.7005801779487939
 31
0.0
  0
LINE
  5
10984
  8
0
 10
697.8888505478231536
 20
124.9210376582488067
 30
0.0
 11
697.8888505478231536
 21
123.7202801779487942
 31
0.0
  0
LINE
  5
10985
  8
0
 10
699.188063146223044
 20
123.9662982881488063
 30
0.0
 11
699.188063146223044
 21
123.7202801779487942
 31
0.0
  0
LINE
  5
10986
  8
0
 10
697.9085505478230971
 20
125.4763242003487989
 30
0.0
 11
699.1683631462231006
 21
125.4763242003487989
 31
0.0
  0
LINE
  5
10987
  8
0
 10
697.9085505478230971
 20
125.0038832554487982
 30
0.0
 11
699.1683631462231006
 21
125.0038832554487982
 31
0.0
  0
LINE
  5
10988
  8
0
 10
697.9085505478230971
 20
124.940737658248807
 30
0.0
 11
699.1683631462231006
 21
124.940737658248807
 31
0.0
  0
LINE
  5
10989
  8
0
 10
697.9872757447230924
 20
125.0038832554487982
 30
0.0
 11
697.9872757447230924
 21
124.940737658248807
 31
0.0
  0
LINE
  5
1098A
  8
0
 10
699.0896379494231496
 20
124.940737658248807
 30
0.0
 11
699.0896379494231496
 21
125.0038832554487982
 31
0.0
  0
ARC
  5
1098B
  8
0
 10
697.9085505478230971
 20
124.9210376582488067
 30
0.0
 40
0.0197
 50
90.0000000000390656
 51
180.0000000000098055
  0
ARC
  5
1098C
  8
0
 10
699.1683631462231006
 20
124.9210376582488067
 30
0.0
 40
0.0197
 50
0.0000000000097707
 51
90.0
  0
LINE
  5
1098D
  8
0
 10
697.8888505478231536
 20
125.0235832554487985
 30
0.0
 11
697.8888505478231536
 21
125.4566242003487986
 31
0.0
  0
LINE
  5
1098E
  8
0
 10
699.188063146223044
 20
125.4566242003487986
 30
0.0
 11
699.188063146223044
 21
125.0235832554487985
 31
0.0
  0
ARC
  5
1098F
  8
0
 10
697.9085505478230971
 20
125.0235832554487985
 30
0.0
 40
0.0197
 50
180.0000000000098055
 51
269.9999999999544116
  0
ARC
  5
10990
  8
0
 10
697.9085505478230971
 20
125.4566242003487986
 30
0.0
 40
0.0197
 50
90.0000000000195257
 51
180.0000000000212026
  0
ARC
  5
10991
  8
0
 10
699.1683631462231006
 20
125.4566242003487986
 30
0.0
 40
0.0197
 50
0.0
 51
90.0
  0
ARC
  5
10992
  8
0
 10
699.1683631462231006
 20
125.0235832554487985
 30
0.0
 40
0.0197
 50
269.9999999999739089
 51
359.9999999999902229
  0
LINE
  5
10993
  8
0
 10
698.1447560596229778
 20
125.4763242003487989
 30
0.0
 11
698.1447560596229778
 21
139.5076699416987935
 31
0.0
  0
LINE
  5
10994
  8
0
 10
698.9321576344231062
 20
125.4763242003487989
 30
0.0
 11
698.9321576344231062
 21
139.5076715164987888
 31
0.0
  0
LINE
  5
10995
  8
0
 10
684.7589261384231349
 20
141.082469941698804
 30
0.0
 11
696.5699560596231095
 21
141.082469941698804
 31
0.0
  0
LINE
  5
10996
  8
0
 10
696.5699576344229627
 20
141.8698715164987902
 30
0.0
 11
684.7589245636230544
 21
141.8698715164987902
 31
0.0
  0
LINE
  5
10997
  8
0
 10
683.184126138423153
 20
138.7202652172987882
 30
0.0
 11
683.184126138423153
 21
139.5076699416987935
 31
0.0
  0
LINE
  5
10998
  8
0
 10
682.3967245636231382
 20
138.7202652172987882
 30
0.0
 11
682.3967245636231382
 21
139.5076715164987888
 31
0.0
  0
LINE
  5
10999
  8
0
 10
683.184126138423153
 20
138.7202652172987882
 30
0.0
 11
682.3967245636231382
 21
138.7202652172987882
 31
0.0
  0
ARC
  5
1099A
  8
0
 10
684.7589261384231349
 20
139.5076699416987935
 30
0.0
 40
1.5747999999999991
 50
90.0
 51
180.0
  0
ARC
  5
1099B
  8
0
 10
696.5699560596231095
 20
139.5076699416987935
 30
0.0
 40
1.5747999999999991
 50
0.0
 51
90.0
  0
ARC
  5
1099C
  8
0
 10
696.5699576344229627
 20
139.5076715164987888
 30
0.0
 40
2.3622000000000001
 50
0.0
 51
90.0
  0
ARC
  5
1099D
  8
0
 10
684.7589245636230544
 20
139.5076715164987888
 30
0.0
 40
2.3622000000000001
 50
90.0
 51
180.0
  0
ARC
  5
1099E
  8
0
 10
697.9085505478230971
 20
123.7202801779487942
 30
0.0
 40
0.0197
 50
180.0000000000212026
 51
269.9999999999544116
  0
ARC
  5
1099F
  8
0
 10
699.1683631462231006
 20
123.7202801779487942
 30
0.0
 40
0.0197
 50
270.0000000000391083
 51
359.9999999999690772
  0
LINE
  5
109A0
  8
0
 10
701.2156222014231162
 20
123.0805014377487936
 30
0.0
 11
701.2156222014231162
 21
125.5608163983488055
 31
0.0
  0
LINE
  5
109A1
  8
0
 10
700.8219214140231088
 20
123.1100017460477005
 30
0.0
 11
700.8219214140231088
 21
125.531316090049998
 31
0.0
  0
LINE
  5
109A2
  8
0
 10
700.8411057281414287
 20
123.0903084967456067
 30
0.0
 11
701.2156222014231162
 21
123.0805014377487936
 31
0.0
  0
LINE
  5
109A3
  8
0
 10
700.8411057281414287
 20
125.5510093393520066
 30
0.0
 11
701.2156222014231162
 21
125.5608163983488055
 31
0.0
  0
LINE
  5
109A4
  8
0
 10
699.4636536974230694
 20
123.8285329338488054
 30
0.0
 11
700.8219214140231088
 21
123.8285329338488054
 31
0.0
  0
LINE
  5
109A5
  8
0
 10
699.4636536974230694
 20
124.8127849023487954
 30
0.0
 11
700.8219214140231088
 21
124.8127849023487954
 31
0.0
  0
LINE
  5
109A6
  8
0
 10
699.4636536974230694
 20
124.8127849023487954
 30
0.0
 11
699.4636536974230694
 21
123.8285329338488054
 31
0.0
  0
LINE
  5
109A7
  8
0
 10
699.4636536974230694
 20
124.0056982881488068
 30
0.0
 11
699.2274631462230445
 21
124.0056982881488068
 31
0.0
  0
LINE
  5
109A8
  8
0
 10
699.4636536974230694
 20
124.6356195479488065
 30
0.0
 11
699.2274631462230445
 21
124.6356195479488065
 31
0.0
  0
ARC
  5
109A9
  8
0
 10
700.8416214140231659
 20
123.1100017460477005
 30
0.0
 40
0.0197
 50
180.0000000000098055
 51
268.4999999998149178
  0
ARC
  5
109AA
  8
0
 10
700.8416214140231659
 20
125.531316090049998
 30
0.0
 40
0.0197
 50
91.5000000001851674
 51
180.0
  0
ARC
  5
109AB
  8
0
 10
699.2274631462230445
 20
123.9662982881488063
 30
0.0
 40
0.0394
 50
89.9999999999869686
 51
180.0000000000098055
  0
LINE
  5
109AC
  8
0
 10
699.188063146223044
 20
124.675019547948807
 30
0.0
 11
699.188063146223044
 21
124.9210376582488067
 31
0.0
  0
ARC
  5
109AD
  8
0
 10
699.2274631462230445
 20
124.675019547948807
 30
0.0
 40
0.0394
 50
179.9999999999901945
 51
270.0000000000064801
  0
ARC
  5
109AE
  8
0
 10
699.8843077213192601
 20
124.3372759833556955
 30
0.0
 40
0.7889112489321983
 50
181.2069267946191928
 51
208.0498823003912037
  0
ARC
  5
109AF
  8
0
 10
699.892683863319462
 20
124.3018555963582941
 30
0.0
 40
0.7973341142382361
 50
152.0945075489260034
 51
178.6486833560641116
  0
ARC
  5
109B0
  8
0
 10
699.0207828313231175
 20
92.076521910148827
 30
0.0
 40
0.0098
 50
270.0
 51
0.0
  0
LINE
  5
109B1
  8
0
 10
701.2156222014231162
 20
92.2143597054988078
 30
0.0
 11
701.2156222014231162
 21
94.6946746660988339
 31
0.0
  0
LINE
  5
109B2
  8
0
 10
700.8219214140231088
 20
92.2438600137976863
 30
0.0
 11
700.8219214140231088
 21
94.6651743577999838
 31
0.0
  0
LINE
  5
109B3
  8
0
 10
700.8411057281414287
 20
92.2241667644956493
 30
0.0
 11
701.2156222014231162
 21
92.2143597054988078
 31
0.0
  0
LINE
  5
109B4
  8
0
 10
700.8411057281414287
 20
94.6848676071019923
 30
0.0
 11
701.2156222014231162
 21
94.6946746660988339
 31
0.0
  0
ARC
  5
109B5
  8
0
 10
700.8416214140231659
 20
92.2438600137976863
 30
0.0
 40
0.0197
 50
180.0000000000098055
 51
268.4999999998149178
  0
ARC
  5
109B6
  8
0
 10
700.8416214140231659
 20
94.6651743577999838
 30
0.0
 40
0.0197
 50
91.5000000001851674
 51
180.0
  0
LINE
  5
109B7
  8
0
 10
699.0896828313231026
 20
93.9072730912488254
 30
0.0
 11
699.3032898925989684
 21
93.9072730912488254
 31
0.0
  0
LINE
  5
109B8
  8
0
 10
699.9418422540096572
 20
93.9072730912488254
 30
0.0
 11
700.8219214140231088
 21
93.9072730912488254
 31
0.0
  0
LINE
  5
109B9
  8
0
 10
699.0896828313231026
 20
93.0017612802488287
 30
0.0
 11
699.3244094794232524
 21
93.0017612802488287
 31
0.0
  0
ARC
  5
109BA
  8
0
 10
699.0896828433892551
 20
93.9663731203792594
 30
0.0
 40
0.0591000291304387
 50
180.0435398603482042
 51
269.9999883021507117
  0
LINE
  5
109BB
  8
0
 10
699.030582831323045
 20
92.9426612802488279
 30
0.0
 11
699.030582831323045
 21
92.69664317004883
 31
0.0
  0
LINE
  5
109BC
  8
0
 10
699.030582831323045
 20
92.6868006503488147
 30
0.0
 11
699.030582831323045
 21
92.076521910148827
 31
0.0
  0
ARC
  5
109BD
  8
0
 10
699.0896828313231026
 20
92.9426612802488279
 30
0.0
 40
0.0591
 50
90.0
 51
180.0
  0
ARC
  5
109BE
  8
0
 10
699.020740311623058
 20
92.6868006503488147
 30
0.0
 40
0.0098425197000154
 50
0.0
 51
90.0
  0
ARC
  5
109BF
  8
0
 10
699.2271362951768197
 20
93.1924613561211572
 30
0.0
 40
0.1767696657352118
 50
251.694642934663193
 51
288.8287399243366735
  0
ARC
  5
109C0
  8
0
 10
699.2269694276975542
 20
92.9664668428070371
 30
0.0
 40
0.0989574870943586
 50
49.9790256705728808
 51
128.4936429949239027
  0
ARC
  5
109C1
  8
0
 10
699.1767356307491355
 20
93.0369446450747404
 30
0.0
 40
0.0133299654871969
 50
148.4542110995554083
 51
247.415245772355803
  0
LINE
  5
109C2
  8
0
 10
700.8219214140231088
 20
93.0017612802488287
 30
0.0
 11
700.3909954297231479
 21
93.0017612802488287
 31
0.0
  0
ARC
  5
109C3
  8
0
 10
701.5764997494092086
 20
95.1259727796518888
 30
0.0
 40
3.3538846219305949
 50
214.2183754713641122
 51
220.6155234689314
  0
ARC
  5
109C4
  8
0
 10
699.3025655221238139
 20
93.5790662041828654
 30
0.0
 40
0.603667182887981
 50
199.720141865852014
 51
214.181006543190108
  0
ARC
  5
109C5
  8
0
 10
698.9548356766047164
 20
93.4544229635981054
 30
0.0
 40
0.2342731075588794
 50
160.7206165441417909
 51
199.7201418658526961
  0
ARC
  5
109C6
  8
0
 10
700.3733337371603511
 20
92.7302866950585525
 30
0.0
 40
1.8250420873018309
 50
137.3695244681076133
 51
153.9496370977470008
  0
LINE
  5
109C7
  8
0
 10
682.4262397100229691
 20
138.6021549904988035
 30
0.0
 11
682.4262397100229691
 21
138.7202652172987882
 31
0.0
  0
LINE
  5
109C8
  8
0
 10
683.1545861666230621
 20
138.6021549904988035
 30
0.0
 11
683.1545861666230621
 21
138.7202652172987882
 31
0.0
  0
ARC
  5
109C9
  8
0
 10
698.5384568470229851
 20
115.3108163983488055
 30
0.0
 40
0.7874015748000005
 50
140.4990073566629007
 51
265.6379155527233138
  0
ARC
  5
109CA
  8
0
 10
698.5384568470229851
 20
115.3108163983488055
 30
0.0
 40
0.7874015748000005
 50
307.7807656867360038
 51
79.7123247493275642
  0
ARC
  5
109CB
  8
0
 10
698.5384568470229851
 20
115.2517612802488003
 30
0.0
 40
0.8464566928999989
 50
46.498616322404132
 51
76.2362861119396911
  0
ARC
  5
109CC
  8
0
 10
698.5573513975188007
 20
115.3300933097345933
 30
0.0
 40
0.8195312000953244
 50
46.5332846214778328
 51
78.2658382649257049
  0
LINE
  5
109CD
  8
0
 10
699.1211340124229991
 20
115.8657452001332047
 30
0.0
 11
699.1211340124229991
 21
115.9248878549863946
 31
0.0
  0
LINE
  5
109CE
  8
0
 10
699.0876694455231473
 20
115.8750563842116037
 30
0.0
 11
699.0876694455231473
 21
115.8958532415431932
 31
0.0
  0
LINE
  5
109CF
  8
0
 10
698.6364424990729276
 20
116.0355706516949965
 30
0.0
 11
699.0890004567399956
 21
114.7478750392381954
 31
0.0
  0
ARC
  5
109D0
  8
0
 10
698.6722929014064221
 20
116.048170201390306
 30
0.0
 40
0.038
 50
79.7123247493275642
 51
199.363919540980703
  0
LINE
  5
109D1
  8
0
 10
697.9975324288310503
 20
115.8030264037624022
 30
0.0
 11
698.4785677049061405
 21
114.5256956874680014
 31
0.0
  0
ARC
  5
109D2
  8
0
 10
697.961899087641541
 20
115.7895471303100976
 30
0.0
 40
0.0380975828254293
 50
20.7204776691721086
 51
144.4900099049440882
  0
ARC
  5
109D3
  8
0
 10
698.5384568470229851
 20
115.3108163983488055
 30
0.0
 40
0.8464566929000316
 50
227.6448134684540037
 51
261.9742567291618798
  0
ARC
  5
109D4
  8
0
 10
697.9937796817231401
 20
114.7133810379158945
 30
0.0
 40
0.038
 50
180.0
 51
227.6448134684540037
  0
ARC
  5
109D5
  8
0
 10
698.5376951445271061
 20
115.3687267661613021
 30
0.0
 40
0.8451020374835804
 50
226.4826495295440907
 51
265.988031519466972
  0
LINE
  5
109D6
  8
0
 10
697.9557796817231292
 20
114.7558875964695062
 30
0.0
 11
697.9557796817231292
 21
114.7133810379158945
 31
0.0
  0
LINE
  5
109D7
  8
0
 10
697.9893753987051923
 20
114.7256677473910003
 30
0.0
 11
697.9894392017296241
 21
114.7463867170297931
 31
0.0
  0
LINE
  5
109D8
  8
0
 10
699.1211340124229991
 20
114.7558875965643068
 30
0.0
 11
699.1211340124229991
 21
114.7133810380070997
 31
0.0
  0
LINE
  5
109D9
  8
0
 10
699.0876694455231473
 20
114.7257795551544035
 30
0.0
 11
699.0876694455231473
 21
114.746576412485993
 31
0.0
  0
ARC
  5
109DA
  8
0
 10
698.5384568470171871
 20
115.3108163983555983
 30
0.0
 40
0.8464566929090528
 50
306.2714719501959166
 51
312.3551865411187123
  0
ARC
  5
109DB
  8
0
 10
699.0831340124231019
 20
114.7133810380070997
 30
0.0
 40
0.038
 50
312.3551865411187123
 51
0.0
  0
ARC
  5
109DC
  8
0
 10
698.5384568470202566
 20
115.3698715164522071
 30
0.0
 40
0.8464566929044735
 50
305.0377126952711819
 51
313.5013836775775076
  0
LINE
  5
109DD
  8
0
 10
698.633594406523116
 20
125.0038832554487982
 30
0.0
 11
698.633594406523116
 21
125.4763242003487989
 31
0.0
  0
LINE
  5
109DE
  8
0
 10
699.0319335046551714
 20
125.0038832554487982
 30
0.0
 11
699.0319335046551714
 21
125.4763242003487989
 31
0.0
  0
LINE
  5
109DF
  8
0
 10
698.0463308628729919
 20
92.0667219101488428
 30
0.0
 11
698.0463308628729919
 21
92.0273518314488257
 31
0.0
  0
LINE
  5
109E0
  8
0
 10
698.0463308628729919
 20
92.0273518314488257
 30
0.0
 11
699.0305828313729535
 21
92.0273518314488257
 31
0.0
  0
LINE
  5
109E1
  8
0
 10
699.0305828313729535
 20
92.0273518314488257
 30
0.0
 11
699.0305828313729535
 21
92.0667219101488143
 31
0.0
  0
LINE
  5
109E2
  8
0
 10
697.0684189463230496
 20
92.0667219101488428
 30
0.0
 11
699.0305828313729535
 21
92.0667219101488428
 31
0.0
  0
ARC
  5
109E3
  8
0
 10
699.0207403115730358
 20
92.0765644298488155
 30
0.0
 40
0.0098425197000047
 50
270.0
 51
0.0
  0
LINE
  5
109E4
  8
0
 10
699.030582831323045
 20
92.69664317004883
 30
0.0
 11
697.0684189463230496
 21
92.6966431700488158
 31
0.0
  0
LINE
  5
109E5
  8
0
 10
700.329795429723049
 20
92.9230211227488212
 30
0.0
 11
699.9703234585854261
 21
92.9230211227488212
 31
0.0
  0
LINE
  5
109E6
  8
0
 10
699.9525604062589537
 20
93.3879891117900343
 30
0.0
 11
700.390995429716213
 21
93.0017612802988225
 31
0.0
  0
LINE
  5
109E7
  8
0
 10
698.0654267131731103
 20
92.0667219101488428
 30
0.0
 11
698.0654267131731103
 21
92.69664317004883
 31
0.0
  0
ARC
  5
109E8
  8
0
 10
687.5673425825164031
 20
112.3757779661482061
 30
0.0
 40
11.8394384530043304
 50
22.2196309002575916
 51
43.1781715401492505
  0
ARC
  5
109E9
  8
0
 10
687.6346813685102006
 20
112.4389650346594038
 30
0.0
 40
11.7470960590232103
 50
43.1781715401492505
 51
52.571060120574387
  0
ARC
  5
109EA
  8
0
 10
687.5398653755833038
 20
112.3150805980207991
 30
0.0
 40
11.9031006299690691
 50
52.571060120574387
 51
57.2653489225967007
  0
ARC
  5
109EB
  8
0
 10
690.7037251682312444
 20
117.2367488957758042
 30
0.0
 40
6.0522179939335299
 50
57.2653489225967007
 51
76.5547510027112565
  0
ARC
  5
109EC
  8
0
 10
679.4750821329475912
 20
109.3167770998172017
 30
0.0
 40
19.4591455833203284
 50
21.6570019279436288
 51
33.421599677018321
  0
ARC
  5
109ED
  8
0
 10
694.9896934371181487
 20
119.5551721876671962
 30
0.0
 40
0.8707648605567269
 50
33.421599677018321
 51
61.5477958285406501
  0
ARC
  5
109EE
  8
0
 10
694.9924245939472485
 20
119.5120597934935063
 30
0.0
 40
0.9076586902449733
 50
62.9961036492161526
 51
89.7180626786664703
  0
ARC
  5
109EF
  8
0
 10
697.6321486386683546
 20
127.4545879972161941
 30
0.0
 40
7.8223289310119837
 50
220.54890611373159
 51
221.4894322872758039
  0
ARC
  5
109F0
  8
0
 10
697.6321486386683546
 20
127.4545879972161941
 30
0.0
 40
7.8223289310119837
 50
221.6362179465668873
 51
223.0953145690436941
  0
ARC
  5
109F1
  8
0
 10
697.6321486386683546
 20
127.4545879972161941
 30
0.0
 40
7.8223289310119837
 50
224.664744011636401
 51
225.0480336147817013
  0
ARC
  5
109F2
  8
0
 10
697.6321486386683546
 20
127.4545879972161941
 30
0.0
 40
7.8223289310119837
 50
227.0712104265882942
 51
228.3651717240298922
  0
ARC
  5
109F3
  8
0
 10
697.6321486386683546
 20
127.4545879972161941
 30
0.0
 40
7.8223289310119837
 50
229.4079484041943999
 51
231.9067451239000093
  0
ARC
  5
109F4
  8
0
 10
697.6321486386683546
 20
127.4545879972161941
 30
0.0
 40
7.8223289310119837
 50
233.6874780768968094
 51
234.8924949466922953
  0
LINE
  5
109F5
  8
0
 10
692.0250795504000507
 20
123.0870082133726982
 30
0.0
 11
691.6768237319840864
 21
122.5068775759383044
 31
0.0
  0
ARC
  5
109F6
  8
0
 10
692.0926408747759524
 20
123.0464507547666955
 30
0.0
 40
0.0788
 50
76.5547510027179783
 51
149.0233597577581008
  0
ARC
  5
109F7
  8
0
 10
691.7780799808266465
 20
122.4460928568854996
 30
0.0
 40
0.1181
 50
149.0233597577719138
 51
220.5489061137118938
  0
ARC
  5
109F8
  8
0
 10
692.947433741270288
 20
120.9395142485262937
 30
0.0
 40
0.3102445529465763
 50
36.9353175344859181
 51
71.1740708701490945
  0
ARC
  5
109F9
  8
0
 10
693.2476796178819995
 20
121.3535979165811938
 30
0.0
 40
0.2335757006597225
 50
211.0388670660564117
 51
218.7054642518407093
  0
ARC
  5
109FA
  8
0
 10
693.2476796178819995
 20
121.3535979165811938
 30
0.0
 40
0.2335757006597225
 50
249.3899139676975096
 51
257.0705213385771799
  0
LINE
  5
109FB
  8
0
 10
693.1556208468869045
 20
121.1239393923393948
 30
0.0
 11
693.1771308766146831
 21
121.1480589886844967
 31
0.0
  0
LINE
  5
109FC
  8
0
 10
693.0578249372584878
 20
121.1942542265280025
 30
0.0
 11
693.0740733982478332
 21
121.2227351515573019
 31
0.0
  0
LINE
  5
109FD
  8
0
 10
693.061185827280724
 20
121.1788262752539964
 30
0.0
 11
693.1399257284356281
 21
121.1222125696533993
 31
0.0
  0
ARC
  5
109FE
  8
0
 10
693.0680742891246382
 20
121.1884069377270947
 30
0.0
 40
0.0118
 50
150.295100246403905
 51
234.2840008622270886
  0
ARC
  5
109FF
  8
0
 10
693.146814190279656
 20
121.1317932321264976
 30
0.0
 40
0.0118
 50
234.2840008621226957
 51
318.2731906024005752
  0
ARC
  5
10A00
  8
0
 10
692.8501589930424416
 20
121.0711143742602047
 30
0.0
 40
0.3102445529465763
 50
36.9353175344859181
 51
71.1740708701490945
  0
ARC
  5
10A01
  8
0
 10
693.1504048696540394
 20
121.4851980423151048
 30
0.0
 40
0.2335757006597225
 50
211.0388670660564117
 51
218.7054642518399987
  0
ARC
  5
10A02
  8
0
 10
693.1504048696540394
 20
121.4851980423151048
 30
0.0
 40
0.2335757006597225
 50
249.3899139676975096
 51
257.0705213385771799
  0
LINE
  5
10A03
  8
0
 10
693.0583460986589444
 20
121.2555395180733058
 30
0.0
 11
693.079856128386723
 21
121.2796591144182941
 31
0.0
  0
LINE
  5
10A04
  8
0
 10
692.9605501890305277
 20
121.3258543522618993
 30
0.0
 11
692.9767986500197594
 21
121.3543352772910993
 31
0.0
  0
LINE
  5
10A05
  8
0
 10
692.9639110790526502
 20
121.3104264009877937
 30
0.0
 11
693.0426509802075543
 21
121.2538126953872961
 31
0.0
  0
ARC
  5
10A06
  8
0
 10
692.9707995408966781
 20
121.3200070634609062
 30
0.0
 40
0.0118
 50
150.295100246403905
 51
234.2840008622270886
  0
ARC
  5
10A07
  8
0
 10
693.0495394420516959
 20
121.2633933578603944
 30
0.0
 40
0.0118
 50
234.2840008621226957
 51
318.2731906024005752
  0
ARC
  5
10A08
  8
0
 10
692.7447973768173597
 20
121.0852081399279001
 30
0.0
 40
0.3102445529465763
 50
36.9353175344859181
 51
71.1740708701490945
  0
ARC
  5
10A09
  8
0
 10
693.0450432534289575
 20
121.4992918079828002
 30
0.0
 40
0.2335757006597225
 50
211.0388670660564117
 51
218.7054642518399987
  0
ARC
  5
10A0A
  8
0
 10
693.0450432534289575
 20
121.4992918079828002
 30
0.0
 40
0.2335757006597225
 50
249.3899139676975096
 51
257.0705213385771799
  0
LINE
  5
10A0B
  8
0
 10
692.9529844824338625
 20
121.2696332837409017
 30
0.0
 11
692.9744945121617548
 21
121.2937528800860036
 31
0.0
  0
LINE
  5
10A0C
  8
0
 10
692.8551885728054458
 20
121.3399481179295947
 30
0.0
 11
692.8714370337949049
 21
121.3684290429587946
 31
0.0
  0
LINE
  5
10A0D
  8
0
 10
692.858549462827682
 20
121.3245201666555033
 30
0.0
 11
692.9372893639825861
 21
121.2679064610550057
 31
0.0
  0
ARC
  5
10A0E
  8
0
 10
692.8654379246718236
 20
121.3341008291286016
 30
0.0
 40
0.0118
 50
150.295100246403905
 51
234.2840008622270886
  0
ARC
  5
10A0F
  8
0
 10
692.9441778258267277
 20
121.2774871235280045
 30
0.0
 40
0.0118
 50
234.2840008621226957
 51
318.2731906024005752
  0
ARC
  5
10A10
  8
0
 10
692.6025778314174204
 20
121.2490781681278946
 30
0.0
 40
0.3102445529465763
 50
36.9353175344859181
 51
71.1740708701490945
  0
ARC
  5
10A11
  8
0
 10
692.9028237080290182
 20
121.6631618361827947
 30
0.0
 40
0.2335757006597225
 50
211.0388670660564117
 51
218.7054642518399987
  0
ARC
  5
10A12
  8
0
 10
692.9028237080290182
 20
121.6631618361827947
 30
0.0
 40
0.2335757006597225
 50
249.3899139676975096
 51
257.0705213385771799
  0
LINE
  5
10A13
  8
0
 10
692.8107649370340368
 20
121.4335033119408962
 30
0.0
 11
692.8322749667618154
 21
121.4576229082859982
 31
0.0
  0
LINE
  5
10A14
  8
0
 10
692.7129690274055065
 20
121.5038181461296034
 30
0.0
 11
692.7292174883948519
 21
121.5322990711588034
 31
0.0
  0
LINE
  5
10A15
  8
0
 10
692.7163299174277427
 20
121.4883901948554978
 30
0.0
 11
692.7950698185826468
 21
121.4317764892550002
 31
0.0
  0
ARC
  5
10A16
  8
0
 10
692.7232183792716569
 20
121.4979708573285961
 30
0.0
 40
0.0118
 50
150.295100246403905
 51
234.2840008622270886
  0
ARC
  5
10A17
  8
0
 10
692.8019582804266747
 20
121.4413571517279991
 30
0.0
 40
0.0118
 50
234.2840008621226957
 51
318.2731906024005752
  0
ARC
  5
10A18
  8
0
 10
692.5321726218447793
 20
121.1985451152278017
 30
0.0
 40
0.34105569667747
 50
38.5230470503471523
 51
69.5863413542859206
  0
ARC
  5
10A19
  8
0
 10
692.8512631054290978
 20
121.6386182958327993
 30
0.0
 40
0.2335757006597225
 50
211.0388670660564117
 51
218.7054642518399987
  0
ARC
  5
10A1A
  8
0
 10
692.8512631054290978
 20
121.6386182958327993
 30
0.0
 40
0.2335757006597225
 50
249.3899139676975096
 51
257.0705213385771799
  0
LINE
  5
10A1B
  8
0
 10
692.7592043344340027
 20
121.4089597715909008
 30
0.0
 11
692.780714364161895
 21
121.4330793679360028
 31
0.0
  0
LINE
  5
10A1C
  8
0
 10
692.661408424805586
 20
121.4792746057795938
 30
0.0
 11
692.6776568857949314
 21
121.5077555308087938
 31
0.0
  0
LINE
  5
10A1D
  8
0
 10
692.6647693148277085
 20
121.4638466545055024
 30
0.0
 11
692.7435092159827263
 21
121.4072329489050048
 31
0.0
  0
ARC
  5
10A1E
  8
0
 10
692.6716577766717364
 20
121.4734273169786007
 30
0.0
 40
0.0118
 50
150.295100246403905
 51
234.2840008622270886
  0
ARC
  5
10A1F
  8
0
 10
692.7503976778267543
 20
121.4168136113781031
 30
0.0
 40
0.0118
 50
234.2840008621226957
 51
318.2731906024005752
  0
ARC
  5
10A20
  8
0
 10
692.3357895156616451
 20
121.4185012783279944
 30
0.0
 40
0.330061958307295
 50
32.0920637023584874
 51
65.1209985813275551
  0
ARC
  5
10A21
  8
0
 10
692.5324130729607077
 20
121.7297665881200999
 30
0.0
 40
0.0589650348399529
 50
191.5772938614645966
 51
226.1649211564665904
  0
ARC
  5
10A22
  8
0
 10
692.6400912875643598
 20
121.6951625195972042
 30
0.0
 40
0.1042672113978832
 50
238.4064802884047083
 51
256.3111383604685898
  0
LINE
  5
10A23
  8
0
 10
692.579566619733896
 20
121.5997331857908961
 30
0.0
 11
692.5974080218569497
 21
121.6197390817790023
 31
0.0
  0
LINE
  5
10A24
  8
0
 10
692.4817707101054793
 20
121.6700480199796033
 30
0.0
 11
692.5012083412640322
 21
121.7041190446835941
 31
0.0
  0
LINE
  5
10A25
  8
0
 10
692.4851316001277155
 20
121.6546200687054977
 30
0.0
 11
692.5638715012827333
 21
121.5980063631050001
 31
0.0
  0
ARC
  5
10A26
  8
0
 10
692.4920200619717434
 20
121.664200731178596
 30
0.0
 40
0.0118
 50
150.295100246403905
 51
234.2840008622270886
  0
ARC
  5
10A27
  8
0
 10
692.5707599631266476
 20
121.6075870255779989
 30
0.0
 40
0.0118
 50
234.2840008621226957
 51
318.2731906024005752
  0
ARC
  5
10A28
  8
0
 10
692.3166882810452307
 20
121.3250738131693964
 30
0.0
 40
0.3641643643348442
 50
34.3530301894715393
 51
63.5813473146543089
  0
ARC
  5
10A29
  8
0
 10
692.545142540658162
 20
121.6772304477821933
 30
0.0
 40
0.0713431923018863
 50
201.3927431931249998
 51
226.4651425287418931
  0
ARC
  5
10A2A
  8
0
 10
692.6340130989503905
 20
121.5988800167403951
 30
0.0
 40
0.0703185230902378
 50
231.2940386923565086
 51
256.2788514142650911
  0
LINE
  5
10A2B
  8
0
 10
692.5827494911840176
 20
121.535829493990903
 30
0.0
 11
692.5994494273257942
 21
121.5545554429472048
 31
0.0
  0
LINE
  5
10A2C
  8
0
 10
692.484953581555601
 20
121.606144328179596
 30
0.0
 11
692.5030820048616533
 21
121.6379205231939977
 31
0.0
  0
LINE
  5
10A2D
  8
0
 10
692.4883144715777235
 20
121.5907163769055046
 30
0.0
 11
692.5670543727327413
 21
121.534102671305007
 31
0.0
  0
ARC
  5
10A2E
  8
0
 10
692.4952029334217514
 20
121.6002970393786029
 30
0.0
 40
0.0118
 50
150.295100246403905
 51
234.2840008622270886
  0
ARC
  5
10A2F
  8
0
 10
692.5739428345766555
 20
121.5436833337781053
 30
0.0
 40
0.0118
 50
234.2840008621226957
 51
318.2731906024005752
  0
ARC
  5
10A30
  8
0
 10
692.1319781761842478
 20
121.5661055432744035
 30
0.0
 40
0.330061958307295
 50
32.0920637023584874
 51
65.1209985813275551
  0
ARC
  5
10A31
  8
0
 10
692.3286017334835378
 20
121.8773708530665942
 30
0.0
 40
0.0589650348399529
 50
191.5772938614645966
 51
226.1649211564665904
  0
ARC
  5
10A32
  8
0
 10
692.43627994808719
 20
121.8427667845435991
 30
0.0
 40
0.1042672113978832
 50
238.4064802884047083
 51
256.3111383604685898
  0
LINE
  5
10A33
  8
0
 10
692.3757552802567261
 20
121.7473374507374047
 30
0.0
 11
692.3935966823796662
 21
121.7673433467253972
 31
0.0
  0
LINE
  5
10A34
  8
0
 10
692.2779593706283094
 20
121.8176522849259982
 30
0.0
 11
692.2973970017867487
 21
121.8517233096300032
 31
0.0
  0
LINE
  5
10A35
  8
0
 10
692.2813202606505456
 20
121.8022243336520063
 30
0.0
 11
692.3600601618054498
 21
121.745610628051395
 31
0.0
  0
ARC
  5
10A36
  8
0
 10
692.2882087224944598
 20
121.8118049961250051
 30
0.0
 40
0.0118
 50
150.295100246403905
 51
234.2840008622270886
  0
ARC
  5
10A37
  8
0
 10
692.366948623649364
 20
121.7551912905244933
 30
0.0
 40
0.0118
 50
234.2840008621226957
 51
318.2731906024005752
  0
ARC
  5
10A38
  8
0
 10
691.9620984794141805
 20
121.6872746195610944
 30
0.0
 40
0.330061958307295
 50
32.0920637023584874
 51
65.1209985813275551
  0
ARC
  5
10A39
  8
0
 10
692.1587220367132431
 20
121.9985399293531998
 30
0.0
 40
0.0589650348399529
 50
191.5772938614645966
 51
226.1649211564665904
  0
ARC
  5
10A3A
  8
0
 10
692.266400251317009
 20
121.9639358608303041
 30
0.0
 40
0.1042672113978832
 50
238.4064802884047083
 51
256.3111383604685898
  0
LINE
  5
10A3B
  8
0
 10
692.2058755834865451
 20
121.868506527023996
 30
0.0
 11
692.2237169856094852
 21
121.8885124230121022
 31
0.0
  0
LINE
  5
10A3C
  8
0
 10
692.1080796738581284
 20
121.9388213612127032
 30
0.0
 11
692.127517305016454
 21
121.972892385916694
 31
0.0
  0
LINE
  5
10A3D
  8
0
 10
692.1114405638802509
 20
121.9233934099385976
 30
0.0
 11
692.1901804650351551
 21
121.8667797043381
 31
0.0
  0
ARC
  5
10A3E
  8
0
 10
692.1183290257242788
 20
121.9329740724116959
 30
0.0
 40
0.0118
 50
150.295100246403905
 51
234.2840008622270886
  0
ARC
  5
10A3F
  8
0
 10
692.1970689268792967
 20
121.8763603668110989
 30
0.0
 40
0.0118
 50
234.2840008621226957
 51
318.2731906024005752
  0
ARC
  5
10A40
  8
0
 10
691.9809469493861798
 20
121.4592017173090994
 30
0.0
 40
0.4527994823040541
 50
36.850571286244751
 51
59.6072853945510985
  0
ARC
  5
10A41
  8
0
 10
692.292554548603448
 20
121.8921596553122981
 30
0.0
 40
0.0927726863260653
 50
207.1839336141705132
 51
225.5011473462340916
  0
ARC
  5
10A42
  8
0
 10
692.3716782730965633
 20
121.8262598155562983
 30
0.0
 40
0.1042672113978832
 50
238.4064802884047083
 51
252.844697668828104
  0
LINE
  5
10A43
  8
0
 10
692.3111536052660995
 20
121.7308304817500044
 30
0.0
 11
692.3281339562289531
 21
121.7498708650599042
 31
0.0
  0
LINE
  5
10A44
  8
0
 10
692.2133576956375691
 20
121.8011453159385979
 30
0.0
 11
692.2329120815832084
 21
121.8354209929074017
 31
0.0
  0
LINE
  5
10A45
  8
0
 10
692.0917868723785205
 20
121.8755428169719011
 30
0.0
 11
692.2954584868148231
 21
121.7291036590639948
 31
0.0
  0
ARC
  5
10A46
  8
0
 10
692.2236070475038332
 20
121.7952980271377044
 30
0.0
 40
0.0118
 50
150.295100246403905
 51
234.2840008622270886
  0
ARC
  5
10A47
  8
0
 10
692.302346948658851
 20
121.7386843215370931
 30
0.0
 40
0.0118
 50
234.2840008621226957
 51
318.2731906024005752
  0
ARC
  5
10A48
  8
0
 10
692.1875098300665741
 20
121.4620572065571054
 30
0.0
 40
0.330061958307295
 50
32.0920637023584874
 51
65.1209985813275551
  0
ARC
  5
10A49
  8
0
 10
692.6444961901871693
 20
121.9914412416877951
 30
0.0
 40
0.3925349017861172
 50
215.8605089570270934
 51
220.5739327491681081
  0
ARC
  5
10A4A
  8
0
 10
692.4918116019695162
 20
121.7387184478263009
 30
0.0
 40
0.1042672113978832
 50
238.4064802884047083
 51
256.3111383604685898
  0
LINE
  5
10A4B
  8
0
 10
692.4312869341390524
 20
121.643289114020007
 30
0.0
 11
692.4491283362619924
 21
121.663295010008099
 31
0.0
  0
LINE
  5
10A4C
  8
0
 10
692.3334910245106357
 20
121.7136039482087
 30
0.0
 11
692.3529286556689613
 21
121.747674972912705
 31
0.0
  0
LINE
  5
10A4D
  8
0
 10
692.3368519145327582
 20
121.6981759969346939
 30
0.0
 11
692.4155918156876623
 21
121.6415622913340968
 31
0.0
  0
ARC
  5
10A4E
  8
0
 10
692.3437403763767861
 20
121.7077566594077069
 30
0.0
 40
0.0118
 50
150.295100246403905
 51
234.2840008622270886
  0
ARC
  5
10A4F
  8
0
 10
692.4224802775316903
 20
121.6511429538071951
 30
0.0
 40
0.0118
 50
234.2840008621226957
 51
318.2731906024005752
  0
LINE
  5
10A50
  8
0
 10
692.0886362795250761
 20
121.8913248809625003
 30
0.0
 11
692.106950336290538
 21
121.9209723432468024
 31
0.0
  0
LINE
  5
10A51
  8
0
 10
692.1309889832208455
 20
121.8608512200845979
 30
0.0
 11
692.1498116579479074
 21
121.8914267635007036
 31
0.0
  0
ARC
  5
10A52
  8
0
 10
692.1410375308753373
 20
121.8546652124835958
 30
0.0
 40
0.0118
 50
148.3830446138786101
 51
234.2840008621465984
  0
ARC
  5
10A53
  8
0
 10
692.0986753342225484
 20
121.8851234794449994
 30
0.0
 40
0.0118
 50
148.2952286305880989
 51
234.284000862098793
  0
ARC
  5
10A54
  8
0
 10
691.6175762852174103
 20
121.3679454658558967
 30
0.0
 40
0.7384617044779495
 50
44.370422495180371
 51
50.8911936913744185
  0
ARC
  5
10A55
  8
0
 10
691.6751561076866892
 20
121.3142259988329954
 30
0.0
 40
0.747300885940183
 50
42.6765828541094407
 51
52.6589284917028024
  0
ARC
  5
10A56
  8
0
 10
692.2946876403691476
 20
122.0351209280543969
 30
0.0
 40
0.209063468773989
 50
217.324682214030787
 51
225.0978630405913918
  0
ARC
  5
10A57
  8
0
 10
691.5925894424791522
 20
121.5784832094555981
 30
0.0
 40
0.6359539568613928
 50
35.5364266844419134
 51
52.6784411882678398
  0
ARC
  5
10A58
  8
0
 10
692.5254558078867149
 20
122.4827283387634935
 30
0.0
 40
0.6770073369344598
 50
216.0597272197643974
 51
219.045517854455511
  0
ARC
  5
10A59
  8
0
 10
692.5254558078867149
 20
122.4827283387634935
 30
0.0
 40
0.6770073369344598
 50
229.624961924075393
 51
232.1551406529468125
  0
LINE
  5
10A5A
  8
0
 10
691.8799022446086155
 20
122.0897753319806043
 30
0.0
 11
692.0632468132561144
 21
121.9579519480253964
 31
0.0
  0
LINE
  5
10A5B
  8
0
 10
691.8975410867064966
 20
122.1345216320353018
 30
0.0
 11
691.8772100024441443
 21
122.1062444494887984
 31
0.0
  0
LINE
  5
10A5C
  8
0
 10
691.9255216160604505
 20
122.1177817046234964
 30
0.0
 11
691.9036444139356945
 21
122.0872045510385959
 31
0.0
  0
ARC
  5
10A5D
  8
0
 10
690.9990826138612192
 20
121.145897817188299
 30
0.0
 40
1.3427015734899399
 50
42.201826305324893
 51
47.8419272117720311
  0
ARC
  5
10A5E
  8
0
 10
692.0727173952942621
 20
122.2583023185874964
 30
0.0
 40
0.2084244000430818
 50
214.1712159187231066
 51
223.9277085572074952
  0
LINE
  5
10A5F
  8
0
 10
692.0044525901181487
 20
122.0630512468503071
 30
0.0
 11
691.9817929453043917
 21
122.0309165589714979
 31
0.0
  0
LINE
  5
10A60
  8
0
 10
692.0087045321868118
 20
122.0594048947281038
 30
0.0
 11
691.9860941042265949
 21
122.027957607367199
 31
0.0
  0
ARC
  5
10A61
  8
0
 10
691.9956747751464263
 20
122.0210691572711994
 30
0.0
 40
0.0118
 50
144.2840711191215917
 51
234.2841453089199035
  0
ARC
  5
10A62
  8
0
 10
691.9914365107184722
 20
122.0241164379356036
 30
0.0
 40
0.0118
 50
144.8105780407585996
 51
234.2841453089600918
  0
ARC
  5
10A63
  8
0
 10
691.9132410658488652
 20
122.0803383823794945
 30
0.0
 40
0.0118
 50
144.4172108423090037
 51
234.2841453089122865
  0
ARC
  5
10A64
  8
0
 10
691.8867906822989653
 20
122.0993560118200065
 30
0.0
 40
0.0118
 50
144.2841454384941073
 51
234.2841453088556989
  0
LINE
  5
10A65
  8
0
 10
692.0781509605326391
 20
121.9588730435888948
 30
0.0
 11
692.0922391722779139
 21
121.9719137405024014
 31
0.0
  0
ARC
  5
10A66
  8
0
 10
692.0701352509465778
 20
121.9675326278647987
 30
0.0
 40
0.0118
 50
234.2841453089683057
 51
312.788765529805687
  0
ARC
  5
10A67
  8
0
 10
691.7113500937480239
 20
120.6704637409090992
 30
0.0
 40
1.1891919106203881
 50
45.4824197255432807
 51
52.3453499097340611
  0
LINE
  5
10A68
  8
0
 10
692.3973122665813662
 20
121.6173589537987993
 30
0.0
 11
692.4081059764972679
 21
121.6323712227596019
 31
0.0
  0
LINE
  5
10A69
  8
0
 10
692.426582037119033
 20
121.5963142061508933
 30
0.0
 11
692.4378281349055442
 21
121.6119556718361991
 31
0.0
  0
LINE
  5
10A6A
  8
0
 10
692.5416575990332149
 20
121.5135757312314979
 30
0.0
 11
692.5451259354550757
 21
121.5183996147052028
 31
0.0
  0
LINE
  5
10A6B
  8
0
 10
692.5141625469055953
 20
121.5090810557998964
 30
0.0
 11
692.4018069420551456
 21
121.5898639016744056
 31
0.0
  0
ARC
  5
10A6C
  8
0
 10
692.5256627352498526
 20
121.5250759196019033
 30
0.0
 40
0.0197
 50
234.2841453212749059
 51
324.2841452271815115
  0
ARC
  5
10A6D
  8
0
 10
692.4425769008895486
 20
121.5848140177627954
 30
0.0
 40
0.0197
 50
144.2841451642352126
 51
234.2841453212830061
  0
ARC
  5
10A6E
  8
0
 10
692.4133071303994029
 20
121.6058587654764978
 30
0.0
 40
0.0197
 50
144.284145399855106
 51
234.2841453213069087
  0
LINE
  5
10A6F
  8
0
 10
692.8397333862178584
 20
121.2749980392011935
 30
0.0
 11
692.9228192205498544
 21
121.2152599411400047
 31
0.0
  0
LINE
  5
10A70
  8
0
 10
692.9564384452552304
 20
121.2282723298051934
 30
0.0
 11
692.9503142726815668
 21
121.2197546165989053
 31
0.0
  0
LINE
  5
10A71
  8
0
 10
692.8438259977552889
 20
121.3144365901052026
 30
0.0
 11
692.8352387107880759
 21
121.302493091407797
 31
0.0
  0
ARC
  5
10A72
  8
0
 10
692.6734142393078173
 20
120.9750452155118978
 30
0.0
 40
0.3797718691076669
 50
41.819599843704367
 51
63.3383212175746877
  0
ARC
  5
10A73
  8
0
 10
692.851233574551884
 20
121.2909929030105047
 30
0.0
 40
0.0197
 50
144.284145131410213
 51
234.2841453573770139
  0
ARC
  5
10A74
  8
0
 10
692.9343194088839937
 20
121.2312548049494012
 30
0.0
 40
0.0197
 50
234.2841453573529975
 51
324.2841452988815263
  0
ARC
  5
10A75
  8
0
 10
692.0397877631260144
 20
120.0891170679259972
 30
0.0
 40
1.4384410340883069
 50
47.8793391064490024
 51
51.3214928881044514
  0
ARC
  5
10A76
  8
0
 10
692.0397877631260144
 20
120.0891170679259972
 30
0.0
 40
1.4384410340883069
 50
56.6031101750541623
 51
57.61726463484883
  0
ARC
  5
10A77
  8
0
 10
692.9884736857773078
 20
121.1674295896768001
 30
0.0
 40
0.0196850393655665
 50
234.2841450123140987
 51
324.7117780390390749
  0
LINE
  5
10A78
  8
0
 10
692.8062794461386602
 20
121.298444321739197
 30
0.0
 11
692.8101770135258448
 21
121.3038651946656046
 31
0.0
  0
LINE
  5
10A79
  8
0
 10
692.6880967935461513
 20
121.3591533578635051
 30
0.0
 11
692.9769822309406209
 21
121.1514468727439038
 31
0.0
  0
LINE
  5
10A7A
  8
0
 10
692.6880550365563067
 20
121.3928416846011942
 30
0.0
 11
692.683602118098861
 21
121.3866484100229002
 31
0.0
  0
ARC
  5
10A7B
  8
0
 10
692.8222743099520358
 20
121.2869441334105005
 30
0.0
 40
0.0197
 50
144.2841453769335942
 51
234.2841453182907969
  0
ARC
  5
10A7C
  8
0
 10
692.6995969818912045
 20
121.3751482216650004
 30
0.0
 40
0.0197
 50
144.2841452723812949
 51
234.2841453183305021
  0
ARC
  5
10A7D
  8
0
 10
692.308963093904822
 20
120.7987718859938013
 30
0.0
 40
0.7055048547099265
 50
48.3306732337959417
 51
54.4163278885831971
  0
ARC
  5
10A7E
  8
0
 10
693.1874043807368935
 20
121.8981330651640036
 30
0.0
 40
0.7037020435661434
 50
228.3228704627246088
 51
234.4241306596593972
  0
ARC
  5
10A7F
  8
0
 10
697.6334487548305106
 20
127.4536532232625063
 30
0.0
 40
7.8223289310119837
 50
243.5202521547792003
 51
243.9035417579229943
  0
ARC
  5
10A80
  8
0
 10
697.6334487548305106
 20
127.4536532232625063
 30
0.0
 40
7.8223289310119837
 50
240.2031140455322884
 51
241.4970753429724084
  0
ARC
  5
10A81
  8
0
 10
697.6334487548305106
 20
127.4536532232625063
 30
0.0
 40
7.8223289310119837
 50
236.6615406456589028
 51
239.1603373653705944
  0
ARC
  5
10A82
  8
0
 10
693.105019253230239
 20
120.8878717225662029
 30
0.0
 40
0.3102445529465763
 50
37.3942148994120132
 51
71.6329682350781525
  0
ARC
  5
10A83
  8
0
 10
693.401939027326307
 20
121.3043468338546944
 30
0.0
 40
0.2335757006597225
 50
249.8628215177197092
 51
257.5294187035008804
  0
ARC
  5
10A84
  8
0
 10
693.401939027326307
 20
121.3043468338546944
 30
0.0
 40
0.2335757006597225
 50
211.4977644309865923
 51
219.1783718018618003
  0
LINE
  5
10A85
  8
0
 10
693.2135501230518457
 20
121.1439489665985008
 30
0.0
 11
693.2295646304634147
 21
121.1720198030504037
 31
0.0
  0
LINE
  5
10A86
  8
0
 10
693.3113463121286486
 20
121.0736345210764
 30
0.0
 11
693.3331705842703059
 21
121.098106478916506
 31
0.0
  0
LINE
  5
10A87
  8
0
 10
693.2956512418700186
 20
121.0719076650214987
 30
0.0
 11
693.2169110600522117
 21
121.1285209802663019
 31
0.0
  0
ARC
  5
10A88
  8
0
 10
693.3025396562176184
 20
121.0814883616442046
 30
0.0
 40
0.0118
 50
234.2842849073373941
 51
318.2731855231536997
  0
ARC
  5
10A89
  8
0
 10
693.2237994743998115
 20
121.1381016768889936
 30
0.0
 40
0.0118
 50
150.2950951671627138
 51
234.2842849074413039
  0
ARC
  5
10A8A
  8
0
 10
693.151930155101013
 20
120.7924826682155981
 30
0.0
 40
0.3102445529465763
 50
37.3942148994120132
 51
71.6329682350781525
  0
ARC
  5
10A8B
  8
0
 10
693.4488499291970811
 20
121.2089577795041038
 30
0.0
 40
0.2335757006597225
 50
249.8628215177197092
 51
257.5294187035008804
  0
ARC
  5
10A8C
  8
0
 10
693.4488499291970811
 20
121.2089577795041038
 30
0.0
 40
0.2335757006597225
 50
211.4977644309865923
 51
219.1783718018618003
  0
LINE
  5
10A8D
  8
0
 10
693.2604610249223924
 20
121.0485599122479954
 30
0.0
 11
693.2764755323341888
 21
121.0766307486997988
 31
0.0
  0
LINE
  5
10A8E
  8
0
 10
693.3582572139994227
 20
120.9782454667256957
 30
0.0
 11
693.3800814861409663
 21
121.0027174245659012
 31
0.0
  0
LINE
  5
10A8F
  8
0
 10
693.3425621437406789
 20
120.9765186106708938
 30
0.0
 11
693.2638219619227584
 21
121.033131925915697
 31
0.0
  0
ARC
  5
10A90
  8
0
 10
693.3494505580883924
 20
120.9860993072935997
 30
0.0
 40
0.0118
 50
234.2842849073373941
 51
318.2731855231536997
  0
ARC
  5
10A91
  8
0
 10
693.2707103762703582
 20
121.0427126225384029
 30
0.0
 40
0.0118
 50
150.2950951671627138
 51
234.2842849074413039
  0
ARC
  5
10A92
  8
0
 10
693.3525575302843436
 20
120.7098482833442006
 30
0.0
 40
0.3102445529465763
 50
37.3942148994120132
 51
71.6329682350781525
  0
ARC
  5
10A93
  8
0
 10
693.6494773043805253
 20
121.1263233946327063
 30
0.0
 40
0.2335757006597225
 50
249.8628215177197092
 51
257.5294187035008804
  0
ARC
  5
10A94
  8
0
 10
693.6494773043805253
 20
121.1263233946327063
 30
0.0
 40
0.2335757006597225
 50
211.4977644309865923
 51
219.1783718018618003
  0
LINE
  5
10A95
  8
0
 10
693.4610884001059503
 20
120.9659255273765979
 30
0.0
 11
693.4771029075175193
 21
120.9939963638285008
 31
0.0
  0
LINE
  5
10A96
  8
0
 10
693.5588845891827532
 20
120.8956110818543976
 30
0.0
 11
693.5807088613244105
 21
120.9200830396946031
 31
0.0
  0
LINE
  5
10A97
  8
0
 10
693.5431895189242368
 20
120.8938842257994963
 30
0.0
 11
693.4644493371063163
 21
120.9504975410442995
 31
0.0
  0
ARC
  5
10A98
  8
0
 10
693.5500779332717229
 20
120.9034649224222022
 30
0.0
 40
0.0118
 50
234.2842849073373941
 51
318.2731855231536997
  0
ARC
  5
10A99
  8
0
 10
693.4713377514538024
 20
120.9600782376670054
 30
0.0
 40
0.0118
 50
150.2950951671627138
 51
234.2842849074413039
  0
ARC
  5
10A9A
  8
0
 10
693.3270744433680193
 20
120.6270165548122009
 30
0.0
 40
0.34105569667747
 50
38.9819444152749668
 51
70.0452387192120653
  0
ARC
  5
10A9B
  8
0
 10
693.6426300652177588
 20
121.0696312749930996
 30
0.0
 40
0.2335757006597225
 50
249.8628215177197092
 51
257.5294187035008804
  0
ARC
  5
10A9C
  8
0
 10
693.6426300652177588
 20
121.0696312749930996
 30
0.0
 40
0.2335757006597225
 50
211.4977644309865923
 51
219.1783718018618003
  0
LINE
  5
10A9D
  8
0
 10
693.4542411609434112
 20
120.9092334077370055
 30
0.0
 11
693.4702556683548664
 21
120.9373042441887947
 31
0.0
  0
LINE
  5
10A9E
  8
0
 10
693.552037350020214
 20
120.8389189622147057
 30
0.0
 11
693.5738616221618713
 21
120.863390920054897
 31
0.0
  0
LINE
  5
10A9F
  8
0
 10
693.536342279761584
 20
120.8371921061599039
 30
0.0
 11
693.4576020979435498
 21
120.8938054214047071
 31
0.0
  0
ARC
  5
10AA0
  8
0
 10
693.5432306941090701
 20
120.8467728027824961
 30
0.0
 40
0.0118
 50
234.2842849073373941
 51
318.2731855231536997
  0
ARC
  5
10AA1
  8
0
 10
693.4644905122912633
 20
120.9033861180273988
 30
0.0
 40
0.0118
 50
150.2950951671627138
 51
234.2842849074413039
  0
ARC
  5
10AA2
  8
0
 10
693.5981159340208251
 20
120.5108978723163062
 30
0.0
 40
0.330061958307295
 50
43.4472871882363165
 51
76.4762220671953799
  0
ARC
  5
10AA3
  8
0
 10
693.8305665159514319
 20
120.796403815030402
 30
0.0
 40
0.0589650348399529
 50
242.4033646130909005
 51
276.9909919080948271
  0
ARC
  5
10AA4
  8
0
 10
693.7634752936435234
 20
120.8874576856115937
 30
0.0
 40
0.1042672113978832
 50
212.2571474090912034
 51
230.1618054811536922
  0
LINE
  5
10AA5
  8
0
 10
693.6922867031646547
 20
120.799695633719395
 30
0.0
 11
693.7055698678160525
 21
120.8229788689078958
 31
0.0
  0
LINE
  5
10AA6
  8
0
 10
693.7900828922414576
 20
120.7293811881971948
 30
0.0
 11
693.8161907280832565
 21
120.7586563848164047
 31
0.0
  0
LINE
  5
10AA7
  8
0
 10
693.7743878219829412
 20
120.7276543321422935
 30
0.0
 11
693.6956476401650207
 21
120.7842676473870966
 31
0.0
  0
ARC
  5
10AA8
  8
0
 10
693.781276236330541
 20
120.7372350287649994
 30
0.0
 40
0.0118
 50
234.2842849073373941
 51
318.2731855231536997
  0
ARC
  5
10AA9
  8
0
 10
693.7025360545126205
 20
120.7938483440098025
 30
0.0
 40
0.0118
 50
150.2950951671627138
 51
234.2842849074413039
  0
ARC
  5
10AAA
  8
0
 10
693.5156343479295629
 20
120.4630404134858992
 30
0.0
 40
0.3641643643348442
 50
44.986938454900951
 51
74.2152555800846443
  0
ARC
  5
10AAB
  8
0
 10
693.7767116505071954
 20
120.7917413202627017
 30
0.0
 40
0.0713431923018863
 50
242.1031432408169906
 51
267.1755425764358165
  0
ARC
  5
10AAC
  8
0
 10
693.6741403002256448
 20
120.851036212766104
 30
0.0
 40
0.0703185230902378
 50
212.2894343552966916
 51
237.2742470772060983
  0
LINE
  5
10AAD
  8
0
 10
693.6306959933305052
 20
120.7823636702284062
 30
0.0
 11
693.6431293211547882
 21
120.8041572791693028
 31
0.0
  0
LINE
  5
10AAE
  8
0
 10
693.7284921824073081
 20
120.712049224706206
 30
0.0
 11
693.7528415434940143
 21
120.7393526112330022
 31
0.0
  0
LINE
  5
10AAF
  8
0
 10
693.7127971121485643
 20
120.7103223686514042
 30
0.0
 11
693.6340569303307575
 21
120.7669356838961932
 31
0.0
  0
ARC
  5
10AB0
  8
0
 10
693.7196855264961641
 20
120.7199030652740959
 30
0.0
 40
0.0118
 50
234.2842849073373941
 51
318.2731855231536997
  0
ARC
  5
10AB1
  8
0
 10
693.6409453446782436
 20
120.776516380518899
 30
0.0
 40
0.0118
 50
150.2950951671627138
 51
234.2842849074413039
  0
ARC
  5
10AB2
  8
0
 10
693.8029372249010294
 20
120.3646982829458949
 30
0.0
 40
0.330061958307295
 50
43.4472871882363165
 51
76.4762220671953799
  0
ARC
  5
10AB3
  8
0
 10
694.0353878068316362
 20
120.6502042256600049
 30
0.0
 40
0.0589650348399529
 50
242.4033646130909005
 51
276.9909919080948271
  0
ARC
  5
10AB4
  8
0
 10
693.9682965845237277
 20
120.7412580962411965
 30
0.0
 40
0.1042672113978832
 50
212.2571474090912034
 51
230.1618054811536922
  0
LINE
  5
10AB5
  8
0
 10
693.8971079940449727
 20
120.6534960443489979
 30
0.0
 11
693.9103911586962568
 21
120.6767792795373992
 31
0.0
  0
LINE
  5
10AB6
  8
0
 10
693.9949041831216618
 20
120.5831815988267977
 30
0.0
 11
694.0210120189633471
 21
120.6124567954459934
 31
0.0
  0
LINE
  5
10AB7
  8
0
 10
693.9792091128631455
 20
120.5814547427718963
 30
0.0
 11
693.900468931045225
 21
120.6380680580166995
 31
0.0
  0
ARC
  5
10AB8
  8
0
 10
693.9860975272106316
 20
120.5910354393946022
 30
0.0
 40
0.0118
 50
234.2842849073373941
 51
318.2731855231536997
  0
ARC
  5
10AB9
  8
0
 10
693.9073573453928248
 20
120.6476487546394054
 30
0.0
 40
0.0118
 50
150.2950951671627138
 51
234.2842849074413039
  0
ARC
  5
10ABA
  8
0
 10
693.971894404872728
 20
120.2422461381754033
 30
0.0
 40
0.330061958307295
 50
43.4472871882363165
 51
76.4762220671953799
  0
ARC
  5
10ABB
  8
0
 10
694.2043449868033349
 20
120.5277520808894991
 30
0.0
 40
0.0589650348399529
 50
242.4033646130909005
 51
276.9909919080948271
  0
ARC
  5
10ABC
  8
0
 10
694.1372537644954264
 20
120.6188059514707049
 30
0.0
 40
0.1042672113978832
 50
212.2571474090912034
 51
230.1618054811536922
  0
LINE
  5
10ABD
  8
0
 10
694.0660651740165576
 20
120.5310438995785063
 30
0.0
 11
694.0793483386680691
 21
120.5543271347669929
 31
0.0
  0
LINE
  5
10ABE
  8
0
 10
694.1638613630933605
 20
120.4607294540563061
 30
0.0
 11
694.1899691989350458
 21
120.4900046506755018
 31
0.0
  0
LINE
  5
10ABF
  8
0
 10
694.1481662928348442
 20
120.4590025980015042
 30
0.0
 11
694.0694261110170373
 21
120.5156159132461937
 31
0.0
  0
ARC
  5
10AC0
  8
0
 10
694.155054707182444
 20
120.4685832946240964
 30
0.0
 40
0.0118
 50
234.2842849073373941
 51
318.2731855231536997
  0
ARC
  5
10AC1
  8
0
 10
694.0763145253645234
 20
120.5251966098688996
 30
0.0
 40
0.0118
 50
150.2950951671627138
 51
234.2842849074413039
  0
ARC
  5
10AC2
  8
0
 10
693.7496918738561362
 20
120.187487131868096
 30
0.0
 40
0.4527994823040541
 50
48.9610003750108902
 51
71.7177144833122924
  0
ARC
  5
10AC3
  8
0
 10
694.0608854480711898
 20
120.6207427508012984
 30
0.0
 40
0.0927726863260653
 50
243.0671384233241099
 51
261.3843521553927758
  0
ARC
  5
10AC4
  8
0
 10
693.9732203008826446
 20
120.6747628824738996
 30
0.0
 40
0.1042672113978832
 50
215.7235881007350997
 51
230.1618054811536922
  0
LINE
  5
10AC5
  8
0
 10
693.9020317104038895
 20
120.5870008305817009
 30
0.0
 11
693.9146738108465797
 21
120.6091603840927036
 31
0.0
  0
LINE
  5
10AC6
  8
0
 10
693.9998278994805787
 20
120.5166863850595007
 30
0.0
 11
694.0260925556051461
 21
120.5461374271467037
 31
0.0
  0
LINE
  5
10AC7
  8
0
 10
694.1090649878136674
 20
120.425134696050506
 30
0.0
 11
693.9053926474041418
 21
120.5715728442494026
 31
0.0
  0
ARC
  5
10AC8
  8
0
 10
693.9910212435695485
 20
120.5245402256273053
 30
0.0
 40
0.0118
 50
234.2842849073373941
 51
318.2731855231536997
  0
ARC
  5
10AC9
  8
0
 10
693.9122810617517416
 20
120.5811535408720943
 30
0.0
 40
0.0118
 50
150.2950951671627138
 51
234.2842849074413039
  0
ARC
  5
10ACA
  8
0
 10
693.6866219406771279
 20
120.3842066301967009
 30
0.0
 40
0.330061958307295
 50
43.4472871882363165
 51
76.4762220671953799
  0
ARC
  5
10ACB
  8
0
 10
694.0429284982385525
 20
120.9859787025183948
 30
0.0
 40
0.3925349017861172
 50
247.9943530203941862
 51
252.7077768125350872
  0
ARC
  5
10ACC
  8
0
 10
693.8519813002998262
 20
120.7607664434920025
 30
0.0
 40
0.1042672113978832
 50
212.2571474090912034
 51
230.1618054811536922
  0
LINE
  5
10ACD
  8
0
 10
693.7807927098209575
 20
120.6730043915998039
 30
0.0
 11
693.7940758744723553
 21
120.6962876267883047
 31
0.0
  0
LINE
  5
10ACE
  8
0
 10
693.8785888988976467
 20
120.6026899460776036
 30
0.0
 11
693.9046967347394457
 21
120.6319651426967994
 31
0.0
  0
LINE
  5
10ACF
  8
0
 10
693.862893828639244
 20
120.6009630900228018
 30
0.0
 11
693.7841536468213235
 21
120.657576405267605
 31
0.0
  0
ARC
  5
10AD0
  8
0
 10
693.8697822429867301
 20
120.610543786645394
 30
0.0
 40
0.0118
 50
234.2842849073373941
 51
318.2731855231536997
  0
ARC
  5
10AD1
  8
0
 10
693.7910420611689233
 20
120.6671571018901972
 30
0.0
 40
0.0118
 50
150.2950951671627138
 51
234.2842849074413039
  0
LINE
  5
10AD2
  8
0
 10
694.1250287714796059
 20
120.4271736639763049
 30
0.0
 11
694.1473010992868922
 21
120.4539751585082001
 31
0.0
  0
LINE
  5
10AD3
  8
0
 10
694.0826548541327838
 20
120.4576178201699008
 30
0.0
 11
694.105644990052042
 21
120.4851969896549946
 31
0.0
  0
ARC
  5
10AD4
  8
0
 10
694.073591054511553
 20
120.4651734496224975
 30
0.0
 40
0.0118
 50
234.2842849074096989
 51
320.1852411556786819
  0
ARC
  5
10AD5
  8
0
 10
694.1159534021613808
 20
120.4347153926731977
 30
0.0
 40
0.0118
 50
234.2842849074656897
 51
320.2730571389753891
  0
ARC
  5
10AD6
  8
0
 10
693.7788957951631801
 20
119.8139726422053997
 30
0.0
 40
0.7384617044779495
 50
57.677092078180543
 51
64.1978632743727502
  0
ARC
  5
10AD7
  8
0
 10
693.7096372941280151
 20
119.8514489964463934
 30
0.0
 40
0.747300885940183
 50
55.9093572778521803
 51
65.8917029154550846
  0
ARC
  5
10AD8
  8
0
 10
694.1957255948959755
 20
120.6682886274767981
 30
0.0
 40
0.209063468773989
 50
243.4704227289649907
 51
251.2436035555253113
  0
ARC
  5
10AD9
  8
0
 10
693.986430634071553
 20
119.8573290077044931
 30
0.0
 40
0.6359539568613928
 50
55.889844581286539
 51
73.0318590851205158
  0
ARC
  5
10ADA
  8
0
 10
694.546548137246532
 20
121.0295778260970962
 30
0.0
 40
0.6770073369344598
 50
249.5227679151030884
 51
252.5085585497947136
  0
ARC
  5
10ADB
  8
0
 10
694.546548137246532
 20
121.0295778260970962
 30
0.0
 40
0.6770073369344598
 50
236.4131451166092006
 51
238.9433238454838033
  0
LINE
  5
10ADC
  8
0
 10
694.3796169975988732
 20
120.2924988186516941
 30
0.0
 11
694.1962724401060996
 21
120.4243222181211053
 31
0.0
  0
LINE
  5
10ADD
  8
0
 10
694.4168771321784561
 20
120.3241079267932037
 30
0.0
 11
694.3960861153409496
 21
120.2951910593853029
 31
0.0
  0
LINE
  5
10ADE
  8
0
 10
694.391638704560819
 20
120.3446616648355985
 30
0.0
 11
694.369619709664903
 21
120.3141864592096937
 31
0.0
  0
ARC
  5
10ADF
  8
0
 10
693.7653566961853357
 20
119.1569671075366017
 30
0.0
 40
1.3427015734899399
 50
60.7263585577882807
 51
66.3664594642330172
  0
ARC
  5
10AE0
  8
0
 10
694.4779722548847758
 20
120.5289417735329067
 30
0.0
 40
0.2084244000430818
 50
244.640577212352099
 51
254.397069850840893
  0
LINE
  5
10AE1
  8
0
 10
694.3146228935215731
 20
120.4020557980176989
 30
0.0
 11
694.2913765989351305
 21
120.370342907008407
 31
0.0
  0
LINE
  5
10AE2
  8
0
 10
694.3098123872349561
 20
120.4049252795770997
 30
0.0
 11
694.2872020380532376
 21
120.3734779355749964
 31
0.0
  0
ARC
  5
10AE3
  8
0
 10
694.2776213498773359
 20
120.3803663616705961
 30
0.0
 40
0.0118
 50
234.2841404606402023
 51
324.2842146504372067
  0
ARC
  5
10AE4
  8
0
 10
694.2818596140473346
 20
120.3773190806474958
 30
0.0
 40
0.0118
 50
234.2841404606004971
 51
323.7577077287967882
  0
ARC
  5
10AE5
  8
0
 10
694.3600550541592611
 20
120.3210971295868035
 30
0.0
 40
0.0118
 50
234.2841404606488993
 51
324.1510749272530916
  0
ARC
  5
10AE6
  8
0
 10
694.3865054361001512
 20
120.3020794979081955
 30
0.0
 40
0.0118
 50
234.2841404607048901
 51
324.2841403310641795
  0
LINE
  5
10AE7
  8
0
 10
694.1923995908904317
 20
120.4387438359926961
 30
0.0
 11
694.2002752770761163
 21
120.456251293068803
 31
0.0
  0
ARC
  5
10AE8
  8
0
 10
694.2031608786073775
 20
120.4339028973776067
 30
0.0
 40
0.0118
 50
155.7795202397479102
 51
234.2841404605927949
  0
ARC
  5
10AE9
  8
0
 10
693.0878607805698266
 20
119.6807626860940985
 30
0.0
 40
1.1891919106203881
 50
56.2229358598277216
 51
63.0858660440155106
  0
LINE
  5
10AEA
  8
0
 10
693.7670310604041788
 20
120.632541220072099
 30
0.0
 11
693.777824771638052
 21
120.6475534880852933
 31
0.0
  0
LINE
  5
10AEB
  8
0
 10
693.7377612917510987
 20
120.6535859703409983
 30
0.0
 11
693.7490073907822534
 21
120.6692274351315035
 31
0.0
  0
LINE
  5
10AEC
  8
0
 10
693.6226857367730645
 20
120.7363244549074039
 30
0.0
 11
693.626154073589646
 21
120.7411483380975028
 31
0.0
  0
LINE
  5
10AED
  8
0
 10
693.6271804099113751
 20
120.708829402405101
 30
0.0
 11
693.7395360078915019
 21
120.6280465469746019
 31
0.0
  0
ARC
  5
10AEE
  8
0
 10
693.6386805996160092
 20
120.7248242652291026
 30
0.0
 40
0.0197
 50
144.2841405423762069
 51
234.2841404482859105
  0
ARC
  5
10AEF
  8
0
 10
693.7217664288956485
 20
120.6650861600017066
 30
0.0
 40
0.0197
 50
234.284140448270108
 51
324.2841406053308901
  0
ARC
  5
10AF0
  8
0
 10
693.7510361975959086
 20
120.6440414097986036
 30
0.0
 40
0.0197
 50
234.2841404482537939
 51
324.2841403697033229
  0
LINE
  5
10AF1
  8
0
 10
693.3016095906617693
 20
120.9429124469073003
 30
0.0
 11
693.2185237614858124
 21
121.0026505521394995
 31
0.0
  0
LINE
  5
10AF2
  8
0
 10
693.2201532616633131
 20
121.0386633173448985
 30
0.0
 11
693.2140290883719445
 21
121.0301456046547059
 31
0.0
  0
LINE
  5
10AF3
  8
0
 10
693.3376919311424444
 20
120.9593506180964937
 30
0.0
 11
693.3291046432384519
 21
120.9474071200724978
 31
0.0
  0
ARC
  5
10AF4
  8
0
 10
693.0702326468389174
 20
120.6897357004724967
 30
0.0
 40
0.3797718691076669
 50
45.2299645519842883
 51
66.7486859258593199
  0
ARC
  5
10AF5
  8
0
 10
693.3131097803764078
 20
120.958907309724097
 30
0.0
 40
0.0197
 50
234.2841404121836888
 51
324.2841406381480738
  0
ARC
  5
10AF6
  8
0
 10
693.2300239512004509
 20
121.0186454149562962
 30
0.0
 40
0.0197
 50
144.2841404706846902
 51
234.284140412208103
  0
ARC
  5
10AF7
  8
0
 10
692.43219028096496
 20
119.8069825450811976
 30
0.0
 40
1.4384410340883069
 50
57.2467928814626106
 51
60.6889466631081831
  0
ARC
  5
10AF8
  8
0
 10
692.43219028096496
 20
119.8069825450811976
 30
0.0
 40
1.4384410340883069
 50
50.9510211347080784
 51
51.9651755945047
  0
ARC
  5
10AF9
  8
0
 10
693.1522765709355554
 20
121.0496565205862964
 30
0.0
 40
0.0196850393655665
 50
143.8565077305208035
 51
234.2841407572385037
  0
LINE
  5
10AFA
  8
0
 10
693.3344882664401894
 20
120.9186660667501059
 30
0.0
 11
693.338385834298947
 21
120.9240869393373998
 31
0.0
  0
LINE
  5
10AFB
  8
0
 10
693.4296705344919474
 20
120.8259672949701979
 30
0.0
 11
693.1407851147413339
 21
121.0336738046295011
 31
0.0
  0
LINE
  5
10AFC
  8
0
 10
693.4616185060028783
 20
120.836655242311096
 30
0.0
 11
693.4571655870295217
 21
120.8304619681039043
 31
0.0
  0
ARC
  5
10AFD
  8
0
 10
693.3184934036273717
 20
120.9301662564702013
 30
0.0
 40
0.0197
 50
234.2841404512703889
 51
324.2841403926248063
  0
ARC
  5
10AFE
  8
0
 10
693.4411707241955583
 20
120.8419621577947964
 30
0.0
 40
0.0197
 50
234.2841404512302006
 51
324.284140497176395
  0
ARC
  5
10AFF
  8
0
 10
693.0191891325227971
 20
120.2881245904031005
 30
0.0
 40
0.7055048547099265
 50
54.151957880976191
 51
60.2376125357591192
  0
ARC
  5
10B00
  8
0
 10
693.7815967144358638
 20
121.4709131495796015
 30
0.0
 40
0.7037020435661434
 50
234.1441551099026128
 51
240.2454153068335074
  0
LINE
  5
10B01
  8
0
 10
693.0291285725628541
 20
121.1388242938776045
 30
0.0
 11
693.1122144068948501
 21
121.0790861958164015
 31
0.0
  0
LINE
  5
10B02
  8
0
 10
693.1472263531552471
 20
121.0941606287052963
 30
0.0
 11
693.1397094590264487
 21
121.0835808712753021
 31
0.0
  0
LINE
  5
10B03
  8
0
 10
693.0332211841002845
 20
121.178262844781699
 30
0.0
 11
693.0246338971329578
 21
121.1663193460840944
 31
0.0
  0
ARC
  5
10B04
  8
0
 10
692.8176739550439152
 20
120.7667555080833068
 30
0.0
 40
0.4645415978256306
 50
44.8127283789848789
 51
62.3544871236172185
  0
ARC
  5
10B05
  8
0
 10
693.0406287608969933
 20
121.1548191576869016
 30
0.0
 40
0.0197
 50
144.284145131410213
 51
234.2841453573770139
  0
ARC
  5
10B06
  8
0
 10
693.1237145952288756
 20
121.095081059625798
 30
0.0
 40
0.0197
 50
234.2841453573529975
 51
324.2841452988815263
  0
LINE
  5
10B07
  8
0
 10
691.7726147330837421
 20
122.2724366761671035
 30
0.0
 11
694.5862534643529216
 21
120.2494513150364952
 31
0.0
  0
LINE
  5
10B08
  8
0
 10
691.7859100649286574
 20
122.2574421993898
 30
0.0
 11
694.5676945975010312
 21
120.257359770672096
 31
0.0
  0
LINE
  5
10B09
  8
0
 10
691.7886385873505333
 20
122.2609156439001055
 30
0.0
 11
691.7859100649286574
 21
122.2574421993898
 31
0.0
  0
ARC
  5
10B0A
  8
0
 10
696.9905377431351781
 20
125.9355342135489053
 30
0.0
 40
6.1734782669159927
 50
245.054326361184394
 51
246.8923467241777985
  0
LINE
  5
10B0B
  8
0
 10
694.5676945975011449
 20
120.257359770672295
 30
0.0
 11
694.5702707473332111
 21
120.2609427699282065
 31
0.0
  0
LINE
  5
10B0C
  8
0
 10
694.8370474144375066
 20
120.233740531537407
 30
0.0
 11
694.9968909233916747
 21
120.4197074949054951
 31
0.0
  0
ARC
  5
10B0D
  8
0
 10
700.3104036960110079
 20
133.9893925500828971
 30
0.0
 40
14.8846189409443799
 50
247.3830674686003022
 51
247.8694982086857976
  0
ARC
  5
10B0E
  8
0
 10
694.7475606115381197
 20
120.3106567983919035
 30
0.0
 40
0.118
 50
247.869498208693102
 51
319.3200721783962877
  0
LINE
  5
10B0F
  8
0
 10
691.8025925057171435
 20
122.7163854004078019
 30
0.0
 11
695.0242523459461381
 21
120.4000348261605069
 31
0.0
  0
ARC
  5
10B10
  8
0
 10
695.0092651209967016
 20
119.8096844144139936
 30
0.0
 40
0.5905406214317065
 50
36.0458322115236172
 51
88.5457445067740139
  0
ARC
  5
10B11
  8
0
 10
695.3912438682053789
 20
120.0876753349662067
 30
0.0
 40
0.1181142089306661
 50
351.3214866138575871
 51
36.0458322115236172
  0
ARC
  5
10B12
  8
0
 10
695.3912518033679362
 20
120.0876741237610048
 30
0.0
 40
0.1181061818625291
 50
275.4587872417376957
 51
351.3214866138608272
  0
ARC
  5
10B13
  8
0
 10
695.3088817479058434
 20
120.9496179990533022
 30
0.0
 40
0.9839768824816664
 50
227.2922512888308972
 51
275.4587872417376957
  0
ARC
  5
10B14
  8
0
 10
499.2914717559784776
 20
-146.6081399730502994
 30
0.0
 40
331.5634075803341716
 50
54.1091181142185533
 51
54.4406212767793178
  0
ARC
  5
10B15
  8
0
 10
731.9472146136263291
 20
174.857080365463986
 30
0.0
 40
65.2597090853423083
 50
234.0865793166694004
 51
234.9819917315936948
  0
ARC
  5
10B16
  8
0
 10
695.9661992341978021
 20
123.5052243453674947
 30
0.0
 40
2.556865573716891
 50
234.9819917315936948
 51
249.4268023619725909
  0
ARC
  5
10B17
  8
0
 10
694.2616545601058533
 20
118.9639075419954963
 30
0.0
 40
2.293807663532192
 50
51.2466851215187802
 51
69.4268023619726051
  0
ARC
  5
10B18
  8
0
 10
693.5863982214168573
 20
118.122655291426895
 30
0.0
 40
3.3725460340494848
 50
41.4232200609261767
 51
51.2466851215187802
  0
ARC
  5
10B19
  8
0
 10
687.4799252460202297
 20
112.3270675899059938
 30
0.0
 40
11.7898568959477092
 50
22.3051989301703983
 51
42.9087299640491722
  0
ARC
  5
10B1A
  8
0
 10
698.3522350588777954
 20
116.7861960645107047
 30
0.0
 40
0.038659465471307
 50
299.1337671843057251
 51
23.7907088332904095
  0
LINE
  5
10B1B
  8
0
 10
697.6106968679927149
 20
116.4756793361354994
 30
0.0
 11
698.5045984375113903
 21
116.8010328998954037
 31
0.0
  0
ARC
  5
10B1C
  8
0
 10
697.597221274342246
 20
116.5127032253931958
 30
0.0
 40
0.0394
 50
201.6570019279573955
 51
290.000000005147001
  0
ARC
  5
10B1D
  8
0
 10
698.4911228438610351
 20
116.8380567891531996
 30
0.0
 40
0.0394
 50
290.0000000051679194
 51
22.2196309002598511
  0
LINE
  5
10B1E
  8
0
 10
698.7404973195898492
 20
116.0718557451913
 30
0.0
 11
698.721531750957638
 21
116.1315919425975949
 31
0.0
  0
LINE
  5
10B1F
  8
0
 10
697.8706289841738908
 20
115.8218886631465949
 30
0.0
 11
697.894498203205103
 21
115.7639372487293059
 31
0.0
  0
ARC
  5
10B20
  8
0
 10
699.2812062889313438
 20
93.0360240412382637
 30
0.0
 40
0.0112741342238066
 50
285.3305420111157105
 51
33.5166554790512308
  0
LINE
  5
10B21
  8
0
 10
700.1841283263368041
 20
88.6533276949351148
 30
0.0
 11
700.1841289149368777
 21
87.5115954114351098
 31
0.0
  0
LINE
  5
10B22
  8
0
 10
700.1841289149368777
 20
87.5115954114351098
 30
0.0
 11
700.1250738273369052
 21
87.4525402629351163
 31
0.0
  0
LINE
  5
10B23
  8
0
 10
700.1250738273369052
 20
87.4525402629351163
 30
0.0
 11
699.652632882436933
 21
87.452540018402857
 31
0.0
  0
LINE
  5
10B24
  8
0
 10
699.652632882436933
 20
87.452540018402857
 30
0.0
 11
699.5935777338369235
 21
87.5115951070351201
 31
0.0
  0
LINE
  5
10B25
  8
0
 10
699.5935777338369235
 20
87.5115951070351201
 30
0.0
 11
699.5935760239367482
 21
88.6533273904351233
 31
0.0
  0
LINE
  5
10B26
  8
0
 10
699.5935760239367482
 20
88.6533273904351233
 30
0.0
 11
699.6526311116368788
 21
88.7123825390351044
 31
0.0
  0
LINE
  5
10B27
  8
0
 10
699.6526311116368788
 20
88.7123825390351044
 30
0.0
 11
700.1250731777369083
 21
88.7123827826351317
 31
0.0
  0
LINE
  5
10B28
  8
0
 10
700.1250731777369083
 20
88.7123827826351317
 30
0.0
 11
700.1841283263368041
 21
88.6533276949351148
 31
0.0
  0
LINE
  5
10B29
  8
0
 10
700.1841283553610538
 20
88.597028100497667
 30
0.0
 11
700.4282206266231015
 21
88.5970282263351123
 31
0.0
  0
LINE
  5
10B2A
  8
0
 10
700.1841288859129691
 20
87.5678943680351267
 30
0.0
 11
700.4282206266231015
 21
87.5678943680351267
 31
0.0
  0
ARC
  5
10B2B
  8
0
 10
700.2476354772503555
 20
88.0824615531851265
 30
0.0
 40
0.6340967051309399
 50
159.775860391768191
 51
200.224139608230189
  0
LINE
  5
10B2C
  8
0
 10
699.6526324446367653
 20
88.3016647069911045
 30
0.0
 11
699.6526323504706397
 21
88.4842919435351263
 31
0.0
  0
ARC
  5
10B2D
  8
0
 10
699.7855179348011916
 20
88.5938936727343105
 30
0.0
 40
0.1722530626053895
 50
140.4848372479659986
 51
219.5152218419532062
  0
LINE
  5
10B2E
  8
0
 10
699.6526322374369329
 20
88.7034952649351141
 30
0.0
 11
699.6526311116368788
 21
88.7123825390351044
 31
0.0
  0
ARC
  5
10B2F
  8
0
 10
699.5344762067753663
 20
88.0824615531851265
 30
0.0
 40
0.6299628429889368
 50
339.6372837851956206
 51
20.362716214805161
  0
LINE
  5
10B30
  8
0
 10
700.1250717995301329
 20
88.3016647223351185
 30
0.0
 11
700.1250720394014024
 21
88.4842920653832721
 31
0.0
  0
ARC
  5
10B31
  8
0
 10
699.9921862784409541
 20
88.5938936727343247
 30
0.0
 40
0.1722531213377178
 50
320.4848468076477843
 51
39.5151466392166668
  0
LINE
  5
10B32
  8
0
 10
700.1250720519369679
 20
88.7034952649351141
 30
0.0
 11
700.1250731777369083
 21
88.7123825390351044
 31
0.0
  0
LINE
  5
10B33
  8
0
 10
699.6526323504706397
 20
88.4842919434867099
 30
0.0
 11
700.1250720394014024
 21
88.4842920653348557
 31
0.0
  0
LINE
  5
10B34
  8
0
 10
699.6526324446367653
 20
88.3016647069911045
 30
0.0
 11
700.1250717995301329
 21
88.3016647223351185
 31
0.0
  0
LINE
  5
10B35
  8
0
 10
699.5935775097810847
 20
87.6612014062350369
 30
0.0
 11
699.4439837685119983
 21
87.661201329032437
 31
0.0
  0
LINE
  5
10B36
  8
0
 10
699.4439952580944464
 20
88.503721014211294
 30
0.0
 11
699.5935762479928144
 21
88.5037210912345955
 31
0.0
  0
LINE
  5
10B37
  8
0
 10
682.4262521226230547
 20
138.6021549904988035
 30
0.0
 11
683.1545985793230784
 21
138.6021549904988035
 31
0.0
  0
LINE
  5
10B38
  8
0
 10
683.1545985793230784
 20
138.6021549904988035
 30
0.0
 11
683.2038111778231269
 21
138.5529423932987925
 31
0.0
  0
LINE
  5
10B39
  8
0
 10
683.2038111778231269
 20
138.5529423932987925
 30
0.0
 11
683.2038111778231269
 21
138.5104541936987914
 31
0.0
  0
LINE
  5
10B3A
  8
0
 10
683.2664874307231457
 20
138.5104541936987914
 30
0.0
 11
682.3143632713231455
 21
138.5104541936987914
 31
0.0
  0
LINE
  5
10B3B
  8
0
 10
682.4262521226230547
 20
138.6021549904988035
 30
0.0
 11
682.3770395242230506
 21
138.5529423746988016
 31
0.0
  0
LINE
  5
10B3C
  8
0
 10
682.3770395242230506
 20
138.5529423746988016
 30
0.0
 11
682.3770395242230506
 21
138.5104541936987914
 31
0.0
  0
ARC
  5
10B3D
  8
0
 10
682.3143623589586468
 20
138.4904541936840872
 30
0.0
 40
0.0200000000355216
 50
89.997386268345906
 51
179.9999999578533902
  0
LINE
  5
10B3E
  8
0
 10
682.294362358923081
 20
138.4904541936988096
 30
0.0
 11
682.2943623585429123
 21
137.9736025057987945
 31
0.0
  0
ARC
  5
10B3F
  8
0
 10
682.5227088146979213
 20
137.9736025056307938
 30
0.0
 40
0.2283464561550161
 50
179.9999999578533902
 51
248.0877879227710139
  0
ARC
  5
10B40
  8
0
 10
682.4113702331877676
 20
137.6968095720357894
 30
0.0
 40
0.0699999998668475
 50
309.3709893672353246
 51
68.0877879227643348
  0
ARC
  5
10B41
  8
0
 10
682.7904253429784376
 20
137.2348636498950896
 30
0.0
 40
0.5275590442791874
 50
129.3709893672352962
 51
136.4059835674266026
  0
ARC
  5
10B42
  8
0
 10
683.2664883430875307
 20
138.4904541936840872
 30
0.0
 40
0.020000000035518
 50
0.0000000421359884
 51
90.0026137316736481
  0
LINE
  5
10B43
  8
0
 10
683.2864883431230965
 20
138.4904541936988096
 30
0.0
 11
683.2864883435031516
 21
137.9736025057987945
 31
0.0
  0
ARC
  5
10B44
  8
0
 10
683.0581418872779977
 20
137.9736025056309074
 30
0.0
 40
0.2283464562251538
 50
291.9122120837023999
 51
0.0000000421359884
  0
ARC
  5
10B45
  8
0
 10
683.1694804688331715
 20
137.696809572013791
 30
0.0
 40
0.0699999998339842
 50
111.9122120837023999
 51
230.6290106379643987
  0
ARC
  5
10B46
  8
0
 10
682.7904253593250132
 20
137.2348636501315866
 30
0.0
 40
0.5275590439331026
 50
43.5940164328786892
 51
50.6290106379643987
  0
LINE
  5
10B47
  8
0
 10
682.5921724731020959
 20
138.3411628550242085
 30
0.0
 11
682.5921724731020959
 21
137.9736025057987945
 31
0.0
  0
ARC
  5
10B48
  8
0
 10
682.6867209101188791
 20
137.9736025057987945
 30
0.0
 40
0.0945484370168188
 50
179.9999999999974989
 51
211.9663705363049928
  0
ARC
  5
10B49
  8
0
 10
682.7266398795876512
 20
137.9985140794767062
 30
0.0
 40
0.1416027739747707
 50
211.9663705363057034
 51
243.7007213763345987
  0
ARC
  5
10B4A
  8
0
 10
682.7876171913458165
 20
138.1218962051287065
 30
0.0
 40
0.2792304655185481
 50
243.7007213763345987
 51
264.7367334732456925
  0
ARC
  5
10B4B
  8
0
 10
682.7905114464444978
 20
138.1533143159323913
 30
0.0
 40
0.3107816049440198
 50
264.7367334732522863
 51
278.4608522432736208
  0
ARC
  5
10B4C
  8
0
 10
682.7971487012268881
 20
138.1086948819234124
 30
0.0
 40
0.2656712176443498
 50
278.4608522432736208
 51
296.8037324040748217
  0
ARC
  5
10B4D
  8
0
 10
682.8505238594842695
 20
138.0030471297592953
 30
0.0
 40
0.1473058719712019
 50
296.8037324040752196
 51
324.6382987007427801
  0
ARC
  5
10B4E
  8
0
 10
682.8909654301774026
 20
137.9743474674610013
 30
0.0
 40
0.0977156384954912
 50
324.6382987007427801
 51
359.5631858596776169
  0
LINE
  5
10B4F
  8
0
 10
682.9886782289230496
 20
137.9736025057987945
 30
0.0
 11
682.9886782289255507
 21
138.3411628550323087
 31
0.0
  0
LINE
  5
10B50
  8
0
 10
682.9886782289255507
 20
138.3411628550323087
 30
0.0
 11
682.5921724730810638
 21
138.3411628550242085
 31
0.0
  0
ARC
  5
10B51
  8
0
 10
682.7904253510231456
 20
137.8864395030381047
 30
0.0
 40
0.4960620227807786
 50
66.4434868815552591
 51
113.5565131207890062
  0
LINE
  5
10B52
  8
0
 10
682.3770395056229745
 20
138.5529423746988016
 30
0.0
 11
683.2038111964229756
 21
138.5529423746988016
 31
0.0
  0
ARC
  5
10B53
  8
0
 10
672.1943365526022944
 20
107.5660779482986982
 30
0.0
 40
27.1201153248428604
 50
8.1709783606318265
 51
14.8882236338308598
  0
ARC
  5
10B54
  8
0
 10
661.7691240544265838
 20
105.9666970763212959
 30
0.0
 40
37.6669473981669114
 50
4.8601890146007412
 51
8.3252719712438985
  0
ARC
  5
10B55
  8
0
 10
642.9254258750747795
 20
104.4412095601045962
 30
0.0
 40
56.5721893800566917
 50
0.7540541564859329
 51
4.782687743776151
  0
ARC
  5
10B56
  8
0
 10
588.7097681905892159
 20
103.7926556374246019
 30
0.0
 40
110.7917061894912933
 50
358.2215752611102175
 51
0.7204399292187204
  0
ARC
  5
10B57
  8
0
 10
950.6920214750763307
 20
91.4309768588348533
 30
0.0
 40
251.4023266324996939
 50
177.9659044204917109
 51
179.3994358527891961
  0
ARC
  5
10B58
  8
0
 10
720.8757829053747628
 20
93.9574141277822861
 30
0.0
 40
21.5725512842086111
 50
179.7113789309304934
 51
186.856074985034013
  0
ARC
  5
10B59
  8
0
 10
700.1060522600857894
 20
91.3815617621867915
 30
0.0
 40
0.6485588815043841
 50
179.9457992348862945
 51
217.234473215123586
  0
ARC
  5
10B5A
  8
0
 10
699.8767539450112736
 20
91.2444764758187858
 30
0.0
 40
0.3841940469755236
 50
221.6532876221403114
 51
249.4760638078793136
  0
ARC
  5
10B5B
  8
0
 10
699.8432982532004871
 20
91.1551089960673693
 30
0.0
 40
0.2887695755247408
 50
249.4760638078793136
 51
272.3517208447652251
  0
ARC
  5
10B5C
  8
0
 10
699.8413262820693035
 20
91.2031258203287081
 30
0.0
 40
0.336826875514299
 50
272.3517208447652251
 51
296.7268650325356134
  0
ARC
  5
10B5D
  8
0
 10
699.8445580316665655
 20
91.1967077002233992
 30
0.0
 40
0.3296410233626266
 50
296.7268650325356134
 51
340.849225795973382
  0
ARC
  5
10B5E
  8
0
 10
699.207107371482266
 20
91.4180776077247259
 30
0.0
 40
1.0044357922489751
 50
340.849225795973382
 51
354.2456744142974117
  0
ARC
  5
10B5F
  8
0
 10
697.9220289639112025
 20
91.5475762014736887
 30
0.0
 40
2.2960225680362409
 50
354.2456744142974117
 51
0.7478109299848191
  0
LINE
  5
10B60
  8
0
 10
700.2178559727060474
 20
91.5775424928667263
 30
0.0
 11
700.2178559727060474
 21
91.7773518298626101
 31
0.0
  0
ARC
  5
10B61
  8
0
 10
727.9996019283846636
 20
94.2266397219752037
 30
0.0
 40
28.0595772061841089
 50
179.8076878243811905
 51
184.6417368231331011
  0
ARC
  5
10B62
  8
0
 10
705.9084026187066456
 20
92.4245837720605437
 30
0.0
 40
5.8950073815577779
 50
184.5599461617287886
 51
190.8118694577694043
  0
LINE
  5
10B63
  8
0
 10
698.592828032225043
 20
116.0881973395780022
 30
0.0
 11
699.0392306375491671
 21
114.6283835858250058
 31
0.0
  0
ARC
  5
10B64
  8
0
 10
669.4868565336610118
 20
106.959274037646793
 30
0.0
 40
30.531263590590509
 50
4.4613567074867788
 51
14.5478666775335199
  0
ARC
  5
10B65
  8
0
 10
640.5869963923797741
 20
104.2946940224849044
 30
0.0
 40
59.5522276929908401
 50
0.0845587483768784
 51
4.854363851102514
  0
ARC
  5
10B66
  8
0
 10
599.6460479053553172
 20
103.8594945193825936
 30
0.0
 40
100.4944727102695055
 50
358.9823586440206782
 51
0.2982342143971754
  0
ARC
  5
10B67
  8
0
 10
435.6286817313568918
 20
107.1532045258974932
 30
0.0
 40
264.5447394589795067
 50
358.0121291465615059
 51
358.9000139900360864
  0
ARC
  5
10B68
  8
0
 10
815.0332311792843711
 20
93.8188106224574199
 30
0.0
 40
115.0941432218591984
 50
177.9296856017313928
 51
179.7500901021583957
  0
ARC
  5
10B69
  8
0
 10
697.0684189463231633
 20
92.5785329338488054
 30
0.0
 40
0.1181102362000015
 50
90.0000000000065086
 51
179.9999999999984084
  0
LINE
  5
10B6A
  8
0
 10
696.9503087101229539
 20
92.5785329338488054
 30
0.0
 11
696.9503087101229539
 21
92.1848321464488265
 31
0.0
  0
ARC
  5
10B6B
  8
0
 10
697.0684189463230496
 20
92.1848321464488265
 30
0.0
 40
0.1181102361999962
 50
179.9999999999974989
 51
270.0000000000064801
  0
LINE
  5
10B6C
  8
0
 10
699.030582831323045
 20
93.9663282094488181
 30
0.0
 11
699.030582831323045
 21
111.4797132022053034
 31
0.0
  0
LINE
  5
10B6D
  8
0
 10
701.2156222014231162
 20
89.361988856235115
 30
0.0
 11
701.2156222014231162
 21
86.802933738135124
 31
0.0
  0
ARC
  5
10B6E
  8
0
 10
701.1959368940542845
 20
86.8029338491314491
 30
0.0
 40
0.0196853073691599
 50
270.0007799463593869
 51
359.9996769356326922
  0
LINE
  5
10B6F
  8
0
 10
701.1959371620231423
 20
86.7832485417641237
 30
0.0
 11
701.0738899179231112
 21
86.7832485417641237
 31
0.0
  0
ARC
  5
10B70
  8
0
 10
701.0738904188053766
 20
86.9801020100125868
 30
0.0
 40
0.1968534682491107
 50
218.0003784791744863
 51
269.9998542141894973
  0
LINE
  5
10B71
  8
0
 10
700.9187685695230812
 20
86.8589058886351353
 30
0.0
 11
700.4449081171517264
 21
87.4654124883560371
 31
0.0
  0
ARC
  5
10B72
  8
0
 10
700.506937901707829
 20
87.5138760364588961
 30
0.0
 40
0.0787172767999421
 50
179.9880391822580918
 51
218.000326367977209
  0
LINE
  5
10B73
  8
0
 10
700.4282206266231015
 20
87.5138924691351292
 30
0.0
 11
700.4282206266231015
 21
88.651030125235124
 31
0.0
  0
ARC
  5
10B74
  8
0
 10
700.5069607841229526
 20
88.6510301252351383
 30
0.0
 40
0.0787401574999791
 50
142.0000000582774931
 51
180.0000000000048885
  0
LINE
  5
10B75
  8
0
 10
700.4449126932230456
 20
88.699507406705834
 30
0.0
 11
700.9272487260991511
 21
89.3168693771852418
 31
0.0
  0
ARC
  5
10B76
  8
0
 10
701.0744892481261559
 20
89.1820034054551058
 30
0.0
 40
0.1996712339258697
 50
90.171978417032463
 51
137.5116589124345978
  0
LINE
  5
10B77
  8
0
 10
701.0738899179231112
 20
89.381673739908635
 30
0.0
 11
701.195937162006885
 21
89.381673739908635
 31
0.0
  0
ARC
  5
10B78
  8
0
 10
701.1959374278623045
 20
89.3619889663493439
 30
0.0
 40
0.0196847735611054
 50
359.9996794944410112
 51
90.0007738157302555
  0
ARC
  5
10B79
  8
0
 10
699.0560946724573341
 20
94.6211499004585335
 30
0.0
 40
0.0944083665278402
 50
143.8783204197007137
 51
171.1364581915674137
  0
ARC
  5
10B7A
  8
0
 10
698.9969400218988085
 20
94.6643205081319223
 30
0.0
 40
0.021176037262773
 50
122.1622346820610971
 51
143.8783204196851955
  0
ARC
  5
10B7B
  8
0
 10
698.9939910936601564
 20
94.6690101790124459
 30
0.0
 40
0.0156362547106903
 50
85.1021716458739093
 51
122.162234682084204
  0
ARC
  5
10B7C
  8
0
 10
698.9947267787066494
 20
94.6775953972735635
 30
0.0
 40
0.0070195729201794
 50
40.8085179199562376
 51
85.1021716458935344
  0
ARC
  5
10B7D
  8
0
 10
698.9815966524356554
 20
94.6623342237287773
 30
0.0
 40
0.027094711134336
 50
21.8525594178143301
 51
47.1020466296611389
  0
ARC
  5
10B7E
  8
0
 10
698.8941638573077171
 20
94.6289276077287411
 30
0.0
 40
0.120689393614454
 50
4.4237913375144267
 51
21.1223897349267418
  0
ARC
  5
10B7F
  8
0
 10
698.6914488600574487
 20
94.6060351277589433
 30
0.0
 40
0.3246458211268673
 50
354.8318964020580211
 51
5.6925290273596714
  0
ARC
  5
10B80
  8
0
 10
698.8600859953304507
 20
94.5890387732578262
 30
0.0
 40
0.1551729655005348
 50
344.7197664374284045
 51
355.4731791130116108
  0
ARC
  5
10B81
  8
0
 10
698.9698497257212466
 20
94.5578657529175644
 30
0.0
 40
0.0410901367768661
 50
317.8919542513160081
 51
346.3149353404605222
  0
ARC
  5
10B82
  8
0
 10
698.9936322237484774
 20
94.536370549894329
 30
0.0
 40
0.0090331411998902
 50
266.7618263381132806
 51
317.8919542513056058
  0
ARC
  5
10B83
  8
0
 10
698.9939527846898955
 20
94.5420364688211947
 30
0.0
 40
0.0147081210767465
 50
250.0032364279693127
 51
266.7618263381198176
  0
ARC
  5
10B84
  8
0
 10
698.9991242681898029
 20
94.5505030904493253
 30
0.0
 40
0.0245116252917182
 50
218.0973440481076864
 51
245.4065357331627126
  0
ARC
  5
10B85
  8
0
 10
699.0307600152301575
 20
94.5762518979601055
 30
0.0
 40
0.0652990462891872
 50
203.3816562703073032
 51
218.7502922164111112
  0
ARC
  5
10B86
  8
0
 10
699.1015685180392438
 20
94.6045960989300454
 30
0.0
 40
0.1415567294408563
 50
179.0091835492623886
 51
202.5381099307466002
  0
ARC
  5
10B87
  8
0
 10
699.1154710394180256
 20
94.6064197046436988
 30
0.0
 40
0.1554393385727788
 50
169.1435680598669933
 51
179.7699106845857955
  0
LINE
  5
10B88
  8
0
 10
700.9187696908229555
 20
89.3060167069116631
 30
0.0
 11
700.9187696908229555
 21
86.8589044534697905
 31
0.0
  0
LINE
  5
10B89
  8
0
 10
698.4806003488193937
 20
116.7302670352349026
 30
0.0
 11
697.6703722141094204
 21
116.435368111214899
 31
0.0
  0
LINE
  5
10B8A
  8
0
 10
698.2572682029459656
 20
116.0833744853690064
 30
0.0
 11
698.1562780031223383
 21
116.3608427789517066
 31
0.0
  0
LINE
  5
10B8B
  8
0
 10
697.8687138165284978
 20
115.8559281453482015
 30
0.0
 11
697.8410662008395775
 21
115.931889345149699
 31
0.0
  0
LINE
  5
10B8C
  8
0
 10
697.7400760010158365
 20
116.2093576387323992
 30
0.0
 11
697.6633196788757232
 21
116.4202439005982939
 31
0.0
  0
LINE
  5
10B8D
  8
0
 10
698.701118697088873
 20
116.1588987447511983
 30
0.0
 11
698.6734710813999527
 21
116.2348599445525963
 31
0.0
  0
LINE
  5
10B8E
  8
0
 10
698.5724808815762117
 20
116.512328238135396
 30
0.0
 11
698.4957245594360984
 21
116.7232145000012054
 31
0.0
  0
LINE
  5
10B8F
  8
0
 10
698.6835471262523924
 20
116.1212163894858946
 30
0.0
 11
697.9063961717937445
 21
115.8383565745117068
 31
0.0
  0
ARC
  5
10B90
  8
0
 10
698.6734917340379525
 20
116.1488433525368009
 30
0.0
 40
0.0294
 50
290.0000000012726105
 51
20.0000000012853505
  0
ARC
  5
10B91
  8
0
 10
697.8963407795794183
 20
115.8659835375625988
 30
0.0
 40
0.0294
 50
200.0000000012753958
 51
290.0000000012792043
  0
ARC
  5
10B92
  8
0
 10
697.6744080518009241
 20
116.4242797382897976
 30
0.0
 40
0.0118
 50
110.0000000012724968
 51
200.0000000012738894
  0
ARC
  5
10B93
  8
0
 10
698.4846361865108975
 20
116.7191786623098011
 30
0.0
 40
0.0118
 50
20.0000000012921717
 51
110.0000000012724968
  0
LINE
  5
10B94
  8
0
 10
697.7277436557636747
 20
116.2048690321416018
 30
0.0
 11
698.5848132268284871
 21
116.5168168447261934
 31
0.0
  0
LINE
  5
10B95
  8
0
 10
698.5848132268284871
 20
116.5168168447261934
 30
0.0
 11
698.6858034266522282
 21
116.2393485511434932
 31
0.0
  0
LINE
  5
10B96
  8
0
 10
698.6858034266522282
 20
116.2393485511434932
 30
0.0
 11
697.8287338555875294
 21
115.9274007385589016
 31
0.0
  0
LINE
  5
10B97
  8
0
 10
697.8287338555875294
 20
115.9274007385589016
 30
0.0
 11
697.7277436557636747
 21
116.2048690321416018
 31
0.0
  0
LINE
  5
10B98
  8
0
 10
698.2365586303774307
 20
116.0758368173891029
 30
0.0
 11
698.1355684305536897
 21
116.3533051109718031
 31
0.0
  0
LINE
  5
10B99
  8
0
 10
698.2170993117039188
 20
116.0687542046123042
 30
0.0
 11
698.1161091118800641
 21
116.3462224981951039
 31
0.0
  0
LINE
  5
10B9A
  8
0
 10
698.1953319726380869
 20
116.0608315411126057
 30
0.0
 11
698.0943417728142322
 21
116.3382998346954054
 31
0.0
  0
LINE
  5
10B9B
  8
0
 10
698.1773050325008398
 20
116.0542702714872974
 30
0.0
 11
698.0763148326769851
 21
116.331738565070097
 31
0.0
  0
LINE
  5
10B9C
  8
0
 10
698.154683600891758
 20
116.0460367437245992
 30
0.0
 11
698.0536934010681307
 21
116.3235050373072994
 31
0.0
  0
LINE
  5
10B9D
  8
0
 10
698.138257351958714
 20
116.0400580780517998
 30
0.0
 11
698.0372671521348593
 21
116.3175263716345995
 31
0.0
  0
LINE
  5
10B9E
  8
0
 10
698.1149930380065598
 20
116.0315905602520985
 30
0.0
 11
698.0140028381828188
 21
116.3090588538347987
 31
0.0
  0
LINE
  5
10B9F
  8
0
 10
698.1003208477918633
 20
116.026250319742104
 30
0.0
 11
697.999330647968236
 21
116.3037186133248042
 31
0.0
  0
LINE
  5
10BA0
  8
0
 10
698.0766308640769466
 20
116.0176278708189983
 30
0.0
 11
697.9756406642532056
 21
116.2950961644016985
 31
0.0
  0
LINE
  5
10BA1
  8
0
 10
698.0638497228508186
 20
116.0129759158523939
 30
0.0
 11
697.9628595230268502
 21
116.2904442094350941
 31
0.0
  0
LINE
  5
10BA2
  8
0
 10
698.0399552564773558
 20
116.004279041328104
 30
0.0
 11
697.9389650566535011
 21
116.2817473349109036
 31
0.0
  0
LINE
  5
10BA3
  8
0
 10
698.0291844982483553
 20
116.0003588059319952
 30
0.0
 11
697.9281942984246143
 21
116.2778270995147949
 31
0.0
  0
LINE
  5
10BA4
  8
0
 10
698.0053086453062861
 20
115.9916687061428036
 30
0.0
 11
697.904318445482545
 21
116.2691369997256032
 31
0.0
  0
LINE
  5
10BA5
  8
0
 10
697.9966488338177442
 20
115.9885167925263971
 30
0.0
 11
697.8956586339941168
 21
116.2659850861091968
 31
0.0
  0
LINE
  5
10BA6
  8
0
 10
697.9730145168358604
 20
115.9799146046372016
 30
0.0
 11
697.872024317012233
 21
116.2573828982200013
 31
0.0
  0
LINE
  5
10BA7
  8
0
 10
697.966546506341956
 20
115.9775604413423054
 30
0.0
 11
697.8655563065179877
 21
116.255028734925105
 31
0.0
  0
LINE
  5
10BA8
  8
0
 10
697.9433743923983684
 20
115.9691264816012932
 30
0.0
 11
697.8423841925747411
 21
116.2465947751839934
 31
0.0
  0
LINE
  5
10BA9
  8
0
 10
697.9391585730909355
 20
115.9675920488601975
 30
0.0
 11
697.8381683732670808
 21
116.2450603424428976
 31
0.0
  0
LINE
  5
10BAA
  8
0
 10
697.9166650141021364
 20
115.9594050629249011
 30
0.0
 11
697.815674814278168
 21
116.2368733565077008
 31
0.0
  0
LINE
  5
10BAB
  8
0
 10
697.8931357600173442
 20
115.9508411148029978
 30
0.0
 11
697.7921455601934895
 21
116.2283094083857975
 31
0.0
  0
LINE
  5
10BAC
  8
0
 10
697.8730063166538002
 20
115.9435145965857998
 30
0.0
 11
697.7720161168299455
 21
116.2209828901685995
 31
0.0
  0
LINE
  5
10BAD
  8
0
 10
697.8564646269519471
 20
115.9374939139095062
 30
0.0
 11
697.7554744271282061
 21
116.2149622074922064
 31
0.0
  0
LINE
  5
10BAE
  8
0
 10
697.843665136441814
 20
115.9328352803497069
 30
0.0
 11
697.7426749366180729
 21
116.2103035739325065
 31
0.0
  0
LINE
  5
10BAF
  8
0
 10
697.8347273503444512
 20
115.9295821922497964
 30
0.0
 11
697.7337371505208239
 21
116.2070504858325961
 31
0.0
  0
LINE
  5
10BB0
  8
0
 10
698.2779777755148416
 20
116.0909121533488957
 30
0.0
 11
698.1769875756911006
 21
116.3683804469315959
 31
0.0
  0
LINE
  5
10BB1
  8
0
 10
698.2974370941883535
 20
116.0979947661256944
 30
0.0
 11
698.1964468943646125
 21
116.3754630597083946
 31
0.0
  0
LINE
  5
10BB2
  8
0
 10
698.3192044332540718
 20
116.1059174296252934
 30
0.0
 11
698.2182142334304444
 21
116.3833857232080931
 31
0.0
  0
LINE
  5
10BB3
  8
0
 10
698.3372313733914325
 20
116.1124786992506017
 30
0.0
 11
698.2362411735675778
 21
116.3899469928334014
 31
0.0
  0
LINE
  5
10BB4
  8
0
 10
698.3598528050004006
 20
116.1207122270133993
 30
0.0
 11
698.2588626051765459
 21
116.3981805205960995
 31
0.0
  0
LINE
  5
10BB5
  8
0
 10
698.3762790539335583
 20
116.1266908926860992
 30
0.0
 11
698.2752888541098173
 21
116.4041591862688989
 31
0.0
  0
LINE
  5
10BB6
  8
0
 10
698.3995433678857125
 20
116.1351584104859
 30
0.0
 11
698.2985531680618578
 21
116.4126267040686997
 31
0.0
  0
LINE
  5
10BB7
  8
0
 10
698.4142155581002953
 20
116.1404986509958945
 30
0.0
 11
698.3132253582764406
 21
116.4179669445785947
 31
0.0
  0
LINE
  5
10BB8
  8
0
 10
698.437905541815212
 20
116.1491210999189008
 30
0.0
 11
698.3369153419913573
 21
116.4265893935017004
 31
0.0
  0
LINE
  5
10BB9
  8
0
 10
698.4506866830414538
 20
116.1537730548856047
 30
0.0
 11
698.3496964832178264
 21
116.4312413484684043
 31
0.0
  0
LINE
  5
10BBA
  8
0
 10
698.4745811494150303
 20
116.1624699294097951
 30
0.0
 11
698.3735909495911756
 21
116.4399382229925948
 31
0.0
  0
LINE
  5
10BBB
  8
0
 10
698.4853519076438033
 20
116.1663901648059039
 30
0.0
 11
698.384361707820176
 21
116.4438584583887035
 31
0.0
  0
LINE
  5
10BBC
  8
0
 10
698.5092277605858726
 20
116.1750802645950955
 30
0.0
 11
698.4082375607621316
 21
116.4525485581778952
 31
0.0
  0
LINE
  5
10BBD
  8
0
 10
698.5178875720744145
 20
116.1782321782115019
 30
0.0
 11
698.4168973722505598
 21
116.4557004717943016
 31
0.0
  0
LINE
  5
10BBE
  8
0
 10
698.541521889056412
 20
116.1868343661006975
 30
0.0
 11
698.4405316892324436
 21
116.4643026596834972
 31
0.0
  0
LINE
  5
10BBF
  8
0
 10
698.54798989955043
 20
116.1891885293956932
 30
0.0
 11
698.4469996997264616
 21
116.4666568229783934
 31
0.0
  0
LINE
  5
10BC0
  8
0
 10
698.5711620134935629
 20
116.1976224891366059
 30
0.0
 11
698.4701718136699355
 21
116.4750907827194055
 31
0.0
  0
LINE
  5
10BC1
  8
0
 10
698.5753778328014505
 20
116.1991569218778011
 30
0.0
 11
698.4743876329774821
 21
116.4766252154606008
 31
0.0
  0
LINE
  5
10BC2
  8
0
 10
698.5978713917902496
 20
116.2073439078129979
 30
0.0
 11
698.4968811919665086
 21
116.4848122013957976
 31
0.0
  0
LINE
  5
10BC3
  8
0
 10
698.6214006458749282
 20
116.2159078559349012
 30
0.0
 11
698.5204104460509598
 21
116.4933761495177009
 31
0.0
  0
LINE
  5
10BC4
  8
0
 10
698.6415300892383584
 20
116.2232343741520992
 30
0.0
 11
698.5405398894146174
 21
116.5007026677347994
 31
0.0
  0
LINE
  5
10BC5
  8
0
 10
698.6580717789402115
 20
116.2292550568284071
 30
0.0
 11
698.5570815791163568
 21
116.5067233504112068
 31
0.0
  0
LINE
  5
10BC6
  8
0
 10
698.6708712694503447
 20
116.2339136903882064
 30
0.0
 11
698.56988106962649
 21
116.5113819839710061
 31
0.0
  0
LINE
  5
10BC7
  8
0
 10
698.6798090555477074
 20
116.2371667784881026
 30
0.0
 11
698.5788188557238527
 21
116.5146350720709023
 31
0.0
  0
LINE
  5
10BC8
  8
0
 10
695.5974002932422309
 20
87.7492830704327957
 30
0.0
 11
695.5215307717779751
 21
87.5614994152528539
 31
0.0
  0
ARC
  5
10BC9
  8
0
 10
695.4937152561526545
 20
87.5727376130489006
 30
0.0
 40
0.0299999999868266
 50
247.9999999748411028
 51
338.0000000030702267
  0
LINE
  5
10BCA
  8
0
 10
695.4824770583428517
 20
87.544922097429037
 30
0.0
 11
694.6637737149097802
 21
87.8756997197730954
 31
0.0
  0
ARC
  5
10BCB
  8
0
 10
694.6750119127391372
 20
87.9035152354414038
 30
0.0
 40
0.0300000000390685
 50
158.0000008527653961
 51
247.9999999748407902
  0
LINE
  5
10BCC
  8
0
 10
694.6471963968986074
 20
87.9147534328445062
 30
0.0
 11
694.7727125284988006
 21
88.2254167733719754
 31
0.0
  0
LINE
  5
10BCD
  8
0
 10
695.413518671771385
 20
87.572783094130429
 30
0.0
 11
695.4048083309453432
 21
87.551224244366054
 31
0.0
  0
ARC
  5
10BCE
  8
0
 10
695.3902070103098367
 20
87.5571235609174749
 30
0.0
 40
0.0157480316254173
 50
248.0000008464600114
 51
337.9999997204409965
  0
LINE
  5
10BCF
  8
0
 10
695.3843076940453329
 20
87.5425222401660506
 30
0.0
 11
694.7327237607985353
 21
87.8057792263330867
 31
0.0
  0
ARC
  5
10BD0
  8
0
 10
694.7386230769072881
 20
87.8203805466991412
 30
0.0
 40
0.0157480312097653
 50
157.9999609858467977
 51
248.0000008464596988
  0
LINE
  5
10BD1
  8
0
 10
694.7240217606453143
 20
87.8262798729660545
 30
0.0
 11
694.7327321161659484
 21
87.8478387171386856
 31
0.0
  0
LINE
  5
10BD2
  8
0
 10
694.9113419098453051
 20
87.808031718166049
 30
0.0
 11
694.9577931274253615
 21
87.9230025161337068
 31
0.0
  0
LINE
  5
10BD3
  8
0
 10
694.9577931274253615
 20
87.9230025161337068
 30
0.0
 11
695.3038364763958725
 21
87.7831919277437436
 31
0.0
  0
LINE
  5
10BD4
  8
0
 10
695.3038364763958725
 20
87.7831919277437436
 30
0.0
 11
695.2573852588629961
 21
87.6682211299588658
 31
0.0
  0
ARC
  5
10BD5
  8
0
 10
695.2166722799288436
 20
87.7667902923630692
 30
0.0
 40
0.1066462677636209
 50
253.5829182927473084
 51
292.4425692561334813
  0
ARC
  5
10BD6
  8
0
 10
694.987256603249989
 20
87.8303361369777633
 30
0.0
 40
0.0791234969731079
 50
196.3732618433161861
 51
247.3523031938252075
  0
LINE
  5
10BD7
  8
0
 10
695.2428859809231199
 20
88.6415250597988233
 30
0.0
 11
697.5864387252996721
 21
88.6415250597988233
 31
0.0
  0
LINE
  5
10BD8
  8
0
 10
695.9613391819231083
 20
87.539162855098823
 30
0.0
 11
697.5966841529648264
 21
87.539162855098823
 31
0.0
  0
LINE
  5
10BD9
  8
0
 10
697.7314255975288688
 20
116.4575897254825065
 30
0.0
 11
697.7114891301497437
 21
116.5123647194153023
 31
0.0
  0
LINE
  5
10BDA
  8
0
 10
698.4195469653826649
 20
116.7080454210141056
 30
0.0
 11
698.3996104980035398
 21
116.7628204149469013
 31
0.0
  0
ARC
  5
10BDB
  8
0
 10
695.2428859809358528
 20
88.090343957359579
 30
0.0
 40
0.5511811024392445
 50
90.0000000013353372
 51
162.3736251115136042
  0
LINE
  5
10BDC
  8
0
 10
694.7175820721230366
 20
88.2572463571988237
 30
0.0
 11
695.9613391819231083
 21
87.539162855098823
 31
0.0
  0
LINE
  5
10BDD
  8
0
 10
698.0463308628229697
 20
92.0076667920988029
 30
0.0
 11
699.030582831323045
 21
92.0076667920988029
 31
0.0
  0
LINE
  5
10BDE
  8
0
 10
699.030582831323045
 20
92.0076667920988029
 30
0.0
 11
699.030582831323045
 21
91.948611673998812
 31
0.0
  0
LINE
  5
10BDF
  8
0
 10
699.030582831323045
 20
91.948611673998812
 30
0.0
 11
698.0463308628229697
 21
91.948611673998812
 31
0.0
  0
LINE
  5
10BE0
  8
0
 10
698.0463308628229697
 20
91.948611673998812
 30
0.0
 11
698.0463308628229697
 21
92.0076667920988029
 31
0.0
  0
LINE
  5
10BE1
  8
0
 10
698.1244968733710721
 20
92.0273518314988053
 30
0.0
 11
698.1244968733710721
 21
92.0076667921488109
 31
0.0
  0
LINE
  5
10BE2
  8
0
 10
698.2234962171729649
 20
92.0273518314988053
 30
0.0
 11
698.2234962171729649
 21
92.0076667920988029
 31
0.0
  0
LINE
  5
10BE3
  8
0
 10
698.087177319575062
 20
91.948611673998812
 30
0.0
 11
698.1119476607836987
 21
91.3541234850488024
 31
0.0
  0
LINE
  5
10BE4
  8
0
 10
698.1152285006797911
 20
91.2753833275487949
 30
0.0
 11
698.126711440316285
 21
90.9997927762988184
 31
0.0
  0
LINE
  5
10BE5
  8
0
 10
698.1632364045731265
 20
90.8029423826488085
 30
0.0
 11
698.9136772895617469
 21
90.8029423809863943
 31
0.0
  0
LINE
  5
10BE6
  8
0
 10
698.1119476607731258
 20
91.3541234850488024
 30
0.0
 11
698.9649660333625434
 21
91.3541234850488024
 31
0.0
  0
LINE
  5
10BE7
  8
0
 10
698.1152285006729699
 20
91.2753833275487949
 30
0.0
 11
698.961685193466451
 21
91.2753833275487949
 31
0.0
  0
LINE
  5
10BE8
  8
0
 10
698.1404253510730769
 20
91.3497927763488065
 30
0.0
 11
698.9364883443885219
 21
91.3497927763488065
 31
0.0
  0
LINE
  5
10BE9
  8
0
 10
698.1404227038315184
 20
91.2797140362488051
 30
0.0
 11
698.9364909902873251
 21
91.2797140362488051
 31
0.0
  0
ARC
  5
10BEA
  8
0
 10
698.1404253497577201
 20
91.3147534062488546
 30
0.0
 40
0.0350393700999483
 50
89.9999978491120771
 51
269.9956734265552996
  0
LINE
  5
10BEB
  8
0
 10
698.144756059673
 20
91.3541234850488024
 30
0.0
 11
698.144756059673
 21
91.3497927763488065
 31
0.0
  0
LINE
  5
10BEC
  8
0
 10
698.144756059673
 20
91.2797140362488051
 30
0.0
 11
698.144756059673
 21
91.2753833275487949
 31
0.0
  0
LINE
  5
10BED
  8
0
 10
698.95241682077517
 20
92.0273518314988053
 30
0.0
 11
698.95241682077517
 21
92.0076667921488109
 31
0.0
  0
LINE
  5
10BEE
  8
0
 10
698.8534174769730498
 20
92.0273518314988053
 30
0.0
 11
698.8534174769730498
 21
92.0076667920988029
 31
0.0
  0
LINE
  5
10BEF
  8
0
 10
698.9897363745709526
 20
91.948611673998812
 30
0.0
 11
698.9649660333625434
 21
91.3541234850488024
 31
0.0
  0
LINE
  5
10BF0
  8
0
 10
698.961685193466451
 20
91.2753833275487949
 30
0.0
 11
698.950202253829957
 21
90.9997927762988184
 31
0.0
  0
ARC
  5
10BF1
  8
0
 10
698.9108692752072329
 20
90.8353973911909236
 30
0.0
 40
0.0325762587169169
 50
274.9449286808019224
 51
279.792037874963512
  0
ARC
  5
10BF2
  8
0
 10
698.9364883443885219
 20
91.3147534062488546
 30
0.0
 40
0.0350393700999483
 50
270.0043265734445868
 51
90.0000021508879087
  0
LINE
  5
10BF3
  8
0
 10
698.9321576344731284
 20
91.3541234850488024
 30
0.0
 11
698.9321576344731284
 21
91.3497927763488065
 31
0.0
  0
LINE
  5
10BF4
  8
0
 10
698.9321576344731284
 20
91.2797140362488051
 30
0.0
 11
698.9321576344731284
 21
91.2753833275487949
 31
0.0
  0
LINE
  5
10BF5
  8
0
 10
697.9510552723207866
 20
87.1257770282987991
 30
0.0
 11
698.8565670832254
 21
87.1257770282987991
 31
0.0
  0
LINE
  5
10BF6
  8
0
 10
698.6105040911230617
 20
88.8356524659435962
 30
0.0
 11
698.6105040911230617
 21
88.8974305715988038
 31
0.0
  0
LINE
  5
10BF7
  8
0
 10
698.6105040911230617
 20
88.8974305715988038
 30
0.0
 11
698.1971182644230112
 21
88.8974305715988038
 31
0.0
  0
LINE
  5
10BF8
  8
0
 10
698.4825513352229791
 20
88.8974305715988038
 30
0.0
 11
698.4825513352229791
 21
89.373808524398811
 31
0.0
  0
LINE
  5
10BF9
  8
0
 10
698.4825513352229791
 20
89.373808524398811
 30
0.0
 11
698.3250710203230938
 21
89.3738085243988252
 31
0.0
  0
LINE
  5
10BFA
  8
0
 10
698.4668033037230543
 20
89.373808524398811
 30
0.0
 11
698.4668033037230543
 21
89.4131786030988138
 31
0.0
  0
LINE
  5
10BFB
  8
0
 10
698.3250710203230938
 20
89.4131786030988138
 30
0.0
 11
698.4825513352229791
 21
89.4131786030988138
 31
0.0
  0
LINE
  5
10BFC
  8
0
 10
698.4825513352229791
 20
89.4131786030988138
 30
0.0
 11
698.4825513352229791
 21
89.5706583402988059
 31
0.0
  0
LINE
  5
10BFD
  8
0
 10
698.4825513352229791
 20
89.5706583402988059
 30
0.0
 11
698.4143602985230928
 21
89.6100289967988033
 31
0.0
  0
LINE
  5
10BFE
  8
0
 10
698.4143602985230928
 20
89.6100289967988033
 30
0.0
 11
698.3932620570230938
 21
89.6100289967988033
 31
0.0
  0
LINE
  5
10BFF
  8
0
 10
698.1971182644230112
 20
88.8500573322102554
 30
0.0
 11
698.1971182644230112
 21
88.8974305715988038
 31
0.0
  0
LINE
  5
10C00
  8
0
 10
698.3250710203230938
 20
88.8974305715988038
 30
0.0
 11
698.3250710203230938
 21
89.373808524398811
 31
0.0
  0
LINE
  5
10C01
  8
0
 10
698.3408190518230185
 20
89.373808524398811
 30
0.0
 11
698.3408190518230185
 21
89.4131786030988138
 31
0.0
  0
LINE
  5
10C02
  8
0
 10
698.3250710203230938
 20
89.4131786030988138
 30
0.0
 11
698.3250710203230938
 21
89.5706583402988059
 31
0.0
  0
LINE
  5
10C03
  8
0
 10
698.3250710203230938
 20
89.5706583402988059
 30
0.0
 11
698.3932620570230938
 21
89.6100289967988033
 31
0.0
  0
LINE
  5
10C04
  8
0
 10
698.3250710203230938
 20
89.5706583402988059
 30
0.0
 11
698.4825513352229791
 21
89.5706583402988059
 31
0.0
  0
ARC
  5
10C05
  8
0
 10
697.1685418969886996
 20
89.1204599168559071
 30
0.0
 40
0.522421939158549
 50
293.5432667627893011
 51
315.0903680483223752
  0
ARC
  5
10C06
  8
0
 10
699.192075242070473
 20
88.0285323285681045
 30
0.0
 40
1.804738774206962
 50
153.9921166820246867
 51
160.1176832712307885
  0
ARC
  5
10C07
  8
0
 10
697.6405627912248519
 20
88.7855197839850092
 30
0.0
 40
0.0784071453512452
 50
88.8943182368063418
 51
153.9921166820261931
  0
ARC
  5
10C08
  8
0
 10
696.6954712868324577
 20
39.8175126968787083
 30
0.0
 40
49.0555336028575724
 50
86.8096700315178964
 51
88.8943182368063418
  0
ARC
  5
10C09
  8
0
 10
699.4244690723197664
 20
88.7774721930289274
 30
0.0
 40
0.0195767673081858
 50
356.0346046334441894
 51
86.8096700315308993
  0
LINE
  5
10C0A
  8
0
 10
699.4439989728231239
 20
88.7761183818988115
 30
0.0
 11
699.4439686580229818
 21
86.5531641551988145
 31
0.0
  0
ARC
  5
10C0B
  8
0
 10
699.4242836187634111
 20
86.5531628550013892
 30
0.0
 40
0.0196850393025798
 50
269.9999998825501279
 51
0.0037843878843723
  0
LINE
  5
10C0C
  8
0
 10
699.4242836187230523
 20
86.5334778156988165
 30
0.0
 11
698.831887949364841
 21
86.5334778156988165
 31
0.0
  0
LINE
  5
10C0D
  8
0
 10
697.9757344061813455
 20
86.5334778156988165
 30
0.0
 11
697.6092557786126918
 21
86.5334778156988165
 31
0.0
  0
LINE
  5
10C0E
  8
0
 10
698.950202253829957
 20
90.9997927762988184
 30
0.0
 11
698.9164095048230365
 21
90.9997927762988184
 31
0.0
  0
LINE
  5
10C0F
  8
0
 10
698.9164095048230365
 20
90.9997927762988184
 30
0.0
 11
698.916409602922954
 21
90.8032957183249749
 31
0.0
  0
ARC
  5
10C10
  8
0
 10
698.1660444189324153
 20
90.8353973911909236
 30
0.0
 40
0.0325762587169169
 50
260.207962125036488
 51
265.0550713191915975
  0
LINE
  5
10C11
  8
0
 10
698.1267114403094638
 20
90.9997927762988184
 30
0.0
 11
698.160504189316498
 21
90.9997927762988184
 31
0.0
  0
LINE
  5
10C12
  8
0
 10
698.160504189316498
 20
90.9997927762988184
 30
0.0
 11
698.1605040912165805
 21
90.8032957183249749
 31
0.0
  0
LINE
  5
10C13
  8
0
 10
700.0490338095172547
 20
91.7773518302365972
 30
0.0
 11
700.2522599666616543
 21
91.7773518297863973
 31
0.0
  0
LINE
  5
10C14
  8
0
 10
700.0042976147916534
 20
92.3285329338488054
 30
0.0
 11
700.3035487104624508
 21
92.3285329338488054
 31
0.0
  0
LINE
  5
10C15
  8
0
 10
700.009747531775588
 20
92.2497927763488121
 30
0.0
 11
700.3002678705663584
 21
92.2497927763488121
 31
0.0
  0
LINE
  5
10C16
  8
0
 10
700.0045915772440139
 20
92.3242022251487953
 30
0.0
 11
700.275071021488543
 21
92.3242022251487953
 31
0.0
  0
LINE
  5
10C17
  8
0
 10
700.0094420023523298
 20
92.2541234850487939
 30
0.0
 11
700.2750736673873462
 21
92.2541234850487939
 31
0.0
  0
LINE
  5
10C18
  8
0
 10
700.3283190516710874
 20
92.923021122798815
 30
0.0
 11
700.3035487104624508
 21
92.3285329338488054
 31
0.0
  0
LINE
  5
10C19
  8
0
 10
700.3002678705663584
 20
92.2497927763488121
 30
0.0
 11
700.2887849309298645
 21
91.9742022250988072
 31
0.0
  0
ARC
  5
10C1A
  8
0
 10
700.2494519523071403
 20
91.8098068399909266
 30
0.0
 40
0.0325762587169169
 50
274.9449286808019224
 51
279.792037874963512
  0
ARC
  5
10C1B
  8
0
 10
700.275071021488543
 20
92.2891628550488434
 30
0.0
 40
0.0350393700999483
 50
270.0043265734445868
 51
90.0000021508879087
  0
LINE
  5
10C1C
  8
0
 10
700.2707403115731495
 20
92.3285329338488054
 30
0.0
 11
700.2707403115731495
 21
92.3242022251487953
 31
0.0
  0
LINE
  5
10C1D
  8
0
 10
700.2707403115731495
 20
92.2541234850487939
 30
0.0
 11
700.2707403115731495
 21
92.2497927763488121
 31
0.0
  0
LINE
  5
10C1E
  8
0
 10
700.2887849309298645
 20
91.9742022250988072
 30
0.0
 11
700.2549921819229439
 21
91.9742022250988072
 31
0.0
  0
LINE
  5
10C1F
  8
0
 10
700.2549921819229439
 20
91.9742022250988072
 30
0.0
 11
700.2549922800230888
 21
91.7777051671249922
 31
0.0
  0
LINE
  5
10C20
  8
0
 10
697.9510552723207866
 20
87.1257770282987991
 30
0.0
 11
697.9773019914837278
 21
86.4958557684488056
 31
0.0
  0
LINE
  5
10C21
  8
0
 10
697.9805828313798202
 20
86.4171156109488123
 30
0.0
 11
697.9920657710163141
 21
86.1415250596988074
 31
0.0
  0
LINE
  5
10C22
  8
0
 10
698.0285907352731556
 20
85.9446746660487975
 30
0.0
 11
698.7790316202615486
 21
85.9446746643863975
 31
0.0
  0
LINE
  5
10C23
  8
0
 10
697.9773019914731549
 20
86.4958557684488056
 30
0.0
 11
698.8303203640625725
 21
86.4958557684488056
 31
0.0
  0
LINE
  5
10C24
  8
0
 10
697.9805828313731126
 20
86.4171156109488123
 30
0.0
 11
698.8270395241664801
 21
86.4171156109488123
 31
0.0
  0
LINE
  5
10C25
  8
0
 10
698.0057796817731059
 20
86.4915250597487955
 30
0.0
 11
698.801842675088551
 21
86.4915250597487955
 31
0.0
  0
LINE
  5
10C26
  8
0
 10
698.0057770345315475
 20
86.4214463196487941
 30
0.0
 11
698.8018453209873542
 21
86.4214463196487941
 31
0.0
  0
ARC
  5
10C27
  8
0
 10
698.0057796804577492
 20
86.4564856896488436
 30
0.0
 40
0.0350393700999483
 50
89.9999978491120771
 51
269.9956734265552996
  0
LINE
  5
10C28
  8
0
 10
698.0101103903731428
 20
86.4958557684488056
 30
0.0
 11
698.0101103903731428
 21
86.4915250597487955
 31
0.0
  0
LINE
  5
10C29
  8
0
 10
698.0101103903731428
 20
86.4214463196487941
 30
0.0
 11
698.0101103903731428
 21
86.4171156109488123
 31
0.0
  0
LINE
  5
10C2A
  8
0
 10
698.8565670832254
 20
87.1257770282987991
 30
0.0
 11
698.8303203640625725
 21
86.4958557684488056
 31
0.0
  0
LINE
  5
10C2B
  8
0
 10
698.8270395241664801
 20
86.4171156109488123
 30
0.0
 11
698.8155565845299861
 21
86.1415250596988074
 31
0.0
  0
ARC
  5
10C2C
  8
0
 10
698.7762236059071483
 20
85.9771296745909268
 30
0.0
 40
0.0325762587169169
 50
274.9449286808019224
 51
279.792037874963512
  0
ARC
  5
10C2D
  8
0
 10
698.801842675088551
 20
86.4564856896488436
 30
0.0
 40
0.0350393700999483
 50
270.0043265734445868
 51
90.0000021508879087
  0
LINE
  5
10C2E
  8
0
 10
698.7975119651730438
 20
86.4958557684488056
 30
0.0
 11
698.7975119651730438
 21
86.4915250597487955
 31
0.0
  0
LINE
  5
10C2F
  8
0
 10
698.7975119651730438
 20
86.4214463196487941
 30
0.0
 11
698.7975119651730438
 21
86.4171156109488123
 31
0.0
  0
LINE
  5
10C30
  8
0
 10
698.8155565845299861
 20
86.1415250596988074
 30
0.0
 11
698.7817638355229519
 21
86.1415250596988074
 31
0.0
  0
LINE
  5
10C31
  8
0
 10
698.7817638355229519
 20
86.1415250596988074
 30
0.0
 11
698.7817639336229831
 21
85.9450280017249924
 31
0.0
  0
ARC
  5
10C32
  8
0
 10
698.0313987496324444
 20
85.9771296745909268
 30
0.0
 40
0.0325762587169169
 50
260.207962125036488
 51
265.0550713191915975
  0
LINE
  5
10C33
  8
0
 10
697.9920657710096066
 20
86.1415250596988074
 30
0.0
 11
698.0258585200165271
 21
86.1415250596988074
 31
0.0
  0
LINE
  5
10C34
  8
0
 10
698.0258585200165271
 20
86.1415250596988074
 30
0.0
 11
698.0258584219163822
 21
85.9450280017249924
 31
0.0
  0
LINE
  5
10C35
  8
0
 10
700.329795429723049
 20
92.940561280248815
 30
0.0
 11
700.329795429723049
 21
92.9230211227488212
 31
0.0
  0
ARC
  5
10C36
  8
0
 10
700.3909954297231479
 20
92.940561280248815
 30
0.0
 40
0.0612
 50
89.9999999999934914
 51
180.0000000000057128
  0
ARC
  5
10C37
  8
0
 10
697.8722373373876735
 20
86.9307429879141011
 30
0.0
 40
2.1712086475590961
 50
161.3834901797837063
 51
179.143159435865897
  0
ARC
  5
10C38
  8
0
 10
690.9106044863086709
 20
87.0348598039671657
 30
0.0
 40
4.7912027353315851
 50
345.2766501725117223
 51
359.1431594358659822
  0
ARC
  5
10C39
  8
0
 10
348.3342466914970146
 20
177.1985613165620066
 30
0.0
 40
359.0341331395845828
 50
344.9112020116015174
 51
345.254850570766223
  0
ARC
  5
10C3A
  8
0
 10
695.1002230213912298
 20
83.6925485338424835
 30
0.0
 40
0.1184534249557856
 50
158.3113631904159888
 51
269.902444547001096
  0
ARC
  5
10C3B
  8
0
 10
695.0997390794053672
 20
83.6921881309096278
 30
0.0
 40
0.1180931876325475
 50
270.1369433502666766
 51
337.9070368649262264
  0
LINE
  5
10C3C
  8
0
 10
695.2091612547094428
 20
83.6477720469202097
 30
0.0
 11
695.938617274438343
 21
85.5592199195051677
 31
0.0
  0
ARC
  5
10C3D
  8
0
 10
729.3787065011403001
 20
73.2523467239261947
 30
0.0
 40
35.6328317053507391
 50
158.4289952232838061
 51
159.7949959953467101
  0
ARC
  5
10C3E
  8
0
 10
696.6245826357453552
 20
86.2062170214726962
 30
0.0
 40
0.4102014827261827
 50
117.229518842196498
 51
159.0480086836635962
  0
ARC
  5
10C3F
  8
0
 10
696.6808976174783083
 20
86.1945134571577256
 30
0.0
 40
0.4486097843441535
 50
74.2963848762471599
 51
122.950485642909797
  0
ARC
  5
10C40
  8
0
 10
689.1471338619167
 20
237.6745546363532071
 30
0.0
 40
151.2420354964968112
 50
272.9012918814261752
 51
273.0355618389314145
  0
ARC
  5
10C41
  8
0
 10
700.1486721961919102
 20
90.838846303696684
 30
0.0
 40
1.9763873628820341
 50
181.0409175609428871
 51
218.640937418321613
  0
ARC
  5
10C42
  8
0
 10
706.4433718686566408
 20
95.871206871043924
 30
0.0
 40
10.0354131629597507
 50
218.640937418321613
 51
224.7767115085783871
  0
ARC
  5
10C43
  8
0
 10
706.4433718686566408
 20
95.871206871043924
 30
0.0
 40
10.0354131629597507
 50
225.7758298829390071
 51
226.9557962045203112
  0
ARC
  5
10C44
  8
0
 10
697.6340726454850483
 20
86.6391267875526125
 30
0.0
 40
2.727962086270753
 50
328.4732405136236935
 51
19.9050275083152783
  0
ARC
  5
10C45
  8
0
 10
700.8807556957314091
 20
90.838846303696684
 30
0.0
 40
1.9763873628820341
 50
181.0409175609428871
 51
218.640937418321613
  0
ARC
  5
10C46
  8
0
 10
707.1754553681961397
 20
95.871206871043924
 30
0.0
 40
10.0354131629597507
 50
218.640937418321613
 51
226.4564497577975999
  0
ARC
  5
10C47
  8
0
 10
697.7082756891044255
 20
86.5094750189746691
 30
0.0
 40
3.3108564627296868
 50
331.0561999365785937
 51
4.9479028485519549
  0
ARC
  5
10C48
  8
0
 10
684.2798509080487293
 20
86.7804438237694455
 30
0.0
 40
14.5142513298461004
 50
351.5517190841268871
 51
356.6989307902716746
  0
ARC
  5
10C49
  8
0
 10
699.7996880446889918
 20
84.4777844041759636
 30
0.0
 40
1.1754796808007459
 50
171.6710737007512932
 51
194.9165062250770859
  0
ARC
  5
10C4A
  8
0
 10
698.9666351201171892
 20
84.2850385128026858
 30
0.0
 40
0.3221196230034902
 50
199.9364740933399105
 51
324.4656575347522107
  0
ARC
  5
10C4B
  8
0
 10
688.3581256181894332
 20
92.0186157430463965
 30
0.0
 40
13.4502687570759907
 50
323.9213974773666109
 51
329.6017716930218739
  0
ARC
  5
10C4C
  8
0
 10
690.8018564136758641
 20
86.179575700861804
 30
0.0
 40
7.239558493821451
 50
349.6822634045416862
 51
358.1406047616528099
  0
ARC
  5
10C4D
  8
0
 10
699.7257264707911872
 20
84.5549797698367769
 30
0.0
 40
1.830985521582595
 50
169.6822634045416862
 51
209.2748503591288909
  0
ARC
  5
10C4E
  8
0
 10
698.8143035650286947
 20
84.2503318509763943
 30
0.0
 40
0.9050621303669641
 50
220.7429110666874124
 51
247.1739338862464876
  0
ARC
  5
10C4F
  8
0
 10
698.9336865965201468
 20
84.3583311077286737
 30
0.0
 40
1.053123010857363
 50
243.464304880353211
 51
306.3735030610615127
  0
ARC
  5
10C50
  8
0
 10
695.0752518305349668
 20
87.962914690722144
 30
0.0
 40
6.3183967542171597
 50
315.1953201854918234
 51
331.0775852195322955
  0
LINE
  5
10C51
  8
0
 10
686.237697527108935
 20
136.9460672104490868
 30
0.0
 11
679.3431248645230198
 21
136.9460672104490868
 31
0.0
  0
LINE
  5
10C52
  8
0
 10
686.1986928314037186
 20
136.2441478502491066
 30
0.0
 11
679.3821295602282362
 21
136.2441478502491066
 31
0.0
  0
LINE
  5
10C53
  8
0
 10
683.5401436210978545
 20
137.5987109788491125
 30
0.0
 11
682.0406787705341003
 21
137.5987109788491125
 31
0.0
  0
ARC
  5
10C54
  8
0
 10
683.5356829523811939
 20
137.559159338226408
 30
0.0
 40
0.0398023848700551
 50
0.7559445250987056
 51
83.5653218311272354
  0
LINE
  5
10C55
  8
0
 10
683.5754818730158604
 20
137.5596844645490933
 30
0.0
 11
683.577488708815963
 21
137.3268593898490906
 31
0.0
  0
ARC
  5
10C56
  8
0
 10
683.6169077656513764
 20
137.327250983700111
 30
0.0
 40
0.0394210018587522
 50
180.5691647319814024
 51
262.5497551718867157
  0
ARC
  5
10C57
  8
0
 10
689.7712036094324048
 20
174.3181725541518006
 30
0.0
 40
37.5387789233297369
 50
260.5561371232324177
 51
264.598781306313299
  0
ARC
  5
10C58
  8
0
 10
686.232351973624759
 20
136.8895299946881039
 30
0.0
 40
0.056789362631262
 50
358.4786779539218742
 51
84.5987813063132137
  0
LINE
  5
10C59
  8
0
 10
686.2891213188161146
 20
136.8880222962351922
 30
0.0
 11
686.29412975911589
 21
136.3142760852965978
 31
0.0
  0
ARC
  5
10C5A
  8
0
 10
686.2446053249625493
 20
136.3200748764147079
 30
0.0
 40
0.0498627672381244
 50
303.0153446841741811
 51
353.3216750065022893
  0
ARC
  5
10C5B
  8
0
 10
685.3944786784099961
 20
138.0622184105777137
 30
0.0
 40
1.9879992369738699
 50
293.8619558887928065
 51
296.1865663691187933
  0
ARC
  5
10C5C
  8
0
 10
686.1604899360158925
 20
136.245178459949102
 30
0.0
 40
0.019685039399991
 50
294.5747356893904225
 51
356.9973815834293873
  0
ARC
  5
10C5D
  8
0
 10
684.2530096211427235
 20
140.4163351845286911
 30
0.0
 40
4.606299212473024
 50
272.9928400233212074
 51
275.7443050480750912
  0
ARC
  5
10C5E
  8
0
 10
684.2530096211427235
 20
140.4163351845286911
 30
0.0
 40
4.606299212473024
 50
276.9049251408578129
 51
278.8891781413923923
  0
ARC
  5
10C5F
  8
0
 10
684.2530096211427235
 20
140.4163351845286911
 30
0.0
 40
4.606299212473024
 50
281.6639836494707083
 51
286.7905894445580088
  0
ARC
  5
10C60
  8
0
 10
684.2530096211427235
 20
140.4163351845286911
 30
0.0
 40
4.606299212473024
 50
288.3608484638937171
 51
294.5747356893904225
  0
LINE
  5
10C61
  8
0
 10
682.8541596384754939
 20
136.048139048772299
 30
0.0
 11
682.8510365453158784
 21
136.012184541449102
 31
0.0
  0
ARC
  5
10C62
  8
0
 10
682.8305132795006784
 20
136.0139672406390048
 30
0.0
 40
0.020600545044352
 50
279.1995764965154194
 51
355.0356142123101222
  0
ARC
  5
10C63
  8
0
 10
682.7906352907764358
 20
136.2809165735316981
 30
0.0
 40
0.2905105705852819
 50
261.2346479135329105
 51
278.5461237700554875
  0
ARC
  5
10C64
  8
0
 10
682.7502365714096868
 20
136.013700503667792
 30
0.0
 40
0.020274646208118
 50
182.9457007789324052
 51
258.9911310859624791
  0
LINE
  5
10C65
  8
0
 10
682.7299887143936985
 20
136.0126585990981027
 30
0.0
 11
682.7268492812216891
 21
136.0505411124900945
 31
0.0
  0
ARC
  5
10C66
  8
0
 10
682.7888284382289612
 20
135.9605102508633934
 30
0.0
 40
0.1093022046831384
 50
53.2938187135824677
 51
124.5443495540021956
  0
ARC
  5
10C67
  8
0
 10
682.7903535825935251
 20
136.1062866263058027
 30
0.0
 40
0.1136783062008311
 50
260.0578139398014059
 51
280.0009636192199878
  0
ARC
  5
10C68
  8
0
 10
682.7904685472839219
 20
135.8821537712269105
 30
0.0
 40
0.1138858990660146
 50
80.0761755171698866
 51
99.9826020404095033
  0
LINE
  5
10C69
  8
0
 10
682.854099798075481
 20
135.8178618395434114
 30
0.0
 11
682.8509767049158654
 21
135.7819073322201859
 31
0.0
  0
ARC
  5
10C6A
  8
0
 10
682.8304534391006655
 20
135.7836900314100887
 30
0.0
 40
0.020600545044352
 50
279.1995764965154194
 51
355.0356142123101222
  0
ARC
  5
10C6B
  8
0
 10
682.7905754503764229
 20
136.0506393643028105
 30
0.0
 40
0.2905105705852819
 50
261.2346479135329105
 51
278.5461237700554875
  0
ARC
  5
10C6C
  8
0
 10
682.7501767310096739
 20
135.7834232944389043
 30
0.0
 40
0.020274646208118
 50
182.9457007789324052
 51
258.9911310859624791
  0
LINE
  5
10C6D
  8
0
 10
682.7299288739939129
 20
135.7823813898691867
 30
0.0
 11
682.7267894408216762
 21
135.8202639032612069
 31
0.0
  0
ARC
  5
10C6E
  8
0
 10
682.7887685978289483
 20
135.7302330416345058
 30
0.0
 40
0.1093022046831384
 50
53.2938187135824677
 51
124.5443495540021956
  0
ARC
  5
10C6F
  8
0
 10
682.7902937421935121
 20
135.8760094170768866
 30
0.0
 40
0.1136783062008311
 50
260.0578139398014059
 51
280.0009636192199878
  0
ARC
  5
10C70
  8
0
 10
682.790408706883909
 20
135.6518765619981082
 30
0.0
 40
0.1138858990660146
 50
80.0761755171698866
 51
99.9826020404095033
  0
LINE
  5
10C71
  8
0
 10
682.8541084849755407
 20
135.807156432543394
 30
0.0
 11
682.8509853918159251
 21
135.7712019252201969
 31
0.0
  0
ARC
  5
10C72
  8
0
 10
682.8304621260007252
 20
135.7729846244102134
 30
0.0
 40
0.020600545044352
 50
279.1995764965154194
 51
355.0356142123101222
  0
ARC
  5
10C73
  8
0
 10
682.7905841372763689
 20
136.039933957302793
 30
0.0
 40
0.2905105705852819
 50
261.2346479135329105
 51
278.5461237700554875
  0
ARC
  5
10C74
  8
0
 10
682.7501854179096199
 20
135.7727178874388869
 30
0.0
 40
0.020274646208118
 50
182.9457007789324052
 51
258.9911310859624791
  0
LINE
  5
10C75
  8
0
 10
682.7299375608937453
 20
135.7716759828691977
 30
0.0
 11
682.7267981277217359
 21
135.8095584962613032
 31
0.0
  0
ARC
  5
10C76
  8
0
 10
682.7887772847291217
 20
135.7195276346344883
 30
0.0
 40
0.1093022046831384
 50
53.2938187135824677
 51
53.8684104536022801
  0
ARC
  5
10C77
  8
0
 10
682.7887772847291217
 20
135.7195276346344883
 30
0.0
 40
0.1093022046831384
 50
124.0168286045770998
 51
124.5443495540021956
  0
ARC
  5
10C78
  8
0
 10
682.7903024290933445
 20
135.8653040100768976
 30
0.0
 40
0.1136783062008311
 50
260.0578139398014059
 51
280.0009636192199878
  0
ARC
  5
10C79
  8
0
 10
682.790417393783855
 20
135.6411711549980907
 30
0.0
 40
0.1138858990660146
 50
80.0761755171698866
 51
99.9826020404095033
  0
LINE
  5
10C7A
  8
0
 10
683.1885235843102464
 20
135.8905322007460938
 30
0.0
 11
683.1853678958101455
 21
135.854602004146102
 31
0.0
  0
ARC
  5
10C7B
  8
0
 10
683.1648446299950592
 20
135.8563847033360048
 30
0.0
 40
0.020600545044352
 50
279.1995764965154194
 51
355.0356142123101222
  0
ARC
  5
10C7C
  8
0
 10
683.1249666412705892
 20
136.1233340362286981
 30
0.0
 40
0.2905105705852819
 50
261.2346479135329105
 51
278.5461237700554875
  0
ARC
  5
10C7D
  8
0
 10
683.0845679219039539
 20
135.8561179663647067
 30
0.0
 40
0.020274646208118
 50
182.9457007789324052
 51
258.9911310859624791
  0
LINE
  5
10C7E
  8
0
 10
683.0643200648880793
 20
135.8550760617951028
 30
0.0
 11
683.0611806317159562
 21
135.8929585751870945
 31
0.0
  0
ARC
  5
10C7F
  8
0
 10
683.1231597887234557
 20
135.8029277135603081
 30
0.0
 40
0.1093022046831384
 50
53.2725034090586078
 51
124.5443495540021956
  0
ARC
  5
10C80
  8
0
 10
683.1246849330876785
 20
135.948704089002689
 30
0.0
 40
0.1136783062008311
 50
260.0578139398014059
 51
280.0009636192199878
  0
ARC
  5
10C81
  8
0
 10
683.1247998977783027
 20
135.7245712339239105
 30
0.0
 40
0.1138858990660146
 50
80.0761755171698866
 51
99.9826020404095033
  0
LINE
  5
10C82
  8
0
 10
683.5048797895407233
 20
136.0491490004320951
 30
0.0
 11
683.5016986239312473
 21
136.0125259359394931
 31
0.0
  0
ARC
  5
10C83
  8
0
 10
683.4811753581161611
 20
136.014308635129396
 30
0.0
 40
0.020600545044352
 50
279.1995764965154194
 51
355.0356142123101222
  0
ARC
  5
10C84
  8
0
 10
683.4412973693919184
 20
136.2812579680220892
 30
0.0
 40
0.2905105705852819
 50
261.2346479135329105
 51
278.5461237700554875
  0
ARC
  5
10C85
  8
0
 10
683.4008986500250558
 20
136.0140418981582116
 30
0.0
 40
0.020274646208118
 50
182.9457007789324052
 51
258.9911310859624791
  0
LINE
  5
10C86
  8
0
 10
683.3806507930091811
 20
136.0129999935884939
 30
0.0
 11
683.3775113598370581
 21
136.0508825069805141
 31
0.0
  0
ARC
  5
10C87
  8
0
 10
683.4399607395697558
 20
135.9592869299750078
 30
0.0
 40
0.1108588054957674
 50
54.1545263214252302
 51
124.2859588574879979
  0
ARC
  5
10C88
  8
0
 10
683.4410156612090077
 20
136.1066280207961938
 30
0.0
 40
0.1136783062008311
 50
260.0578139398014059
 51
280.0009636192199878
  0
ARC
  5
10C89
  8
0
 10
683.4411306258994045
 20
135.882495165717387
 30
0.0
 40
0.1138858990660146
 50
80.0761755171698866
 51
99.9826020404095033
  0
ARC
  5
10C8A
  8
0
 10
683.3467188772041254
 20
136.0409320664458903
 30
0.0
 40
0.2905105705852819
 50
261.2346479135329105
 51
276.8302365900806876
  0
ARC
  5
10C8B
  8
0
 10
683.3063201578372627
 20
135.7737159965818989
 30
0.0
 40
0.020274646208118
 50
182.9457007789324052
 51
258.9911310859624791
  0
LINE
  5
10C8C
  8
0
 10
683.2860723008216155
 20
135.772674092012295
 30
0.0
 11
683.2829328676494924
 21
135.8105566054042868
 31
0.0
  0
ARC
  5
10C8D
  8
0
 10
683.3449120246568782
 20
135.7205257437775003
 30
0.0
 40
0.1093022046831384
 50
69.1991327894187123
 51
124.5443495540021956
  0
ARC
  5
10C8E
  8
0
 10
683.3464371690212147
 20
135.8663021192199949
 30
0.0
 40
0.1136783062008311
 50
260.0578139398014059
 51
280.0009636192199878
  0
ARC
  5
10C8F
  8
0
 10
683.3465521337117252
 20
135.6421692641411028
 30
0.0
 40
0.1138858990660146
 50
80.0761755171698866
 51
99.9826020404095033
  0
ARC
  5
10C90
  8
0
 10
683.4619873271774395
 20
135.7731594610096124
 30
0.0
 40
0.020600545044352
 50
279.1995764965154194
 51
321.4778910074733176
  0
ARC
  5
10C91
  8
0
 10
683.4221093384531969
 20
136.0401087939023057
 30
0.0
 40
0.2905105705852819
 50
261.2346479135329105
 51
278.5461237700554875
  0
ARC
  5
10C92
  8
0
 10
683.3817106190864479
 20
135.7728927240382859
 30
0.0
 40
0.020274646208118
 50
182.9457007789324052
 51
258.9911310859624791
  0
LINE
  5
10C93
  8
0
 10
683.3614627620704596
 20
135.7718508194687104
 30
0.0
 11
683.3583233288984502
 21
135.8097333328607021
 31
0.0
  0
ARC
  5
10C94
  8
0
 10
683.420302485905836
 20
135.7197024712338873
 30
0.0
 40
0.1093022046831384
 50
88.6030796971755592
 51
124.5443495540021956
  0
ARC
  5
10C95
  8
0
 10
683.4218276302702861
 20
135.8654788466764103
 30
0.0
 40
0.1136783062008311
 50
260.0578139398014059
 51
280.0009636192199878
  0
ARC
  5
10C96
  8
0
 10
683.421942594960683
 20
135.6413459915974897
 30
0.0
 40
0.1138858990660146
 50
80.0761755171698866
 51
99.9826020404095033
  0
LINE
  5
10C97
  8
0
 10
683.535459211705188
 20
135.8179966248274866
 30
0.0
 11
683.5323361185457998
 21
135.7820421175042895
 31
0.0
  0
ARC
  5
10C98
  8
0
 10
683.5118128527304862
 20
135.7838248166941924
 30
0.0
 40
0.020600545044352
 50
279.1995764965154194
 51
355.0356142123101222
  0
ARC
  5
10C99
  8
0
 10
683.4719348640062435
 20
136.0507741495869141
 30
0.0
 40
0.2905105705852819
 50
261.2346479135329105
 51
278.5461237700554875
  0
ARC
  5
10C9A
  8
0
 10
683.4315361446393808
 20
135.7835580797228943
 30
0.0
 40
0.020274646208118
 50
182.9457007789324052
 51
258.9911310859624791
  0
LINE
  5
10C9B
  8
0
 10
683.4112882876237336
 20
135.7825161751532903
 30
0.0
 11
683.4081488544516105
 21
135.8203986885453105
 31
0.0
  0
ARC
  5
10C9C
  8
0
 10
683.4701280114589963
 20
135.7303678269186094
 30
0.0
 40
0.1093022046831384
 50
53.2938187135881734
 51
124.5443495540021956
  0
ARC
  5
10C9D
  8
0
 10
683.4716531558233328
 20
135.8761442023609902
 30
0.0
 40
0.1136783062008311
 50
260.0578139398014059
 51
280.0009636192199878
  0
ARC
  5
10C9E
  8
0
 10
683.4717681205138433
 20
135.6520113472820981
 30
0.0
 40
0.1138858990660146
 50
80.0761755171698866
 51
99.9826020404095033
  0
LINE
  5
10C9F
  8
0
 10
683.6447112475251515
 20
135.8094093537127947
 30
0.0
 11
683.6415300819159029
 21
135.7727862892201927
 31
0.0
  0
ARC
  5
10CA0
  8
0
 10
683.6210068161005893
 20
135.7745689884102092
 30
0.0
 40
0.020600545044352
 50
279.1995764965154194
 51
355.0356142123101222
  0
ARC
  5
10CA1
  8
0
 10
683.5811288273763466
 20
136.0415183213027888
 30
0.0
 40
0.2905105705852819
 50
261.2346479135329105
 51
278.5461237700554875
  0
ARC
  5
10CA2
  8
0
 10
683.5407301080095976
 20
135.7743022514389111
 30
0.0
 40
0.020274646208118
 50
204.0400098525782937
 51
258.9911310859624791
  0
ARC
  5
10CA3
  8
0
 10
683.5793219748290994
 20
135.7211119986345125
 30
0.0
 40
0.1093022046831384
 50
53.2725034090586078
 51
115.2406932428246051
  0
ARC
  5
10CA4
  8
0
 10
683.5808471191935496
 20
135.8668883740768933
 30
0.0
 40
0.1136783062008311
 50
260.0578139398014059
 51
280.0009636192199878
  0
ARC
  5
10CA5
  8
0
 10
683.5809620838839464
 20
135.6427555189980865
 30
0.0
 40
0.1138858990660146
 50
80.0761755171698866
 51
99.9826020404095033
  0
LINE
  5
10CA6
  8
0
 10
683.8293539952815081
 20
135.8908917887135033
 30
0.0
 11
683.8261728296721458
 21
135.8549806069601971
 31
0.0
  0
ARC
  5
10CA7
  8
0
 10
683.8056495638568322
 20
135.8567633061500999
 30
0.0
 40
0.020600545044352
 50
279.1995764965154194
 51
355.0356142123101222
  0
ARC
  5
10CA8
  8
0
 10
683.7657715751324758
 20
136.1237126390427932
 30
0.0
 40
0.2905105705852819
 50
261.2346479135329105
 51
278.5461237700554875
  0
ARC
  5
10CA9
  8
0
 10
683.7253728557658405
 20
135.8564965691788018
 30
0.0
 40
0.020274646208118
 50
182.9457007789324052
 51
258.9911310859624791
  0
LINE
  5
10CAA
  8
0
 10
683.7051249987499659
 20
135.8554546646091978
 30
0.0
 11
683.7019855655779565
 21
135.8933371780011896
 31
0.0
  0
ARC
  5
10CAB
  8
0
 10
683.7639647225853423
 20
135.8033063163744032
 30
0.0
 40
0.1093022046831291
 50
53.2558388600655093
 51
124.5443495540031051
  0
ARC
  5
10CAC
  8
0
 10
683.7654898669495651
 20
135.9490826918168125
 30
0.0
 40
0.1136783062008311
 50
260.0578139398014059
 51
280.0009636192199878
  0
ARC
  5
10CAD
  8
0
 10
683.765604831639962
 20
135.7249498367380056
 30
0.0
 40
0.1138858990660146
 50
80.0761755171698866
 51
99.9826020404095033
  0
LINE
  5
10CAE
  8
0
 10
683.9495410377137432
 20
135.8078760948573063
 30
0.0
 11
683.9463853492137559
 21
135.7719458982573997
 31
0.0
  0
ARC
  5
10CAF
  8
0
 10
683.9258620833984423
 20
135.7737285974473025
 30
0.0
 40
0.020600545044352
 50
279.1995764965154194
 51
355.0356142123101222
  0
ARC
  5
10CB0
  8
0
 10
683.885984094674086
 20
136.0406779303399958
 30
0.0
 40
0.2905105705852819
 50
261.2346479135329105
 51
278.5461237700554875
  0
ARC
  5
10CB1
  8
0
 10
683.8455853753074507
 20
135.7734618604760044
 30
0.0
 40
0.020274646208118
 50
182.9457007789324052
 51
258.9911310859624791
  0
LINE
  5
10CB2
  8
0
 10
683.8253375182915761
 20
135.7724199559064004
 30
0.0
 11
683.822198085119453
 21
135.8103024692983922
 31
0.0
  0
ARC
  5
10CB3
  8
0
 10
683.8841772421268388
 20
135.7202716076716058
 30
0.0
 40
0.1093022046831384
 50
53.2725034090586078
 51
124.5443495540021956
  0
LINE
  5
10CB4
  8
0
 10
684.1102069971449282
 20
135.8190267837478018
 30
0.0
 11
684.1070258315354522
 21
135.7824037192553135
 31
0.0
  0
ARC
  5
10CB5
  8
0
 10
684.0865025657202523
 20
135.7841864184451879
 30
0.0
 40
0.020600545044352
 50
279.1995764965154194
 51
355.0356142123101222
  0
ARC
  5
10CB6
  8
0
 10
684.0466245769960096
 20
136.0511357513379096
 30
0.0
 40
0.2905105705852819
 50
261.2346479135329105
 51
278.5461237700554875
  0
ARC
  5
10CB7
  8
0
 10
684.006225857629147
 20
135.7839196814740035
 30
0.0
 40
0.020274646208118
 50
182.9457007789324052
 51
258.9911310859624791
  0
LINE
  5
10CB8
  8
0
 10
683.985978000613386
 20
135.7828777769042858
 30
0.0
 11
683.982838567441263
 21
135.820760290296306
 31
0.0
  0
ARC
  5
10CB9
  8
0
 10
684.045287947173847
 20
135.7291647132907997
 30
0.0
 40
0.1108588054957713
 50
54.1545263214252302
 51
124.2859588574821998
  0
LINE
  5
10CBA
  8
0
 10
684.1202215040159444
 20
135.8086895026702052
 30
0.0
 11
684.1170658155158435
 21
135.7727593060702134
 31
0.0
  0
ARC
  5
10CBB
  8
0
 10
684.0965425497007573
 20
135.7745420052602014
 30
0.0
 40
0.020600545044352
 50
279.1995764965154194
 51
355.0356142123101222
  0
ARC
  5
10CBC
  8
0
 10
684.0566645609762872
 20
136.0414913381528095
 30
0.0
 40
0.2905105705852819
 50
261.2346479135329105
 51
278.5461237700554875
  0
ARC
  5
10CBD
  8
0
 10
684.0162658416096519
 20
135.7742752682889034
 30
0.0
 40
0.020274646208118
 50
206.0713665434226129
 51
258.9911310859624791
  0
ARC
  5
10CBE
  8
0
 10
684.0548577084291537
 20
135.7210850154845048
 30
0.0
 40
0.1093022046831384
 50
53.2725034090586078
 51
59.761725593212951
  0
LINE
  5
10CBF
  8
0
 10
684.1189512696840893
 20
136.0492475597542921
 30
0.0
 11
684.115770104074727
 21
136.0126244952616901
 31
0.0
  0
ARC
  5
10CC0
  8
0
 10
684.0952468382595271
 20
136.0144071944517066
 30
0.0
 40
0.020600545044352
 50
279.1995764965154194
 51
355.0356142123101222
  0
ARC
  5
10CC1
  8
0
 10
684.0553688495351707
 20
136.2813565273443999
 30
0.0
 40
0.2905105705852819
 50
261.2346479135329105
 51
278.5461237700554875
  0
ARC
  5
10CC2
  8
0
 10
684.0149701301684217
 20
136.0141404574804085
 30
0.0
 40
0.020274646208118
 50
182.9457007789324052
 51
258.9911310859624791
  0
LINE
  5
10CC3
  8
0
 10
683.9947222731525471
 20
136.0130985529108045
 30
0.0
 11
683.9915828399805378
 21
136.0509810663027963
 31
0.0
  0
ARC
  5
10CC4
  8
0
 10
684.0535619969879235
 20
135.9609502046760099
 30
0.0
 40
0.1093022046831384
 50
53.2725034090586078
 51
124.5443495540021956
  0
ARC
  5
10CC5
  8
0
 10
684.05508714135226
 20
136.1067265801185044
 30
0.0
 40
0.1136783062008311
 50
260.0578139398014059
 51
280.0009636192199878
  0
ARC
  5
10CC6
  8
0
 10
684.0552021060426569
 20
135.8825937250396123
 30
0.0
 40
0.1138858990660146
 50
80.0761755171698866
 51
99.9826020404095033
  0
LINE
  5
10CC7
  8
0
 10
685.4886603628159492
 20
136.0676035472490923
 30
0.0
 11
685.4881321928103262
 21
136.0144010207179974
 31
0.0
  0
ARC
  5
10CC8
  8
0
 10
685.4676683645059256
 20
136.017739454914306
 30
0.0
 40
0.0207343534202091
 50
276.5258590174457822
 51
350.7344862504946263
  0
ARC
  5
10CC9
  8
0
 10
685.3801019836453179
 20
136.6424055077729065
 30
0.0
 40
0.6515016602095965
 50
270.4517488780332997
 51
277.9335205081931122
  0
ARC
  5
10CCA
  8
0
 10
685.3870291622807827
 20
136.0108130506511941
 30
0.0
 40
0.0199693815978921
 50
189.6545918987503967
 51
264.8559271983049825
  0
LINE
  5
10CCB
  8
0
 10
685.3673426132074837
 20
136.0074640228831129
 30
0.0
 11
685.363548397585987
 21
136.0302342814063081
 31
0.0
  0
ARC
  5
10CCC
  8
0
 10
685.4951503694920802
 20
135.8177535644975933
 30
0.0
 40
0.2499342594915323
 50
91.4879584469399134
 51
121.7724011794666978
  0
ARC
  5
10CCD
  8
0
 10
685.4087014960252873
 20
136.2542870448652934
 30
0.0
 40
0.2615138050592552
 50
270.1900958671682815
 51
278.823894791916473
  0
ARC
  5
10CCE
  8
0
 10
685.4495491942643639
 20
135.7360767251961988
 30
0.0
 40
0.2597926941500511
 50
90.1614418862999258
 51
98.8525487713304329
  0
LINE
  5
10CCF
  8
0
 10
685.7779661639438018
 20
136.0697848308116136
 30
0.0
 11
685.7774313416691712
 21
136.0159122217168033
 31
0.0
  0
ARC
  5
10CD0
  8
0
 10
685.7569675133648843
 20
136.0192506559131971
 30
0.0
 40
0.0207343534202091
 50
276.5258590174457822
 51
350.7344862504946263
  0
ARC
  5
10CD1
  8
0
 10
685.6694011325042766
 20
136.6439167087717124
 30
0.0
 40
0.6515016602095965
 50
270.4517488780332997
 51
277.9335205081931122
  0
ARC
  5
10CD2
  8
0
 10
685.6763283111397413
 20
136.01232425165
 30
0.0
 40
0.0199693815978921
 50
232.9068409072145016
 51
264.8559271983049825
  0
LINE
  5
10CD3
  8
0
 10
685.7042440898131872
 20
136.0694736892596097
 30
0.0
 11
685.7037159198075642
 21
136.0162711627284864
 31
0.0
  0
ARC
  5
10CD4
  8
0
 10
685.68325209150305
 20
136.0196095969247949
 30
0.0
 40
0.0207343534202091
 50
276.5258590174457822
 51
350.7344862504946263
  0
ARC
  5
10CD5
  8
0
 10
685.5956857106425559
 20
136.6442756497833955
 30
0.0
 40
0.6515016602095965
 50
270.4517488780332997
 51
277.9335205081931122
  0
ARC
  5
10CD6
  8
0
 10
685.602612889277907
 20
136.0126831926615978
 30
0.0
 40
0.0199693815978921
 50
189.6545918987503967
 51
264.8559271983049825
  0
LINE
  5
10CD7
  8
0
 10
685.5829263402048355
 20
136.0093341648936018
 30
0.0
 11
685.5791321245833387
 21
136.0321044234167971
 31
0.0
  0
ARC
  5
10CD8
  8
0
 10
685.7107340964893183
 20
135.8196237065081107
 30
0.0
 40
0.2499342594915323
 50
91.4879584469399134
 51
121.7724011794666978
  0
ARC
  5
10CD9
  8
0
 10
685.6242852230225253
 20
136.2561571868758108
 30
0.0
 40
0.2615138050592552
 50
270.1900958671682815
 51
278.823894791916473
  0
ARC
  5
10CDA
  8
0
 10
685.6651329212617156
 20
135.7379468672066878
 30
0.0
 40
0.2597926941500511
 50
90.1614418862999258
 51
98.8525487713304329
  0
LINE
  5
10CDB
  8
0
 10
685.08876084039548
 20
135.9095937631053914
 30
0.0
 11
685.0882326703897434
 21
135.8563912365742965
 31
0.0
  0
ARC
  5
10CDC
  8
0
 10
685.0677688420854565
 20
135.859729670770605
 30
0.0
 40
0.0207343534202091
 50
276.5258590174457822
 51
350.7344862504946263
  0
ARC
  5
10CDD
  8
0
 10
684.9802024612248488
 20
136.4843957236292056
 30
0.0
 40
0.6515016602095965
 50
270.4517488780332997
 51
277.9335205081931122
  0
ARC
  5
10CDE
  8
0
 10
684.9871296398604272
 20
135.8528032665074079
 30
0.0
 40
0.0199693815978921
 50
189.6545918987503967
 51
264.8559271983049825
  0
LINE
  5
10CDF
  8
0
 10
684.967443090787242
 20
135.8494542387394119
 30
0.0
 11
684.9636488751656316
 21
135.8722244972626072
 31
0.0
  0
ARC
  5
10CE0
  8
0
 10
685.0952508470717248
 20
135.6597437803538924
 30
0.0
 40
0.2499342594915323
 50
91.4879584469399134
 51
121.7724011794666978
  0
ARC
  5
10CE1
  8
0
 10
685.0088019736049318
 20
136.0962772607215925
 30
0.0
 40
0.2615138050592552
 50
270.1900958671682815
 51
278.823894791916473
  0
ARC
  5
10CE2
  8
0
 10
685.0496496718441222
 20
135.5780669410524979
 30
0.0
 40
0.2597926941500511
 50
90.1614418862999258
 51
98.8525487713304329
  0
LINE
  5
10CE3
  8
0
 10
685.1843257829249296
 20
135.9104705265978907
 30
0.0
 11
685.1837976129193066
 21
135.8572680000667958
 31
0.0
  0
ARC
  5
10CE4
  8
0
 10
685.1633337846147924
 20
135.8606064342631043
 30
0.0
 40
0.0207343534202091
 50
276.5258590174457822
 51
350.7344862504946263
  0
ARC
  5
10CE5
  8
0
 10
685.0757674037541847
 20
136.4852724871217049
 30
0.0
 40
0.6515016602095965
 50
270.4517488780332997
 51
277.9335205081931122
  0
ARC
  5
10CE6
  8
0
 10
685.0826945823896494
 20
135.8536800299999925
 30
0.0
 40
0.0199693815978921
 50
227.3347956590515082
 51
264.8559271983049825
  0
ARC
  5
10CE7
  8
0
 10
685.190815789600947
 20
135.6606205438463917
 30
0.0
 40
0.2499342594915323
 50
91.4879584469399134
 51
114.1519538799563946
  0
LINE
  5
10CE8
  8
0
 10
685.1367247323155425
 20
136.0700259024530112
 30
0.0
 11
685.1361965623099195
 21
136.0168233759218879
 31
0.0
  0
ARC
  5
10CE9
  8
0
 10
685.115732734005519
 20
136.0201618101181964
 30
0.0
 40
0.0207343534202091
 50
276.5258590174457822
 51
350.7344862504946263
  0
ARC
  5
10CEA
  8
0
 10
685.0281663531450249
 20
136.644827862976797
 30
0.0
 40
0.6515016602095965
 50
270.4517488780332997
 51
277.9335205081931122
  0
ARC
  5
10CEB
  8
0
 10
685.0350935317804897
 20
136.013235405855113
 30
0.0
 40
0.0199693815978921
 50
189.6545918987503967
 51
264.8559271983049825
  0
LINE
  5
10CEC
  8
0
 10
685.0154069827071908
 20
136.0098863780870033
 30
0.0
 11
685.0116127670855803
 21
136.0326566366101986
 31
0.0
  0
ARC
  5
10CED
  8
0
 10
685.1432147389916736
 20
135.8201759197015122
 30
0.0
 40
0.2499342594915323
 50
91.4879584469399134
 51
121.7724011794666978
  0
ARC
  5
10CEE
  8
0
 10
685.0567658655248806
 20
136.2567094000692123
 30
0.0
 40
0.2615138050592552
 50
270.1900958671682815
 51
278.823894791916473
  0
ARC
  5
10CEF
  8
0
 10
685.0976135637639572
 20
135.738499080400203
 30
0.0
 40
0.2597926941500511
 50
90.1614418862999258
 51
98.8525487713304329
  0
LINE
  5
10CF0
  8
0
 10
684.8152445397865904
 20
135.9098247134838005
 30
0.0
 11
684.8147163697809674
 21
135.8566221869527055
 31
0.0
  0
ARC
  5
10CF1
  8
0
 10
684.7942525414765669
 20
135.8599606211490141
 30
0.0
 40
0.0207343534202091
 50
276.5258590174457822
 51
350.7344862504946263
  0
ARC
  5
10CF2
  8
0
 10
684.7066861606159591
 20
136.4846266740075862
 30
0.0
 40
0.6515016602095965
 50
270.4517488780332997
 51
277.9335205081931122
  0
ARC
  5
10CF3
  8
0
 10
684.7136133392516513
 20
135.8530342168859022
 30
0.0
 40
0.0199693815978921
 50
189.6545918987503967
 51
264.8559271983049825
  0
LINE
  5
10CF4
  8
0
 10
684.693926790178466
 20
135.8496851891179062
 30
0.0
 11
684.6901325745568556
 21
135.8724554476409878
 31
0.0
  0
ARC
  5
10CF5
  8
0
 10
684.8217345464628352
 20
135.6599747307323014
 30
0.0
 40
0.2499342594915323
 50
91.4879584469399134
 51
121.7724011794666978
  0
ARC
  5
10CF6
  8
0
 10
684.7352856729960422
 20
136.0965082111000015
 30
0.0
 40
0.2615138050592552
 50
270.1900958671682815
 51
278.823894791916473
  0
ARC
  5
10CF7
  8
0
 10
684.7761333712352325
 20
135.5782978914309069
 30
0.0
 40
0.2597926941500511
 50
90.1614418862999258
 51
98.8525487713304329
  0
LINE
  5
10CF8
  8
0
 10
684.6767771558288587
 20
136.0719959819770111
 30
0.0
 11
684.6762489858232357
 21
136.0187934554458877
 31
0.0
  0
ARC
  5
10CF9
  8
0
 10
684.6557851575188351
 20
136.0221318896421963
 30
0.0
 40
0.0207343534202091
 50
276.5258590174457822
 51
350.7344862504946263
  0
ARC
  5
10CFA
  8
0
 10
684.5682187766582274
 20
136.6467979425007968
 30
0.0
 40
0.6515016602095965
 50
270.4517488780332997
 51
277.9335205081931122
  0
ARC
  5
10CFB
  8
0
 10
684.5751459552935785
 20
136.0152054853789991
 30
0.0
 40
0.0199693815978921
 50
189.6545918987503967
 51
264.8559271983049825
  0
LINE
  5
10CFC
  8
0
 10
684.5554594062205069
 20
136.0118564576110032
 30
0.0
 11
684.5516651905990102
 21
136.0346267161341984
 31
0.0
  0
ARC
  5
10CFD
  8
0
 10
684.6832671625048761
 20
135.822145999225512
 30
0.0
 40
0.2499342594915323
 50
91.4879584469399134
 51
121.7724011794666978
  0
ARC
  5
10CFE
  8
0
 10
684.5968182890381968
 20
136.2586794795932121
 30
0.0
 40
0.2615138050592552
 50
270.1900958671682815
 51
278.823894791916473
  0
ARC
  5
10CFF
  8
0
 10
684.6376659872773871
 20
135.7404691599240891
 30
0.0
 40
0.2597926941500511
 50
90.1614418862999258
 51
98.8525487713304329
  0
LINE
  5
10D00
  8
0
 10
684.629943385902493
 20
135.8254841335999004
 30
0.0
 11
684.6295301983692525
 21
135.7838637832167876
 31
0.0
  0
ARC
  5
10D01
  8
0
 10
684.609066370064852
 20
135.7872022174130962
 30
0.0
 40
0.0207343534202091
 50
276.5258590174457822
 51
350.7344862504946263
  0
ARC
  5
10D02
  8
0
 10
684.5214999892042442
 20
136.4118682702718104
 30
0.0
 40
0.6515016602095965
 50
270.4517488780332997
 51
277.9335205081931122
  0
ARC
  5
10D03
  8
0
 10
684.5284271678398227
 20
135.7802758131500127
 30
0.0
 40
0.0199693815978921
 50
189.6545918987503967
 51
264.8559271983049825
  0
LINE
  5
10D04
  8
0
 10
684.5087406187666375
 20
135.7769267853819031
 30
0.0
 11
684.5021005573427146
 21
135.8167758425555007
 31
0.0
  0
LINE
  5
10D05
  8
0
 10
684.4937193718178605
 20
135.8374232475472922
 30
0.0
 11
684.4931912018122375
 21
135.7842207210161973
 31
0.0
  0
ARC
  5
10D06
  8
0
 10
684.472727373507837
 20
135.7875591552125911
 30
0.0
 40
0.0207343534202091
 50
276.5258590174457822
 51
350.7344862504946263
  0
ARC
  5
10D07
  8
0
 10
684.3851609926473429
 20
136.4122252080711917
 30
0.0
 40
0.6515016602095965
 50
270.4517488780332997
 51
277.9335205081931122
  0
ARC
  5
10D08
  8
0
 10
684.392088171282694
 20
135.780632750949394
 30
0.0
 40
0.0199693815978921
 50
189.6545918987503967
 51
264.8559271983049825
  0
LINE
  5
10D09
  8
0
 10
684.3724016222096225
 20
135.7772837231813128
 30
0.0
 11
684.3686074065880121
 21
135.800053981704508
 31
0.0
  0
ARC
  5
10D0A
  8
0
 10
684.5002093784938779
 20
135.5875732647957932
 30
0.0
 40
0.2499342594915323
 50
91.4879584469399134
 51
121.7724011794666978
  0
ARC
  5
10D0B
  8
0
 10
684.4137605050271986
 20
136.024106745163607
 30
0.0
 40
0.2615138050592552
 50
270.1900958671682815
 51
278.823894791916473
  0
ARC
  5
10D0C
  8
0
 10
684.454608203266389
 20
135.5058964254945124
 30
0.0
 40
0.2597926941500511
 50
90.1614418862999258
 51
98.8525487713304329
  0
LINE
  5
10D0D
  8
0
 10
684.3750120098774232
 20
135.9081327049676986
 30
0.0
 11
684.3744838398718002
 21
135.8549301784366037
 31
0.0
  0
ARC
  5
10D0E
  8
0
 10
684.3540200115673997
 20
135.8582686126329122
 30
0.0
 40
0.0207343534202091
 50
276.5258590174457822
 51
350.7344862504946263
  0
ARC
  5
10D0F
  8
0
 10
684.266453630706792
 20
136.4829346654915128
 30
0.0
 40
0.6515016602095965
 50
270.4517488780332997
 51
277.9335205081931122
  0
ARC
  5
10D10
  8
0
 10
684.2733808093422567
 20
135.8513422083698003
 30
0.0
 40
0.0199693815978921
 50
189.6545918987503967
 51
264.8559271983049825
  0
LINE
  5
10D11
  8
0
 10
684.2536942602689578
 20
135.8479931806016907
 30
0.0
 11
684.2499000446474611
 21
135.870763439124886
 31
0.0
  0
ARC
  5
10D12
  8
0
 10
684.3815020165535543
 20
135.6582827222161995
 30
0.0
 40
0.2499342594915323
 50
91.4879584469399134
 51
121.7724011794666978
  0
ARC
  5
10D13
  8
0
 10
684.2950531430866477
 20
136.0948162025838997
 30
0.0
 40
0.2615138050592552
 50
270.1900958671682815
 51
278.823894791916473
  0
ARC
  5
10D14
  8
0
 10
684.3359008413259517
 20
135.5766058829148051
 30
0.0
 40
0.2597926941500511
 50
90.1614418862999258
 51
98.8525487713304329
  0
LINE
  5
10D15
  8
0
 10
684.3862906445249337
 20
135.8100359720490928
 30
0.0
 11
684.118376991129935
 21
135.8100359720490928
 31
0.0
  0
LINE
  5
10D16
  8
0
 10
683.9837273226329444
 20
135.8100359720490928
 30
0.0
 11
683.9465417419363575
 21
135.8100359720490928
 31
0.0
  0
LINE
  5
10D17
  8
0
 10
683.8222201705152656
 20
135.8100359720490928
 30
0.0
 11
683.6428790271580738
 21
135.8100359720490928
 31
0.0
  0
LINE
  5
10D18
  8
0
 10
683.2829760140375583
 20
135.8100359720490928
 30
0.0
 11
682.8534200247992203
 21
135.8100359720490928
 31
0.0
  0
ARC
  5
10D19
  8
0
 10
682.0451394392506472
 20
137.559159338226408
 30
0.0
 40
0.0398023848700551
 50
96.4346781688727646
 51
179.2440554749013017
  0
LINE
  5
10D1A
  8
0
 10
682.005340518615867
 20
137.5596844645490933
 30
0.0
 11
682.0033336828159918
 21
137.3268593898490906
 31
0.0
  0
ARC
  5
10D1B
  8
0
 10
681.963914625980351
 20
137.327250983700111
 30
0.0
 40
0.0394210018587522
 50
277.4502448281132843
 51
359.4308352680185976
  0
ARC
  5
10D1C
  8
0
 10
675.8096187821994363
 20
174.3181725541518006
 30
0.0
 40
37.5387789233297369
 50
275.4012186936868147
 51
279.4438628767675823
  0
ARC
  5
10D1D
  8
0
 10
679.3484704180069684
 20
136.8895299946881039
 30
0.0
 40
0.056789362631262
 50
95.4012186936867863
 51
181.5213220460773016
  0
LINE
  5
10D1E
  8
0
 10
679.2917010728158402
 20
136.8880222962351922
 30
0.0
 11
679.2866926325159511
 21
136.3142760852965978
 31
0.0
  0
ARC
  5
10D1F
  8
0
 10
679.3362170666692919
 20
136.3200748764147079
 30
0.0
 40
0.0498627672381244
 50
186.678324993497597
 51
236.9846553158257905
  0
ARC
  5
10D20
  8
0
 10
680.1863437132218451
 20
138.0622184105777137
 30
0.0
 40
1.9879992369738699
 50
243.8134336308812067
 51
246.1380441112069946
  0
ARC
  5
10D21
  8
0
 10
679.4203324556159487
 20
136.245178459949102
 30
0.0
 40
0.019685039399991
 50
183.0026184165697032
 51
245.4252643106094922
  0
ARC
  5
10D22
  8
0
 10
681.3278127704892313
 20
140.4163351845286911
 30
0.0
 40
4.606299212473024
 50
264.2556949519247951
 51
267.007159976678679
  0
ARC
  5
10D23
  8
0
 10
681.3278127704892313
 20
140.4163351845286911
 30
0.0
 40
4.606299212473024
 50
261.1108218586076077
 51
263.0950748591421871
  0
ARC
  5
10D24
  8
0
 10
681.3278127704892313
 20
140.4163351845286911
 30
0.0
 40
4.606299212473024
 50
253.2094105554419912
 51
258.3360163505294054
  0
ARC
  5
10D25
  8
0
 10
681.3278127704892313
 20
140.4163351845286911
 30
0.0
 40
4.606299212473024
 50
245.4252643106094922
 51
251.6391515361063114
  0
LINE
  5
10D26
  8
0
 10
682.392298807321481
 20
135.8905322007460938
 30
0.0
 11
682.395454495821582
 21
135.854602004146102
 31
0.0
  0
ARC
  5
10D27
  8
0
 10
682.4159777616368956
 20
135.8563847033360048
 30
0.0
 40
0.020600545044352
 50
184.9643857876905884
 51
260.8004235034845806
  0
ARC
  5
10D28
  8
0
 10
682.4558557503611382
 20
136.1233340362286981
 30
0.0
 40
0.2905105705852819
 50
261.4538762299443988
 51
278.7653520864670895
  0
ARC
  5
10D29
  8
0
 10
682.4962544697277735
 20
135.8561179663647067
 30
0.0
 40
0.020274646208118
 50
281.0088689140375209
 51
357.0542992210675948
  0
LINE
  5
10D2A
  8
0
 10
682.5165023267436482
 20
135.8550760617951028
 30
0.0
 11
682.5196417599156575
 21
135.8929585751870945
 31
0.0
  0
ARC
  5
10D2B
  8
0
 10
682.4576626029083855
 20
135.8029277135603081
 30
0.0
 40
0.1093022046831384
 50
55.4556504459977617
 51
126.7274965909413993
  0
ARC
  5
10D2C
  8
0
 10
682.456137458544049
 20
135.948704089002689
 30
0.0
 40
0.1136783062008311
 50
259.9990363807801259
 51
279.9421860601987078
  0
ARC
  5
10D2D
  8
0
 10
682.4560224938536521
 20
135.7245712339239105
 30
0.0
 40
0.1138858990660146
 50
80.0173979595904967
 51
99.9238244828301276
  0
LINE
  5
10D2E
  8
0
 10
682.0759426020911178
 20
136.0491490004320951
 30
0.0
 11
682.0791237677004801
 21
136.0125259359394931
 31
0.0
  0
ARC
  5
10D2F
  8
0
 10
682.0996470335155664
 20
136.014308635129396
 30
0.0
 40
0.020600545044352
 50
184.9643857876905884
 51
260.8004235034845806
  0
ARC
  5
10D30
  8
0
 10
682.1395250222400364
 20
136.2812579680220892
 30
0.0
 40
0.2905105705852819
 50
261.4538762299443988
 51
278.7653520864670895
  0
ARC
  5
10D31
  8
0
 10
682.1799237416066717
 20
136.0140418981582116
 30
0.0
 40
0.020274646208118
 50
281.0088689140375209
 51
357.0542992210675948
  0
LINE
  5
10D32
  8
0
 10
682.2001715986225463
 20
136.0129999935884939
 30
0.0
 11
682.2033110317946694
 21
136.0508825069805141
 31
0.0
  0
ARC
  5
10D33
  8
0
 10
682.1408616520620853
 20
135.9592869299750078
 30
0.0
 40
0.1108588054957674
 50
55.7140411425119524
 51
125.8454736785747059
  0
ARC
  5
10D34
  8
0
 10
682.1398067304229471
 20
136.1066280207961938
 30
0.0
 40
0.1136783062008311
 50
259.9990363807801259
 51
279.9421860601987078
  0
ARC
  5
10D35
  8
0
 10
682.1396917657324366
 20
135.882495165717387
 30
0.0
 40
0.1138858990660146
 50
80.0173979595904967
 51
99.9238244828301276
  0
ARC
  5
10D36
  8
0
 10
682.2341035144277157
 20
136.0409320664458903
 30
0.0
 40
0.2905105705852819
 50
263.1697634099193124
 51
278.7653520864670895
  0
ARC
  5
10D37
  8
0
 10
682.2745022337944647
 20
135.7737159965818989
 30
0.0
 40
0.020274646208118
 50
281.0088689140375209
 51
357.0542992210675948
  0
LINE
  5
10D38
  8
0
 10
682.2947500908103393
 20
135.772674092012295
 30
0.0
 11
682.2978895239823487
 21
135.8105566054042868
 31
0.0
  0
ARC
  5
10D39
  8
0
 10
682.2359103669749629
 20
135.7205257437775003
 30
0.0
 40
0.1093022046831384
 50
55.4556504459977617
 51
110.8008672105813019
  0
ARC
  5
10D3A
  8
0
 10
682.2343852226106264
 20
135.8663021192199949
 30
0.0
 40
0.1136783062008311
 50
259.9990363807801259
 51
279.9421860601987078
  0
ARC
  5
10D3B
  8
0
 10
682.2342702579202296
 20
135.6421692641411028
 30
0.0
 40
0.1138858990660146
 50
80.0173979595904967
 51
99.9238244828301276
  0
ARC
  5
10D3C
  8
0
 10
682.1188350644542879
 20
135.7731594610096124
 30
0.0
 40
0.020600545044352
 50
218.5221089925267108
 51
260.8004235034845806
  0
ARC
  5
10D3D
  8
0
 10
682.1587130531786443
 20
136.0401087939023057
 30
0.0
 40
0.2905105705852819
 50
261.4538762299443988
 51
278.7653520864670895
  0
ARC
  5
10D3E
  8
0
 10
682.1991117725453933
 20
135.7728927240382859
 30
0.0
 40
0.020274646208118
 50
281.0088689140375209
 51
357.0542992210675948
  0
LINE
  5
10D3F
  8
0
 10
682.2193596295611542
 20
135.7718508194687104
 30
0.0
 11
682.2224990627333909
 21
135.8097333328607021
 31
0.0
  0
ARC
  5
10D40
  8
0
 10
682.1605199057260052
 20
135.7197024712338873
 30
0.0
 40
0.1093022046831384
 50
55.4556504459977617
 51
91.396920302824455
  0
ARC
  5
10D41
  8
0
 10
682.158994761361555
 20
135.8654788466764103
 30
0.0
 40
0.1136783062008311
 50
259.9990363807801259
 51
279.9421860601987078
  0
ARC
  5
10D42
  8
0
 10
682.1588797966710445
 20
135.6413459915974897
 30
0.0
 40
0.1138858990660146
 50
80.0173979595904967
 51
99.9238244828301276
  0
LINE
  5
10D43
  8
0
 10
682.0453631799265395
 20
135.8179966248274866
 30
0.0
 11
682.0484862730860414
 21
135.7820421175042895
 31
0.0
  0
ARC
  5
10D44
  8
0
 10
682.069009538901355
 20
135.7838248166941924
 30
0.0
 40
0.020600545044352
 50
184.9643857876905884
 51
260.8004235034845806
  0
ARC
  5
10D45
  8
0
 10
682.1088875276255976
 20
136.0507741495869141
 30
0.0
 40
0.2905105705852819
 50
261.4538762299443988
 51
278.7653520864670895
  0
ARC
  5
10D46
  8
0
 10
682.1492862469923466
 20
135.7835580797228943
 30
0.0
 40
0.020274646208118
 50
281.0088689140375209
 51
357.0542992210675948
  0
LINE
  5
10D47
  8
0
 10
682.1695341040081075
 20
135.7825161751532903
 30
0.0
 11
682.1726735371802306
 21
135.8203986885453105
 31
0.0
  0
ARC
  5
10D48
  8
0
 10
682.1106943801728448
 20
135.7303678269186094
 30
0.0
 40
0.1093022046831384
 50
55.4556504459977617
 51
126.7061812864118053
  0
ARC
  5
10D49
  8
0
 10
682.1091692358085083
 20
135.8761442023609902
 30
0.0
 40
0.1136783062008311
 50
259.9990363807801259
 51
279.9421860601987078
  0
ARC
  5
10D4A
  8
0
 10
682.1090542711181115
 20
135.6520113472820981
 30
0.0
 40
0.1138858990660146
 50
80.0173979595904967
 51
99.9238244828301276
  0
LINE
  5
10D4B
  8
0
 10
681.9361111441064622
 20
135.8094093537127947
 30
0.0
 11
681.9392923097159382
 21
135.7727862892201927
 31
0.0
  0
ARC
  5
10D4C
  8
0
 10
681.9598155755311382
 20
135.7745689884102092
 30
0.0
 40
0.020600545044352
 50
184.9643857876905884
 51
260.8004235034845806
  0
ARC
  5
10D4D
  8
0
 10
681.9996935642554945
 20
136.0415183213027888
 30
0.0
 40
0.2905105705852819
 50
261.4538762299443988
 51
278.7653520864670895
  0
ARC
  5
10D4E
  8
0
 10
682.0400922836222435
 20
135.7743022514389111
 30
0.0
 40
0.020274646208118
 50
281.0088689140375209
 51
335.9599901474209105
  0
ARC
  5
10D4F
  8
0
 10
682.0015004168027417
 20
135.7211119986345125
 30
0.0
 40
0.1093022046831384
 50
64.759306757175338
 51
126.7274965909413993
  0
ARC
  5
10D50
  8
0
 10
681.9999752724384052
 20
135.8668883740768933
 30
0.0
 40
0.1136783062008311
 50
259.9990363807801259
 51
279.9421860601987078
  0
ARC
  5
10D51
  8
0
 10
681.9998603077478947
 20
135.6427555189980865
 30
0.0
 40
0.1138858990660146
 50
80.0173979595904967
 51
99.9238244828301276
  0
LINE
  5
10D52
  8
0
 10
681.7514683963504467
 20
135.8908917887135033
 30
0.0
 11
681.7546495619596953
 21
135.8549806069601971
 31
0.0
  0
ARC
  5
10D53
  8
0
 10
681.775172827775009
 20
135.8567633061500999
 30
0.0
 40
0.020600545044352
 50
184.9643857876905884
 51
260.8004235034845806
  0
ARC
  5
10D54
  8
0
 10
681.8150508164992516
 20
136.1237126390427932
 30
0.0
 40
0.2905105705852819
 50
261.4538762299443988
 51
278.7653520864670895
  0
ARC
  5
10D55
  8
0
 10
681.8554495358660006
 20
135.8564965691788018
 30
0.0
 40
0.020274646208118
 50
281.0088689140375209
 51
357.0542992210675948
  0
LINE
  5
10D56
  8
0
 10
681.8756973928817615
 20
135.8554546646091978
 30
0.0
 11
681.8788368260538846
 21
135.8933371780011896
 31
0.0
  0
ARC
  5
10D57
  8
0
 10
681.8168576690466125
 20
135.8033063163744032
 30
0.0
 40
0.1093022046831291
 50
55.4556504459968309
 51
126.7441611399345049
  0
ARC
  5
10D58
  8
0
 10
681.8153325246821623
 20
135.9490826918168125
 30
0.0
 40
0.1136783062008311
 50
259.9990363807801259
 51
279.9421860601987078
  0
ARC
  5
10D59
  8
0
 10
681.8152175599917655
 20
135.7249498367380056
 30
0.0
 40
0.1138858990660146
 50
80.0173979595904967
 51
99.9238244828301276
  0
LINE
  5
10D5A
  8
0
 10
681.6312813539182116
 20
135.8078760948573063
 30
0.0
 11
681.6344370424180852
 21
135.7719458982573997
 31
0.0
  0
ARC
  5
10D5B
  8
0
 10
681.6549603082333988
 20
135.7737285974473025
 30
0.0
 40
0.020600545044352
 50
184.9643857876905884
 51
260.8004235034845806
  0
ARC
  5
10D5C
  8
0
 10
681.6948382969576414
 20
136.0406779303399958
 30
0.0
 40
0.2905105705852819
 50
261.4538762299443988
 51
278.7653520864670895
  0
ARC
  5
10D5D
  8
0
 10
681.7352370163245041
 20
135.7734618604760044
 30
0.0
 40
0.020274646208118
 50
281.0088689140375209
 51
357.0542992210675948
  0
LINE
  5
10D5E
  8
0
 10
681.755484873340265
 20
135.7724199559064004
 30
0.0
 11
681.7586243065122744
 21
135.8103024692983922
 31
0.0
  0
ARC
  5
10D5F
  8
0
 10
681.6966451495050023
 20
135.7202716076716058
 30
0.0
 40
0.1093022046831384
 50
55.4556504459977617
 51
126.7274965909413993
  0
LINE
  5
10D60
  8
0
 10
681.4706153944869129
 20
135.8190267837478018
 30
0.0
 11
681.4737965600962752
 21
135.7824037192553135
 31
0.0
  0
ARC
  5
10D61
  8
0
 10
681.4943198259115889
 20
135.7841864184451879
 30
0.0
 40
0.020600545044352
 50
184.9643857876905884
 51
260.8004235034845806
  0
ARC
  5
10D62
  8
0
 10
681.5341978146358315
 20
136.0511357513379096
 30
0.0
 40
0.2905105705852819
 50
261.4538762299443988
 51
278.7653520864670895
  0
ARC
  5
10D63
  8
0
 10
681.5745965340026942
 20
135.7839196814740035
 30
0.0
 40
0.020274646208118
 50
281.0088689140375209
 51
357.0542992210675948
  0
LINE
  5
10D64
  8
0
 10
681.5948443910184551
 20
135.7828777769042858
 30
0.0
 11
681.5979838241904645
 21
135.820760290296306
 31
0.0
  0
ARC
  5
10D65
  8
0
 10
681.5355344444577668
 20
135.7291647132907997
 30
0.0
 40
0.1108588054957713
 50
55.7140411425178002
 51
125.8454736785747059
  0
LINE
  5
10D66
  8
0
 10
681.460600887615783
 20
135.8086895026702052
 30
0.0
 11
681.4637565761158839
 21
135.7727593060702134
 31
0.0
  0
ARC
  5
10D67
  8
0
 10
681.4842798419311976
 20
135.7745420052602014
 30
0.0
 40
0.020600545044352
 50
184.9643857876905884
 51
260.8004235034845806
  0
ARC
  5
10D68
  8
0
 10
681.5241578306554402
 20
136.0414913381528095
 30
0.0
 40
0.2905105705852819
 50
261.4538762299443988
 51
278.7653520864670895
  0
ARC
  5
10D69
  8
0
 10
681.5645565500220755
 20
135.7742752682889034
 30
0.0
 40
0.020274646208118
 50
281.0088689140375209
 51
333.9286334565774155
  0
ARC
  5
10D6A
  8
0
 10
681.5259646832028011
 20
135.7210850154845048
 30
0.0
 40
0.1093022046831384
 50
120.2382744067869993
 51
126.7274965909413993
  0
LINE
  5
10D6B
  8
0
 10
681.4618711219477518
 20
136.0492475597542921
 30
0.0
 11
681.4650522875571141
 21
136.0126244952616901
 31
0.0
  0
ARC
  5
10D6C
  8
0
 10
681.4855755533724277
 20
136.0144071944517066
 30
0.0
 40
0.020600545044352
 50
184.9643857876905884
 51
260.8004235034845806
  0
ARC
  5
10D6D
  8
0
 10
681.5254535420965567
 20
136.2813565273443999
 30
0.0
 40
0.2905105705852819
 50
261.4538762299443988
 51
278.7653520864670895
  0
ARC
  5
10D6E
  8
0
 10
681.5658522614634194
 20
136.0141404574804085
 30
0.0
 40
0.020274646208118
 50
281.0088689140375209
 51
357.0542992210675948
  0
LINE
  5
10D6F
  8
0
 10
681.5861001184790666
 20
136.0130985529108045
 30
0.0
 11
681.5892395516513034
 21
136.0509810663027963
 31
0.0
  0
ARC
  5
10D70
  8
0
 10
681.5272603946439176
 20
135.9609502046760099
 30
0.0
 40
0.1093022046831384
 50
55.4556504459977617
 51
126.7274965909413993
  0
ARC
  5
10D71
  8
0
 10
681.5257352502794674
 20
136.1067265801185044
 30
0.0
 40
0.1136783062008311
 50
259.9990363807801259
 51
279.9421860601987078
  0
ARC
  5
10D72
  8
0
 10
681.5256202855890706
 20
135.8825937250396123
 30
0.0
 40
0.1138858990660146
 50
80.0173979595904967
 51
99.9238244828301276
  0
LINE
  5
10D73
  8
0
 10
680.092162028815892
 20
136.0676035472490923
 30
0.0
 11
680.0926901988216287
 21
136.0144010207179974
 31
0.0
  0
ARC
  5
10D74
  8
0
 10
680.1131540271260292
 20
136.017739454914306
 30
0.0
 40
0.0207343534202091
 50
189.2655137495054021
 51
263.4741409825541041
  0
ARC
  5
10D75
  8
0
 10
680.2007204079865232
 20
136.6424055077729065
 30
0.0
 40
0.6515016602095965
 50
262.0664794918070015
 51
269.5482511219601065
  0
ARC
  5
10D76
  8
0
 10
680.1937932293509448
 20
136.0108130506511941
 30
0.0
 40
0.0199693815978921
 50
275.1440728016950175
 51
350.3454081012495749
  0
LINE
  5
10D77
  8
0
 10
680.2134797784242437
 20
136.0074640228831129
 30
0.0
 11
680.2172739940458541
 21
136.0302342814063081
 31
0.0
  0
ARC
  5
10D78
  8
0
 10
680.0856720221396472
 20
135.8177535644975933
 30
0.0
 40
0.2499342594915323
 50
58.2275988205332524
 51
88.5120415530600724
  0
ARC
  5
10D79
  8
0
 10
680.1721208956065539
 20
136.2542870448652934
 30
0.0
 40
0.2615138050592552
 50
261.176105208083527
 51
269.8099041328317185
  0
ARC
  5
10D7A
  8
0
 10
680.1312731973672498
 20
135.7360767251961988
 30
0.0
 40
0.2597926941500511
 50
81.1474512286696239
 51
89.8385581137000742
  0
LINE
  5
10D7B
  8
0
 10
679.802856227688153
 20
136.0697848308116136
 30
0.0
 11
679.80339104996267
 21
136.0159122217168033
 31
0.0
  0
ARC
  5
10D7C
  8
0
 10
679.8238548782669568
 20
136.0192506559131971
 30
0.0
 40
0.0207343534202091
 50
189.2655137495054021
 51
263.4741409825541041
  0
ARC
  5
10D7D
  8
0
 10
679.9114212591274509
 20
136.6439167087717124
 30
0.0
 40
0.6515016602095965
 50
262.0664794918070015
 51
269.5482511219601065
  0
ARC
  5
10D7E
  8
0
 10
679.9044940804920998
 20
136.01232425165
 30
0.0
 40
0.0199693815978921
 50
275.1440728016950175
 51
307.0931590927855268
  0
LINE
  5
10D7F
  8
0
 10
679.8765783018186539
 20
136.0694736892596097
 30
0.0
 11
679.8771064718243906
 21
136.0162711627284864
 31
0.0
  0
ARC
  5
10D80
  8
0
 10
679.8975703001286774
 20
136.0196095969247949
 30
0.0
 40
0.0207343534202091
 50
189.2655137495054021
 51
263.4741409825541041
  0
ARC
  5
10D81
  8
0
 10
679.9851366809891715
 20
136.6442756497833955
 30
0.0
 40
0.6515016602095965
 50
262.0664794918070015
 51
269.5482511219601065
  0
ARC
  5
10D82
  8
0
 10
679.9782095023537067
 20
136.0126831926615978
 30
0.0
 40
0.0199693815978921
 50
275.1440728016950175
 51
350.3454081012495749
  0
LINE
  5
10D83
  8
0
 10
679.9978960514270057
 20
136.0093341648936018
 30
0.0
 11
680.0016902670486161
 21
136.0321044234167971
 31
0.0
  0
ARC
  5
10D84
  8
0
 10
679.8700882951425228
 20
135.8196237065081107
 30
0.0
 40
0.2499342594915323
 50
58.2275988205332524
 51
88.5120415530600724
  0
ARC
  5
10D85
  8
0
 10
679.9565371686092021
 20
136.2561571868758108
 30
0.0
 40
0.2615138050592552
 50
261.176105208083527
 51
269.8099041328317185
  0
ARC
  5
10D86
  8
0
 10
679.9156894703701255
 20
135.7379468672066878
 30
0.0
 40
0.2597926941500511
 50
81.1474512286696239
 51
89.8385581137000742
  0
LINE
  5
10D87
  8
0
 10
680.4920615512362474
 20
135.9095937631053914
 30
0.0
 11
680.4925897212418704
 21
135.8563912365742965
 31
0.0
  0
ARC
  5
10D88
  8
0
 10
680.5130535495463846
 20
135.859729670770605
 30
0.0
 40
0.0207343534202091
 50
189.2655137495054021
 51
263.4741409825541041
  0
ARC
  5
10D89
  8
0
 10
680.6006199304069924
 20
136.4843957236292056
 30
0.0
 40
0.6515016602095965
 50
262.0664794918070015
 51
269.5482511219601065
  0
ARC
  5
10D8A
  8
0
 10
680.5936927517714139
 20
135.8528032665074079
 30
0.0
 40
0.0199693815978921
 50
275.1440728016950175
 51
350.3454081012495749
  0
LINE
  5
10D8B
  8
0
 10
680.6133793008445991
 20
135.8494542387394119
 30
0.0
 11
680.6171735164662095
 21
135.8722244972626072
 31
0.0
  0
ARC
  5
10D8C
  8
0
 10
680.48557154456023
 20
135.6597437803538924
 30
0.0
 40
0.2499342594915323
 50
58.2275988205332524
 51
88.5120415530600724
  0
ARC
  5
10D8D
  8
0
 10
680.572020418027023
 20
136.0962772607215925
 30
0.0
 40
0.2615138050592552
 50
261.176105208083527
 51
269.8099041328317185
  0
ARC
  5
10D8E
  8
0
 10
680.5311727197878326
 20
135.5780669410524979
 30
0.0
 40
0.2597926941500511
 50
81.1474512286696239
 51
89.8385581137000742
  0
LINE
  5
10D8F
  8
0
 10
680.3964966087070252
 20
135.9104705265978907
 30
0.0
 11
680.3970247787126482
 21
135.8572680000667958
 31
0.0
  0
ARC
  5
10D90
  8
0
 10
680.4174886070170487
 20
135.8606064342631043
 30
0.0
 40
0.0207343534202091
 50
189.2655137495054021
 51
263.4741409825541041
  0
ARC
  5
10D91
  8
0
 10
680.5050549878775428
 20
136.4852724871217049
 30
0.0
 40
0.6515016602095965
 50
262.0664794918070015
 51
269.5482511219601065
  0
ARC
  5
10D92
  8
0
 10
680.4981278092419643
 20
135.8536800299999925
 30
0.0
 40
0.0199693815978921
 50
275.1440728016950175
 51
312.6652043409486055
  0
ARC
  5
10D93
  8
0
 10
680.3900066020307804
 20
135.6606205438463917
 30
0.0
 40
0.2499342594915323
 50
65.8480461200432075
 51
88.5120415530600724
  0
LINE
  5
10D94
  8
0
 10
680.4440976593162986
 20
136.0700259024530112
 30
0.0
 11
680.4446258293219216
 21
136.0168233759218879
 31
0.0
  0
ARC
  5
10D95
  8
0
 10
680.4650896576263222
 20
136.0201618101181964
 30
0.0
 40
0.0207343534202091
 50
189.2655137495054021
 51
263.4741409825541041
  0
ARC
  5
10D96
  8
0
 10
680.5526560384869299
 20
136.644827862976797
 30
0.0
 40
0.6515016602095965
 50
262.0664794918070015
 51
269.5482511219601065
  0
ARC
  5
10D97
  8
0
 10
680.5457288598513514
 20
136.013235405855113
 30
0.0
 40
0.0199693815978921
 50
275.1440728016950175
 51
350.3454081012495749
  0
LINE
  5
10D98
  8
0
 10
680.5654154089246504
 20
136.0098863780870033
 30
0.0
 11
680.5692096245461471
 21
136.0326566366101986
 31
0.0
  0
ARC
  5
10D99
  8
0
 10
680.4376076526400539
 20
135.8201759197015122
 30
0.0
 40
0.2499342594915323
 50
58.2275988205332524
 51
88.5120415530600724
  0
ARC
  5
10D9A
  8
0
 10
680.5240565261068468
 20
136.2567094000692123
 30
0.0
 40
0.2615138050592552
 50
261.176105208083527
 51
269.8099041328317185
  0
ARC
  5
10D9B
  8
0
 10
680.4832088278676565
 20
135.738499080400203
 30
0.0
 40
0.2597926941500511
 50
81.1474512286696239
 51
89.8385581137000742
  0
LINE
  5
10D9C
  8
0
 10
680.765577851845137
 20
135.9098247134838005
 30
0.0
 11
680.76610602185076
 21
135.8566221869527055
 31
0.0
  0
ARC
  5
10D9D
  8
0
 10
680.7865698501552743
 20
135.8599606211490141
 30
0.0
 40
0.0207343534202091
 50
189.2655137495054021
 51
263.4741409825541041
  0
ARC
  5
10D9E
  8
0
 10
680.8741362310157683
 20
136.4846266740075862
 30
0.0
 40
0.6515016602095965
 50
262.0664794918070015
 51
269.5482511219601065
  0
ARC
  5
10D9F
  8
0
 10
680.8672090523803035
 20
135.8530342168859022
 30
0.0
 40
0.0199693815978921
 50
275.1440728016950175
 51
350.3454081012495749
  0
LINE
  5
10DA0
  8
0
 10
680.8868956014534888
 20
135.8496851891179062
 30
0.0
 11
680.8906898170748718
 21
135.8724554476409878
 31
0.0
  0
ARC
  5
10DA1
  8
0
 10
680.759087845169006
 20
135.6599747307323014
 30
0.0
 40
0.2499342594915323
 50
58.2275988205332524
 51
88.5120415530600724
  0
ARC
  5
10DA2
  8
0
 10
680.8455367186357989
 20
136.0965082111000015
 30
0.0
 40
0.2615138050592552
 50
261.176105208083527
 51
269.8099041328317185
  0
ARC
  5
10DA3
  8
0
 10
680.8046890203966086
 20
135.5782978914309069
 30
0.0
 40
0.2597926941500511
 50
81.1474512286696239
 51
89.8385581137000742
  0
LINE
  5
10DA4
  8
0
 10
680.9040452358028688
 20
136.0719959819770111
 30
0.0
 11
680.9045734058087191
 21
136.0187934554458877
 31
0.0
  0
ARC
  5
10DA5
  8
0
 10
680.9250372341131197
 20
136.0221318896421963
 30
0.0
 40
0.0207343534202091
 50
189.2655137495054021
 51
263.4741409825541041
  0
ARC
  5
10DA6
  8
0
 10
681.0126036149735
 20
136.6467979425007968
 30
0.0
 40
0.6515016602095965
 50
262.0664794918070015
 51
269.5482511219601065
  0
ARC
  5
10DA7
  8
0
 10
681.005676436338149
 20
136.0152054853789991
 30
0.0
 40
0.0199693815978921
 50
275.1440728016950175
 51
350.3454081012495749
  0
LINE
  5
10DA8
  8
0
 10
681.0253629854113342
 20
136.0118564576110032
 30
0.0
 11
681.0291572010328309
 21
136.0346267161341984
 31
0.0
  0
ARC
  5
10DA9
  8
0
 10
680.8975552291268514
 20
135.822145999225512
 30
0.0
 40
0.2499342594915323
 50
58.2275988205332524
 51
88.5120415530600724
  0
ARC
  5
10DAA
  8
0
 10
680.9840041025936443
 20
136.2586794795932121
 30
0.0
 40
0.2615138050592552
 50
261.176105208083527
 51
269.8099041328317185
  0
ARC
  5
10DAB
  8
0
 10
680.943156404354454
 20
135.7404691599240891
 30
0.0
 40
0.2597926941500511
 50
81.1474512286696239
 51
89.8385581137000742
  0
LINE
  5
10DAC
  8
0
 10
680.9508790057293481
 20
135.8254841335999004
 30
0.0
 11
680.9512921932625886
 21
135.7838637832167876
 31
0.0
  0
ARC
  5
10DAD
  8
0
 10
680.9717560215669891
 20
135.7872022174130962
 30
0.0
 40
0.0207343534202091
 50
189.2655137495054021
 51
263.4741409825541041
  0
ARC
  5
10DAE
  8
0
 10
681.0593224024275969
 20
136.4118682702718104
 30
0.0
 40
0.6515016602095965
 50
262.0664794918070015
 51
269.5482511219601065
  0
ARC
  5
10DAF
  8
0
 10
681.0523952237921321
 20
135.7802758131500127
 30
0.0
 40
0.0199693815978921
 50
275.1440728016950175
 51
350.3454081012495749
  0
LINE
  5
10DB0
  8
0
 10
681.0720817728653174
 20
135.7769267853819031
 30
0.0
 11
681.0787218342892402
 21
135.8167758425555007
 31
0.0
  0
LINE
  5
10DB1
  8
0
 10
681.0871030198138669
 20
135.8374232475472922
 30
0.0
 11
681.0876311898196036
 21
135.7842207210161973
 31
0.0
  0
ARC
  5
10DB2
  8
0
 10
681.1080950181238904
 20
135.7875591552125911
 30
0.0
 40
0.0207343534202091
 50
189.2655137495054021
 51
263.4741409825541041
  0
ARC
  5
10DB3
  8
0
 10
681.1956613989844982
 20
136.4122252080711917
 30
0.0
 40
0.6515016602095965
 50
262.0664794918070015
 51
269.5482511219601065
  0
ARC
  5
10DB4
  8
0
 10
681.1887342203491471
 20
135.780632750949394
 30
0.0
 40
0.0199693815978921
 50
275.1440728016950175
 51
350.3454081012495749
  0
LINE
  5
10DB5
  8
0
 10
681.2084207694223323
 20
135.7772837231813128
 30
0.0
 11
681.2122149850438291
 21
135.800053981704508
 31
0.0
  0
ARC
  5
10DB6
  8
0
 10
681.0806130131378495
 20
135.5875732647957932
 30
0.0
 40
0.2499342594915323
 50
58.2275988205332524
 51
88.5120415530600724
  0
ARC
  5
10DB7
  8
0
 10
681.1670618866046425
 20
136.024106745163607
 30
0.0
 40
0.2615138050592552
 50
261.176105208083527
 51
269.8099041328317185
  0
ARC
  5
10DB8
  8
0
 10
681.1262141883654522
 20
135.5058964254945124
 30
0.0
 40
0.2597926941500511
 50
81.1474512286696239
 51
89.8385581137000742
  0
LINE
  5
10DB9
  8
0
 10
681.2058103817545316
 20
135.9081327049676986
 30
0.0
 11
681.2063385517601546
 21
135.8549301784366037
 31
0.0
  0
ARC
  5
10DBA
  8
0
 10
681.2268023800645551
 20
135.8582686126329122
 30
0.0
 40
0.0207343534202091
 50
189.2655137495054021
 51
263.4741409825541041
  0
ARC
  5
10DBB
  8
0
 10
681.3143687609250492
 20
136.4829346654915128
 30
0.0
 40
0.6515016602095965
 50
262.0664794918070015
 51
269.5482511219601065
  0
ARC
  5
10DBC
  8
0
 10
681.3074415822895844
 20
135.8513422083698003
 30
0.0
 40
0.0199693815978921
 50
275.1440728016950175
 51
350.3454081012495749
  0
LINE
  5
10DBD
  8
0
 10
681.3271281313626559
 20
135.8479931806016907
 30
0.0
 11
681.3309223469842664
 21
135.870763439124886
 31
0.0
  0
ARC
  5
10DBE
  8
0
 10
681.1993203750784005
 20
135.6582827222161995
 30
0.0
 40
0.2499342594915323
 50
58.2275988205332524
 51
88.5120415530600724
  0
ARC
  5
10DBF
  8
0
 10
681.2857692485450798
 20
136.0948162025838997
 30
0.0
 40
0.2615138050592552
 50
261.176105208083527
 51
269.8099041328317185
  0
ARC
  5
10DC0
  8
0
 10
681.2449215503057758
 20
135.5766058829148051
 30
0.0
 40
0.2597926941500511
 50
81.1474512286696239
 51
89.8385581137000742
  0
LINE
  5
10DC1
  8
0
 10
681.1945317471069075
 20
135.8100359720490928
 30
0.0
 11
681.4624454005019061
 21
135.8100359720490928
 31
0.0
  0
LINE
  5
10DC2
  8
0
 10
681.5970950689987831
 20
135.8100359720490928
 30
0.0
 11
681.6342806496954836
 21
135.8100359720490928
 31
0.0
  0
LINE
  5
10DC3
  8
0
 10
681.7586022211163481
 20
135.8100359720490928
 30
0.0
 11
681.9379433644736537
 21
135.8100359720490928
 31
0.0
  0
LINE
  5
10DC4
  8
0
 10
682.2978463775941691
 20
135.8100359720490928
 30
0.0
 11
682.7274023668326208
 21
135.8100359720490928
 31
0.0
  0
LINE
  5
10DC5
  8
0
 10
681.9685920705451281
 20
137.2880905789783128
 30
0.0
 11
683.6122303210868267
 21
137.2880905789783128
 31
0.0
  0
ARC
  5
10DC6
  8
0
 10
696.8447791187290932
 20
73.9425462986427249
 30
0.0
 40
12.6141183215753596
 50
86.5254691017238855
 51
88.5003473182483873
  0
ARC
  5
10DC7
  8
0
 10
697.1755090721479746
 20
86.5715764378988268
 30
0.0
 40
0.0192419445797379
 50
178.7362900086137074
 51
268.1914655763932842
  0
LINE
  5
10DC8
  8
0
 10
697.1562718076230567
 20
86.5720008018987954
 30
0.0
 11
697.1562718078944272
 21
87.539162855098823
 31
0.0
  0
ARC
  5
10DC9
  8
0
 10
698.8661206253483442
 20
88.1021897953156383
 30
0.0
 40
1.3886930160504261
 50
157.1465028386984102
 51
203.9184880702850933
  0
ARC
  5
10DCA
  8
0
 10
697.8109964714506077
 20
87.6743515090776668
 30
0.0
 40
0.3669156135857265
 50
201.6230730444601136
 51
266.7001176463887191
  0
ARC
  5
10DCB
  8
0
 10
698.3966868261652507
 20
79.7092313358003253
 30
0.0
 40
7.6230031626768913
 50
85.3431864734611736
 51
94.5657225738021339
  0
ARC
  5
10DCC
  8
0
 10
698.7077036185786483
 20
87.5344767523735072
 30
0.0
 40
0.3827535684016714
 50
277.5817554349226839
 51
323.5490949783052201
  0
LINE
  5
10DCD
  8
0
 10
698.8762521718231255
 20
87.317134745901285
 30
0.0
 11
698.8762521718231255
 21
87.2360132978988219
 31
0.0
  0
LINE
  5
10DCE
  8
0
 10
698.8762521718231255
 20
87.2360132978988219
 30
0.0
 11
698.8565671326231268
 21
87.2163282585988355
 31
0.0
  0
LINE
  5
10DCF
  8
0
 10
698.8565671326231268
 20
87.2163282585988355
 30
0.0
 11
697.9510552229230598
 21
87.2163282585988355
 31
0.0
  0
LINE
  5
10DD0
  8
0
 10
698.8762521718231255
 20
87.2360132978988219
 30
0.0
 11
697.9313701837231747
 21
87.2360132978988219
 31
0.0
  0
LINE
  5
10DD1
  8
0
 10
698.7581418864230045
 20
87.1257770774988103
 30
0.0
 11
698.7581418864230045
 21
87.2163282585988355
 31
0.0
  0
LINE
  5
10DD2
  8
0
 10
697.9313701837231747
 20
87.317134745901285
 30
0.0
 11
697.9313701837231747
 21
87.2360132978988219
 31
0.0
  0
LINE
  5
10DD3
  8
0
 10
697.9313701837231747
 20
87.2360132978988219
 30
0.0
 11
697.9510552229230598
 21
87.2163282585988355
 31
0.0
  0
LINE
  5
10DD4
  8
0
 10
698.049480469123182
 20
87.1257770774988103
 30
0.0
 11
698.049480469123182
 21
87.2163282585988355
 31
0.0
  0
ARC
  5
10DD5
  8
0
 10
698.0999187369675383
 20
87.5344767523735072
 30
0.0
 40
0.3827535684016714
 50
216.2494884688352101
 51
262.4182445650772024
  0
LINE
  5
10DD7
  8
0
 10
699.6526322374369329
 20
88.7034952649351141
 30
0.0
 11
700.1250720443557611
 21
88.7034354183806641
 31
0.0
  0
LINE
  5
10DD8
  8
0
 10
699.6526324446367653
 20
87.8632583993791343
 30
0.0
 11
699.6526323504706397
 21
87.6806311628351267
 31
0.0
  0
ARC
  5
10DD9
  8
0
 10
699.7855179348011916
 20
87.5710294336359425
 30
0.0
 40
0.1722530626053895
 50
140.4847781580467938
 51
219.5151627520338877
  0
LINE
  5
10DDA
  8
0
 10
699.6526322374369329
 20
87.4614278414351247
 30
0.0
 11
699.6526311116368788
 21
87.4525405673351344
 31
0.0
  0
LINE
  5
10DDB
  8
0
 10
700.1250717995301329
 20
87.863258384035106
 30
0.0
 11
700.1250720394014024
 21
87.6806310409869525
 31
0.0
  0
ARC
  5
10DDC
  8
0
 10
699.9921862784409541
 20
87.5710294336359141
 30
0.0
 40
0.1722531213377178
 50
320.4848533607834042
 51
39.5151531923522228
  0
LINE
  5
10DDD
  8
0
 10
700.1250720519369679
 20
87.4614278414351247
 30
0.0
 11
700.1250731777369083
 21
87.4525405673351344
 31
0.0
  0
LINE
  5
10DDE
  8
0
 10
699.6526323504706397
 20
87.6806311628835147
 30
0.0
 11
700.1250720394014024
 21
87.6806310410353689
 31
0.0
  0
LINE
  5
10DDF
  8
0
 10
699.6526324446367653
 20
87.8632583993791343
 30
0.0
 11
700.1250717995301329
 21
87.863258384035106
 31
0.0
  0
LINE
  5
10DE0
  8
0
 10
699.6526322374369329
 20
87.4614278414351105
 30
0.0
 11
700.1250720443557611
 21
87.4614876879895604
 31
0.0
  0
ENDSEC
  0
EOF
