  0
SECTION
  2
HEADER
  9
$ACADVER
  1
AC1009
  9
$INSBASE
 10
4128.0483434832704006
 20
130.2843426094765107
 30
0.0
  9
$EXTMIN
 10
4124.127851750672562
 20
129.1324325894476033
 30
-0.0015258207003583
  9
$EXTMAX
 10
4132.3058972193230147
 20
131.4441587656471881
 30
0.0000000349246037
  9
$LIMMIN
 10
0.0
 20
0.0
  9
$LIMMAX
 10
11.6929133858000007
 20
8.2677165353999982
  9
$ORTHOMODE
 70
     0
  9
$REGENMODE
 70
     1
  9
$FILLMODE
 70
     1
  9
$QTEXTMODE
 70
     0
  9
$MIRRTEXT
 70
     0
  9
$DRAGMODE
 70
     2
  9
$LTSCALE
 40
0.6431102362
  9
$OSMODE
 70
  4095
  9
$ATTMODE
 70
     1
  9
$TEXTSIZE
 40
0.2
  9
$TRACEWID
 40
0.05
  9
$TEXTSTYLE
  7
STANDARD
  9
$CLAYER
  8
0
  9
$CELTYPE
  6
BYLAYER
  9
$CECOLOR
 62
   256
  9
$DIMSCALE
 40
1.0
  9
$DIMASZ
 40
0.1875
  9
$DIMEXO
 40
0.0625
  9
$DIMDLI
 40
0.4443307087
  9
$DIMRND
 40
0.0
  9
$DIMDLE
 40
0.0
  9
$DIMEXE
 40
0.125
  9
$DIMTP
 40
0.01
  9
$DIMTM
 40
0.01
  9
$DIMTXT
 40
2.0
  9
$DIMCEN
 40
0.1052362205
  9
$DIMTSZ
 40
0.0
  9
$DIMTOL
 70
     1
  9
$DIMLIM
 70
     0
  9
$DIMTIH
 70
     1
  9
$DIMTOH
 70
     1
  9
$DIMSE1
 70
     0
  9
$DIMSE2
 70
     0
  9
$DIMTAD
 70
     0
  9
$DIMZIN
 70
     0
  9
$DIMBLK
  1

  9
$DIMASO
 70
     1
  9
$DIMSHO
 70
     1
  9
$DIMPOST
  1
\X
  9
$DIMAPOST
  1

  9
$DIMALT
 70
     1
  9
$DIMALTD
 70
     2
  9
$DIMALTF
 40
25.3999999999999986
  9
$DIMLFAC
 40
1.0
  9
$DIMTOFL
 70
     0
  9
$DIMTVP
 40
0.0
  9
$DIMTIX
 70
     0
  9
$DIMSOXD
 70
     0
  9
$DIMSAH
 70
     0
  9
$DIMBLK1
  1

  9
$DIMBLK2
  1

  9
$DIMSTYLE
  2
STANDARD
  9
$DIMCLRD
 70
     0
  9
$DIMCLRE
 70
     0
  9
$DIMCLRT
 70
     0
  9
$DIMTFAC
 40
1.0
  9
$DIMGAP
 40
0.09
  9
$LUNITS
 70
     2
  9
$LUPREC
 70
     4
  9
$SKETCHINC
 40
0.1
  9
$FILLETRAD
 40
0.0
  9
$AUNITS
 70
     0
  9
$AUPREC
 70
     0
  9
$MENU
  1
.
  9
$ELEVATION
 40
0.0
  9
$PELEVATION
 40
0.0
  9
$THICKNESS
 40
0.0
  9
$LIMCHECK
 70
     0
  9
$BLIPMODE
 70
     0
  9
$CHAMFERA
 40
0.0
  9
$CHAMFERB
 40
0.0
  9
$SKPOLY
 70
     0
  9
$TDCREATE
 40
2458060.468368056230247
  9
$TDUPDATE
 40
2459369.6822453709319234
  9
$TDINDWG
 40
0.3699144676
  9
$TDUSRTIMER
 40
0.3699144676
  9
$USRTIMER
 70
     1
  9
$ANGBASE
 50
0.0
  9
$ANGDIR
 70
     0
  9
$PDMODE
 70
     0
  9
$PDSIZE
 40
0.3125
  9
$PLINEWID
 40
0.0
  9
$COORDS
 70
     1
  9
$SPLFRAME
 70
     0
  9
$SPLINETYPE
 70
     6
  9
$SPLINESEGS
 70
     8
  9
$ATTDIA
 70
     1
  9
$ATTREQ
 70
     1
  9
$HANDLING
 70
     1
  9
$HANDSEED
  5
7F8B
  9
$SURFTAB1
 70
     6
  9
$SURFTAB2
 70
     6
  9
$SURFTYPE
 70
     6
  9
$SURFU
 70
     6
  9
$SURFV
 70
     6
  9
$UCSNAME
  2

  9
$UCSORG
 10
0.0
 20
0.0
 30
0.0
  9
$UCSXDIR
 10
1.0
 20
0.0
 30
0.0
  9
$UCSYDIR
 10
0.0
 20
1.0
 30
0.0
  9
$PUCSNAME
  2

  9
$PUCSORG
 10
0.0
 20
0.0
 30
0.0
  9
$PUCSXDIR
 10
1.0
 20
0.0
 30
0.0
  9
$PUCSYDIR
 10
0.0
 20
1.0
 30
0.0
  9
$USERI1
 70
     0
  9
$USERI2
 70
     0
  9
$USERI3
 70
     0
  9
$USERI4
 70
     0
  9
$USERI5
 70
     0
  9
$USERR1
 40
0.0
  9
$USERR2
 40
0.0
  9
$USERR3
 40
0.0
  9
$USERR4
 40
0.0
  9
$USERR5
 40
0.0
  9
$WORLDVIEW
 70
     1
  9
$SHADEDGE
 70
     3
  9
$SHADEDIF
 70
    70
  9
$TILEMODE
 70
     1
  9
$MAXACTVP
 70
    64
  9
$PLIMCHECK
 70
     0
  9
$PEXTMIN
 10
1.0000000000000000E+20
 20
1.0000000000000000E+20
 30
1.0000000000000000E+20
  9
$PEXTMAX
 10
-1.0000000000000000E+20
 20
-1.0000000000000000E+20
 30
-1.0000000000000000E+20
  9
$PLIMMIN
 10
0.0
 20
0.0
  9
$PLIMMAX
 10
12.0
 20
9.0
  9
$UNITMODE
 70
     0
  9
$VISRETAIN
 70
     1
  9
$PLINEGEN
 70
     0
  9
$PSLTSCALE
 70
     1
  0
ENDSEC
  0
SECTION
  2
TABLES
  0
TABLE
  2
VPORT
 70
     1
  0
VPORT
  2
*ACTIVE
 70
     0
 10
0.0
 20
0.0
 11
1.0
 21
1.0
 12
99.4300092506227742
 22
-5.5860634533119651
 13
0.0
 23
0.0
 14
1.0
 24
1.0
 15
0.0
 25
0.0
 16
0.0
 26
0.0
 36
47.0568789906323275
 17
4028.786865234375
 27
135.8743591308592897
 37
0.0
 40
3.7813394305274728
 41
2.17063492063492
 42
50.0
 43
0.0
 44
0.0
 50
0.0
 51
0.0
 71
     0
 72
   100
 73
     1
 74
     1
 75
     0
 76
     0
 77
     0
 78
     0
  0
ENDTAB
  0
TABLE
  2
LTYPE
 70
     2
  0
LTYPE
  2
CONTINUOUS
 70
     0
  3
Solid line
 72
    65
 73
     0
 40
0.0
  0
LTYPE
  2
PHANTOM2
 70
     0
  3
___ _ _ ___ _ _ ___ _ _ ___ _ _
 72
    65
 73
     6
 40
1.25
 49
0.625
 49
-0.125
 49
0.125
 49
-0.125
 49
0.125
 49
-0.125
  0
ENDTAB
  0
TABLE
  2
LAYER
 70
     2
  0
LAYER
  2
0
 70
     0
 62
   255
  6
CONTINUOUS
  0
LAYER
  2
DEFPOINTS
 70
     0
 62
     7
  6
CONTINUOUS
  0
ENDTAB
  0
TABLE
  2
STYLE
 70
     1
  0
STYLE
  2
STANDARD
 70
     0
 40
0.0
 41
0.8
 50
0.0
 71
     0
 42
0.2
  3
txt
  4

  0
ENDTAB
  0
TABLE
  2
VIEW
 70
     0
  0
ENDTAB
  0
TABLE
  2
UCS
 70
     0
  0
ENDTAB
  0
TABLE
  2
APPID
 70
     9
  0
APPID
  2
ACAD
 70
     0
  0
APPID
  2
ACAD_MLEADERVER
 70
     0
  0
APPID
  2
ACAD_EXEMPT_FROM_CAD_STANDARDS
 70
     0
  0
APPID
  2
ACAD_NAV_VCDISPLAY
 70
     0
  0
APPID
  2
ACAECLAYERSTANDARD
 70
     0
  0
APPID
  2
ACCMTRANSPARENCY
 70
     0
  0
APPID
  2
ACAD_DSTYLE_DIMJAG
 70
     0
  0
APPID
  2
ACAD_DSTYLE_DIMTALN
 70
     0
  0
APPID
  2
ACDBATTR
 70
     0
  0
ENDTAB
  0
TABLE
  2
DIMSTYLE
 70
     1
  0
DIMSTYLE
  2
STANDARD
 70
     0
  3

  4

  5

  6

  7

 40
1.0
 41
0.1875
 42
0.0625
 43
0.38
 44
0.125
 45
0.0
 46
0.0
 47
0.01
 48
0.01
140
0.15625
141
0.09
142
0.0
143
25.3999999999999986
144
1.0
145
0.0
146
1.0
147
0.09
 71
     1
 72
     0
 73
     1
 74
     1
 75
     0
 76
     0
 77
     0
 78
     4
170
     0
171
     2
172
     0
173
     0
174
     0
175
     0
176
     0
177
     0
178
     0
  0
ENDTAB
  0
ENDSEC
  0
SECTION
  2
BLOCKS
  0
BLOCK
  8
0
  2
$MODEL_SPACE
 70
     0
 10
0.0
 20
0.0
 30
0.0
  3
$MODEL_SPACE
  1

  0
ENDBLK
  5
21
  8
0
  0
BLOCK
 67
     1
  8
0
  2
$PAPER_SPACE
 70
     0
 10
0.0
 20
0.0
 30
0.0
  3
$PAPER_SPACE
  1

  0
ENDBLK
  5
1D
 67
     1
  8
0
  0
ENDSEC
  0
SECTION
  2
ENTITIES
  0
ATTDEF
  5
7608
  8
DEFPOINTS
 10
4128.052069279288844
 20
130.2851253149993909
 30
0.0
 40
0.001
  1
K-72709T
  3

  2
MODELNUMBER
 70
     0
1001
ACDBATTR
1070
     0
1070
     1
  0
ATTDEF
  5
7609
  8
DEFPOINTS
 10
4128.052069279288844
 20
130.2834586483326973
 30
0.0
 40
0.001
  1
REVIVAL
  3

  2
TRADENAME
 70
     0
1001
ACDBATTR
1070
     0
1070
     1
  0
ATTDEF
  5
760A
  8
DEFPOINTS
 10
4128.052069279288844
 20
130.2817919816660037
 30
0.0
 40
0.001
  1
TOWEL BAR
  3

  2
PRODUCT
 70
     0
1001
ACDBATTR
1070
     0
1070
     1
  0
ARC
  5
7EA0
  8
0
 10
4124.6743186425028398
 20
132.237489938428098
 30
0.0
 40
1.749999998223235
 50
284.1502462439636929
 51
297.0746762779729124
  0
ARC
  5
7EA1
  8
0
 10
4125.5089734045723162
 20
130.6943426095265011
 30
0.0
 40
0.0300000000000011
 50
20.6460830112924292
 51
180.0
  0
LINE
  5
7EA2
  8
0
 10
4125.4789734045707519
 20
130.6943426095265011
 30
0.0
 11
4125.4789734045707519
 21
129.8743426095265079
 31
0.0
  0
LINE
  5
7EA3
  8
0
 10
4125.5370466919712271
 20
130.7049204417504029
 30
0.0
 11
4125.5370466919712271
 21
129.8637647773024923
 31
0.0
  0
ARC
  5
7EA4
  8
0
 10
4124.6743186425028398
 20
128.3311952805248097
 30
0.0
 40
1.749999998223235
 50
62.9253237220271515
 51
75.8497537581858268
  0
ARC
  5
7EA5
  8
0
 10
4125.4640358261876827
 20
129.8760830108143125
 30
0.0
 40
0.0149693663111951
 50
3.5006175517858691
 51
62.9921676049446901
  0
ARC
  5
7EA6
  8
0
 10
4125.5089734045723162
 20
129.8743426095265079
 30
0.0
 40
0.0300000000000011
 50
180.0
 51
339.3539169886017248
  0
ARC
  5
7EA7
  8
0
 10
4125.5510833356711373
 20
130.7102093578263862
 30
0.0
 40
0.0150000000000014
 50
200.6460829685456986
 51
274.0440930147271956
  0
ARC
  5
7EA8
  8
0
 10
4125.3229377196657879
 20
133.9371544441088986
 30
0.0
 40
3.2500000018523618
 50
274.0440930396981116
 51
298.6699538570809978
  0
LINE
  5
7EA9
  8
0
 10
4126.8896394608718765
 20
131.095629082791703
 30
0.0
 11
4126.8896394608718765
 21
129.4730561361903938
 31
0.0
  0
LINE
  5
7EAA
  8
0
 10
4126.9353856225716299
 20
131.1144551382784869
 30
0.0
 11
4126.9353856225716299
 21
129.4542300807744084
 31
0.0
  0
LINE
  5
7EAB
  8
0
 10
4127.472153700272429
 20
131.1177852083492041
 30
0.0
 11
4127.472153700272429
 21
129.4509000107725001
 31
0.0
  0
LINE
  5
7EAC
  8
0
 10
4127.5272171795713803
 20
131.1144564205663983
 30
0.0
 11
4127.5272171795713803
 21
129.4542287984866107
 31
0.0
  0
ARC
  5
7EAD
  8
0
 10
4126.9189734045712612
 20
131.0893426095265113
 30
0.0
 40
0.030000000000001
 50
56.8334967693026769
 51
167.9040696740306942
  0
ARC
  5
7EAE
  8
0
 10
4127.0998735005714479
 20
130.9943426095263987
 30
0.0
 40
0.1900000000000004
 50
86.9221858176166506
 51
139.6718172340721935
  0
ARC
  5
7EAF
  8
0
 10
4126.9435917314713151
 20
131.1270114026264082
 30
0.0
 40
0.0149999999999985
 50
236.8334972256106141
 51
319.6718172496168222
  0
ARC
  5
7EB0
  8
0
 10
4126.8749724889712525
 20
131.0987723192264127
 30
0.0
 40
0.0149999999999995
 50
298.669953919974887
 51
347.9040700660218022
  0
ARC
  5
7EB1
  8
0
 10
4127.0499407068446089
 20
130.0656840489430124
 30
0.0
 40
1.120000003244179
 50
68.8887614314149346
 51
86.9222327064813669
  0
ARC
  5
7EB2
  8
0
 10
4127.4989734045711884
 20
131.1043426095264977
 30
0.0
 40
0.0300000000000003
 50
19.7019338420485006
 51
153.3790100792859903
  0
ARC
  5
7EB3
  8
0
 10
4127.5413390670710214
 20
131.1195133259265049
 30
0.0
 40
0.0149999999999996
 50
199.7019338420485042
 51
271.7613147414912191
  0
ARC
  5
7EB4
  8
0
 10
4125.4638764894943961
 20
130.692757151821894
 30
0.0
 40
0.0151799381086369
 50
297.2780768791428159
 51
5.9951501011615989
  0
ARC
  5
7EB5
  8
0
 10
4127.458743848071208
 20
131.1245065076265064
 30
0.0
 40
0.0149999999999986
 50
248.8925815835621052
 51
333.379010505546205
  0
ARC
  5
7EB6
  8
0
 10
4127.5301204641709774
 20
131.4843408782263907
 30
0.0
 40
0.3799999999999994
 50
271.7613146509850139
 51
340.7953789363197075
  0
ARC
  5
7EB7
  8
0
 10
4127.9489734045710065
 20
131.3743426095263942
 30
0.0
 40
0.0599999999999987
 50
0.0
 51
180.0
  0
LINE
  5
7EB8
  8
0
 10
4127.8889734045706064
 20
131.3743426095263942
 30
0.0
 11
4127.8889734045706064
 21
129.1943426095263874
 31
0.0
  0
LINE
  5
7EB9
  8
0
 10
4128.0089734045714067
 20
131.3743426095263942
 30
0.0
 11
4128.0089734045714067
 21
129.1943426095263874
 31
0.0
  0
LINE
  5
7EBA
  8
0
 10
4128.0483434832704006
 20
131.367019774928707
 30
0.0
 11
4128.0483434832704006
 21
129.2016654442286949
 31
0.0
  0
LINE
  5
7EBB
  8
0
 10
4128.0483434832704006
 20
131.3670197748263888
 30
0.0
 11
4128.0089734045714067
 21
131.3670197748263888
 31
0.0
  0
ARC
  5
7EBC
  8
0
 10
4125.3229377196657879
 20
126.6315307748439949
 30
0.0
 40
3.2500000018523618
 50
61.3300461429185901
 51
85.955906960301931
  0
ARC
  5
7EBD
  8
0
 10
4126.9189734045712612
 20
129.4793426094265101
 30
0.0
 40
0.030000000000001
 50
192.0959303259691922
 51
303.1665032306976855
  0
ARC
  5
7EBE
  8
0
 10
4127.0998735005714479
 20
129.5743426094265089
 30
0.0
 40
0.1900000000000004
 50
220.3281827659278065
 51
273.0778141823832925
  0
ARC
  5
7EBF
  8
0
 10
4126.9435917314713151
 20
129.4416738163263858
 30
0.0
 40
0.0149999999999985
 50
40.3281827503838315
 51
123.1665027743889027
  0
ARC
  5
7EC0
  8
0
 10
4126.8749724889712525
 20
129.4699128997264097
 30
0.0
 40
0.0149999999999995
 50
12.0959299339781694
 51
61.3300460800250988
  0
ARC
  5
7EC1
  8
0
 10
4127.0499407068446089
 20
130.5030011700098953
 30
0.0
 40
1.120000003244179
 50
273.0777672935186047
 51
291.1112385685850086
  0
ARC
  5
7EC2
  8
0
 10
4127.9489734045710065
 20
129.1943426094265135
 30
0.0
 40
0.0599999999999987
 50
180.0
 51
0.0
  0
LINE
  5
7EC3
  8
0
 10
4128.0483434832704006
 20
129.2016654441264052
 30
0.0
 11
4128.0089734045714067
 21
129.2016654441264052
 31
0.0
  0
ARC
  5
7EC4
  8
0
 10
4125.5510833356711373
 20
129.8584758611264078
 30
0.0
 40
0.0150000000000014
 50
85.9559069852727333
 51
159.3539170314543014
  0
ARC
  5
7EC5
  8
0
 10
4127.4989734045711884
 20
129.46434260942641
 30
0.0
 40
0.0300000000000003
 50
206.6209899207140097
 51
340.2980661579514958
  0
ARC
  5
7EC6
  8
0
 10
4127.5413390670710214
 20
129.4491718930264028
 30
0.0
 40
0.0149999999999996
 50
88.2386852585088661
 51
160.2980661579514958
  0
ARC
  5
7EC7
  8
0
 10
4127.458743848071208
 20
129.4441787113264866
 30
0.0
 40
0.0149999999999986
 50
26.6209894944531094
 51
111.1074184164381933
  0
ARC
  5
7EC8
  8
0
 10
4127.5301204641709774
 20
129.0843443407264033
 30
0.0
 40
0.3799999999999994
 50
19.2046210637067496
 51
88.2386853490149434
  0
ARC
  5
7EC9
  8
0
 10
4127.9489734045710065
 20
129.1943426094265135
 30
0.0
 40
0.0599999999999987
 50
180.0
 51
0.0
  0
CIRCLE
  5
7ECA
  8
0
 10
4124.7289734045707519
 20
130.2843426095265045
 30
0.0
 40
0.4399999999999995
  0
ARC
  5
7ECB
  8
0
 10
4125.0972438865674121
 20
130.0087036208277027
 30
0.0
 40
0.02
 50
75.8497537581858268
 51
143.1862893744819871
  0
ARC
  5
7ECC
  8
0
 10
4125.0972438866310767
 20
130.5599815981410075
 30
0.0
 40
0.02
 50
216.8137106124499951
 51
284.1502462439639203
  0
CIRCLE
  5
7ECD
  8
0
 10
4124.7289734045707519
 20
130.2843426094264885
 30
0.0
 40
0.3999999999999968
  0
CIRCLE
  5
7ECE
  8
0
 10
4124.7289734045707519
 20
130.2843426094264885
 30
0.0
 40
0.3400000000060022
  0
CIRCLE
  5
7ECF
  8
0
 10
4124.7289734045707519
 20
130.2843426094264032
 30
0.0
 40
0.3048263066000005
  0
ARC
  5
7ED0
  8
0
 10
4131.816069111438992
 20
132.237489938428098
 30
0.0
 40
1.749999998223235
 50
242.9253237220270876
 51
255.8497537560361934
  0
ARC
  5
7ED1
  8
0
 10
4130.9814177426906099
 20
130.6943366156222908
 30
0.0
 40
0.0300052891298048
 50
358.6216156387770866
 51
159.345491244003199
  0
LINE
  5
7ED2
  8
0
 10
4131.0114143493710799
 20
130.6936148376429969
 30
0.0
 11
4131.0114143493710799
 21
129.8743426095265079
 31
0.0
  0
LINE
  5
7ED3
  8
0
 10
4130.9533410619706046
 20
130.7049204417504029
 30
0.0
 11
4130.9533410619706046
 21
129.8637647773024923
 31
0.0
  0
ARC
  5
7ED4
  8
0
 10
4131.816069111438992
 20
128.3311952805248097
 30
0.0
 40
1.749999998223235
 50
104.1502462418142017
 51
117.0746762779727987
  0
ARC
  5
7ED5
  8
0
 10
4131.0263209606046075
 20
129.8761033109790901
 30
0.0
 40
0.0149372287264324
 50
116.9373636936803962
 51
176.3308823568993091
  0
ARC
  5
7ED6
  8
0
 10
4130.9814143493713345
 20
129.8743426095265079
 30
0.0
 40
0.0300000000000011
 50
200.6460830113983036
 51
0.0
  0
ARC
  5
7ED7
  8
0
 10
4130.9393044182716039
 20
130.7102093578263862
 30
0.0
 40
0.0150000000000014
 50
265.9559069852728044
 51
339.353917031454273
  0
ARC
  5
7ED8
  8
0
 10
4131.1674500342760439
 20
133.9371544441088986
 30
0.0
 40
3.2500000018523618
 50
241.3300461429190022
 51
265.9559069603018884
  0
LINE
  5
7ED9
  8
0
 10
4129.6007482930708647
 20
131.095629082791703
 30
0.0
 11
4129.6007482930708647
 21
129.4730561361903938
 31
0.0
  0
LINE
  5
7EDA
  8
0
 10
4129.5550021313711113
 20
131.1144551382784869
 30
0.0
 11
4129.5550021313711113
 21
129.4542300807744084
 31
0.0
  0
LINE
  5
7EDB
  8
0
 10
4129.0182340536703123
 20
131.1177852083492041
 30
0.0
 11
4129.0182340536703123
 21
129.4509000107725001
 31
0.0
  0
LINE
  5
7EDC
  8
0
 10
4128.9631705743722705
 20
131.1144564205663983
 30
0.0
 11
4128.9631705743722705
 21
129.4542287984866107
 31
0.0
  0
ARC
  5
7EDD
  8
0
 10
4129.5714143493723896
 20
131.0893426095265113
 30
0.0
 40
0.030000000000001
 50
12.0959303259692703
 51
123.1665032306973018
  0
ARC
  5
7EDE
  8
0
 10
4129.3905142533722028
 20
130.9943426095263987
 30
0.0
 40
0.1900000000000004
 50
40.328182765927771
 51
93.0778141823833352
  0
ARC
  5
7EDF
  8
0
 10
4129.5467960224714261
 20
131.1270114026264082
 30
0.0
 40
0.0149999999999985
 50
220.3281827503832062
 51
303.1665027743894143
  0
ARC
  5
7EE0
  8
0
 10
4129.6154152649705793
 20
131.0987723192264127
 30
0.0
 40
0.0149999999999995
 50
192.0959299339781126
 51
241.330046080025113
  0
ARC
  5
7EE1
  8
0
 10
4129.4404470470972228
 20
130.0656840489430124
 30
0.0
 40
1.120000003244179
 50
93.0777672935186189
 51
111.1112385685850938
  0
ARC
  5
7EE2
  8
0
 10
4128.9914143493706433
 20
131.1043426095264977
 30
0.0
 40
0.0300000000000003
 50
26.6209899207139493
 51
160.2980661579514958
  0
ARC
  5
7EE3
  8
0
 10
4128.9490486868708103
 20
131.1195133259265049
 30
0.0
 40
0.0149999999999996
 50
268.2386852585087809
 51
340.2980661579514958
  0
ARC
  5
7EE4
  8
0
 10
4131.0263814255713442
 20
130.6926215451264
 30
0.0
 40
0.0150000000000001
 50
176.2031237120567084
 51
242.925323577656286
  0
ARC
  5
7EE5
  8
0
 10
4129.0316439058706237
 20
131.1245065076265064
 30
0.0
 40
0.0149999999999986
 50
206.6209894944531129
 51
291.1074184164378948
  0
ARC
  5
7EE6
  8
0
 10
4128.9602672897717639
 20
131.4843408782263907
 30
0.0
 40
0.3799999999999994
 50
199.2046210637066963
 51
224.9369684504590907
  0
ARC
  5
7EE7
  8
0
 10
4128.9602672897717639
 20
131.4843408782263907
 30
0.0
 40
0.3799999999999994
 50
237.1745333798907041
 51
268.2386853490148724
  0
ARC
  5
7EE8
  8
0
 10
4128.5414143493708252
 20
131.3743426095263942
 30
0.0
 40
0.0599999999999987
 50
0.0
 51
180.0
  0
LINE
  5
7EE9
  8
0
 10
4128.6014143493712254
 20
131.3743426095263942
 30
0.0
 11
4128.6014143493712254
 21
129.1943426095263874
 31
0.0
  0
LINE
  5
7EEA
  8
0
 10
4128.4814143493713345
 20
131.3743426095263942
 30
0.0
 11
4128.4814143493713345
 21
129.1943426095263874
 31
0.0
  0
LINE
  5
7EEB
  8
0
 10
4128.4420442706723406
 20
131.3670197748263888
 30
0.0
 11
4128.4420442706723406
 21
129.2016654441264052
 31
0.0
  0
LINE
  5
7EEC
  8
0
 10
4128.4420442706723406
 20
131.3670197748263888
 30
0.0
 11
4128.4814143493713345
 21
131.3670197748263888
 31
0.0
  0
ARC
  5
7EED
  8
0
 10
4131.1674500342760439
 20
126.6315307748439949
 30
0.0
 40
3.2500000018523618
 50
94.0440930396980832
 51
118.6699538570805998
  0
ARC
  5
7EEE
  8
0
 10
4129.5714143493723896
 20
129.4793426094265101
 30
0.0
 40
0.030000000000001
 50
236.8334967693022008
 51
347.9040696740299268
  0
ARC
  5
7EEF
  8
0
 10
4129.3905142533722028
 20
129.5743426094265089
 30
0.0
 40
0.1900000000000004
 50
266.9221858176165938
 51
319.6718172340723072
  0
ARC
  5
7EF0
  8
0
 10
4129.5467960224714261
 20
129.4416738163263858
 30
0.0
 40
0.0149999999999985
 50
56.8334972256110404
 51
139.6718172496161117
  0
ARC
  5
7EF1
  8
0
 10
4129.6154152649705793
 20
129.4699128997264097
 30
0.0
 40
0.0149999999999995
 50
118.6699539199749012
 51
167.9040700660218022
  0
ARC
  5
7EF2
  8
0
 10
4129.4404470468389263
 20
130.5030011680576081
 30
0.0
 40
1.1200000012807321
 50
248.8888118950530099
 51
266.9222327144136102
  0
LINE
  5
7EF3
  8
0
 10
4128.4420442706723406
 20
129.2016654441264052
 30
0.0
 11
4128.4814143493713345
 21
129.2016654441264052
 31
0.0
  0
ARC
  5
7EF4
  8
0
 10
4130.9393044182716039
 20
129.8584758611264078
 30
0.0
 40
0.0150000000000014
 50
20.6460829685456702
 51
94.0440930147272667
  0
ARC
  5
7EF5
  8
0
 10
4128.9914143493706433
 20
129.46434260942641
 30
0.0
 40
0.0300000000000003
 50
199.7019338420485042
 51
333.379010079286104
  0
ARC
  5
7EF6
  8
0
 10
4128.9490486868708103
 20
129.4491718930264028
 30
0.0
 40
0.0149999999999996
 50
19.7019338420485006
 51
91.7613147414911339
  0
ARC
  5
7EF7
  8
0
 10
4129.0316439058933611
 20
129.4441787113026123
 30
0.0
 40
0.0150000000300872
 50
68.8888119832498944
 51
153.3790104611294112
  0
ARC
  5
7EF8
  8
0
 10
4128.9602672897717639
 20
129.0843443407264033
 30
0.0
 40
0.3799999999999994
 50
91.7613146509850708
 51
122.825466617388102
  0
ARC
  5
7EF9
  8
0
 10
4128.5414143493708252
 20
129.1927957154676108
 30
0.0
 40
0.0600199373618477
 50
178.5231522369996924
 51
1.476847763001059
  0
ARC
  5
7EFA
  8
0
 10
4131.7614143493710799
 20
130.2843426095265045
 30
0.0
 40
0.4399999999999995
 50
216.8137106255186097
 51
143.1862893875525913
  0
ARC
  5
7EFB
  8
0
 10
4131.3931438673762386
 20
130.0087036208277027
 30
0.0
 40
0.02
 50
36.8137106255179702
 51
104.1502462418142017
  0
ARC
  5
7EFC
  8
0
 10
4131.393143867312574
 20
130.5599815981410075
 30
0.0
 40
0.02
 50
255.8497537560361081
 51
323.1862893875500049
  0
LINE
  5
7EFD
  8
0
 10
4131.4091556274033792
 20
130.5479972942881943
 30
0.0
 11
4131.4091556274033792
 21
130.0206879247645873
 31
0.0
  0
LINE
  5
7EFE
  8
0
 10
4128.7570049005707915
 20
129.4214187462432903
 30
0.0
 11
4128.7570049005707915
 21
131.1472664726724133
 31
0.0
  0
ARC
  5
7EFF
  8
0
 10
4128.7865324595059064
 20
129.1918229245206078
 30
0.0
 40
0.1870078738183085
 50
111.1073640330458971
 51
171.8477435260934953
  0
ARC
  5
7F00
  8
0
 10
4128.7865324596714345
 20
131.3768622945264042
 30
0.0
 40
0.1870078739999777
 50
188.1522565069747941
 51
248.8926359422088126
  0
ARC
  5
7F01
  8
0
 10
4128.6979049005722118
 20
129.4214187462432903
 30
0.0
 40
0.0591
 50
291.1073640329917112
 51
0.0000000000089564
  0
ARC
  5
7F02
  8
0
 10
4128.6979049005722118
 20
131.1472664726724133
 30
0.0
 40
0.0591
 50
0.0000000000724658
 51
68.8926359419900507
  0
ARC
  5
7F03
  8
0
 10
4128.9602672897717639
 20
129.0843443407264033
 30
0.0
 40
0.3800000000000793
 50
135.0630315597124991
 51
160.7953789363342025
  0
LINE
  5
7F04
  8
0
 10
4128.0483434832704006
 20
130.9801910602263888
 30
0.0
 11
4128.4420442706723406
 21
130.9733189874264951
 31
0.0
  0
LINE
  5
7F05
  8
0
 10
4128.0483434832704006
 20
129.5884941587264052
 30
0.0
 11
4128.4420442706723406
 21
129.5953662315264125
 31
0.0
  0
ENDSEC
  0
EOF
