  0
SECTION
  2
HEADER
  9
$ACADVER
  1
AC1009
  9
$INSBASE
 10
4259.2344411171261527
 20
355.3968932306689226
 30
0.0
  9
$EXTMIN
 10
4256.1314979778262568
 20
341.9126412621689042
 30
0.0
  9
$EXTMAX
 10
4259.2459142894840625
 20
368.8811451991689978
 30
0.0
  9
$LIMMIN
 10
0.0
 20
0.0
  9
$LIMMAX
 10
11.6929133858000007
 20
8.2677165353999982
  9
$ORTHOMODE
 70
     0
  9
$REGENMODE
 70
     1
  9
$FILLMODE
 70
     1
  9
$QTEXTMODE
 70
     0
  9
$MIRRTEXT
 70
     0
  9
$DRAGMODE
 70
     2
  9
$LTSCALE
 40
0.6431102362
  9
$OSMODE
 70
     3
  9
$ATTMODE
 70
     1
  9
$TEXTSIZE
 40
0.2
  9
$TRACEWID
 40
0.05
  9
$TEXTSTYLE
  7
STANDARD
  9
$CLAYER
  8
0
  9
$CELTYPE
  6
BYLAYER
  9
$CECOLOR
 62
   256
  9
$DIMSCALE
 40
1.0
  9
$DIMASZ
 40
0.1875
  9
$DIMEXO
 40
0.0625
  9
$DIMDLI
 40
0.4443307087
  9
$DIMRND
 40
0.0
  9
$DIMDLE
 40
0.0
  9
$DIMEXE
 40
0.125
  9
$DIMTP
 40
0.01
  9
$DIMTM
 40
0.01
  9
$DIMTXT
 40
2.0
  9
$DIMCEN
 40
0.1052362205
  9
$DIMTSZ
 40
0.0
  9
$DIMTOL
 70
     1
  9
$DIMLIM
 70
     0
  9
$DIMTIH
 70
     1
  9
$DIMTOH
 70
     1
  9
$DIMSE1
 70
     0
  9
$DIMSE2
 70
     0
  9
$DIMTAD
 70
     0
  9
$DIMZIN
 70
     0
  9
$DIMBLK
  1

  9
$DIMASO
 70
     1
  9
$DIMSHO
 70
     1
  9
$DIMPOST
  1
\X
  9
$DIMAPOST
  1

  9
$DIMALT
 70
     1
  9
$DIMALTD
 70
     2
  9
$DIMALTF
 40
25.3999999999999986
  9
$DIMLFAC
 40
1.0
  9
$DIMTOFL
 70
     0
  9
$DIMTVP
 40
0.0
  9
$DIMTIX
 70
     0
  9
$DIMSOXD
 70
     0
  9
$DIMSAH
 70
     0
  9
$DIMBLK1
  1

  9
$DIMBLK2
  1

  9
$DIMSTYLE
  2
STANDARD
  9
$DIMCLRD
 70
     0
  9
$DIMCLRE
 70
     0
  9
$DIMCLRT
 70
     0
  9
$DIMTFAC
 40
1.0
  9
$DIMGAP
 40
0.09
  9
$LUNITS
 70
     2
  9
$LUPREC
 70
     4
  9
$SKETCHINC
 40
0.1
  9
$FILLETRAD
 40
0.0
  9
$AUNITS
 70
     0
  9
$AUPREC
 70
     0
  9
$MENU
  1
.
  9
$ELEVATION
 40
0.0
  9
$PELEVATION
 40
0.0
  9
$THICKNESS
 40
0.0
  9
$LIMCHECK
 70
     0
  9
$BLIPMODE
 70
     0
  9
$CHAMFERA
 40
0.0
  9
$CHAMFERB
 40
0.0
  9
$SKPOLY
 70
     0
  9
$TDCREATE
 40
2458060.468368056230247
  9
$TDUPDATE
 40
2459151.4667476858012378
  9
$TDINDWG
 40
0.4602616898
  9
$TDUSRTIMER
 40
0.4602616898
  9
$USRTIMER
 70
     1
  9
$ANGBASE
 50
0.0
  9
$ANGDIR
 70
     0
  9
$PDMODE
 70
     0
  9
$PDSIZE
 40
0.3125
  9
$PLINEWID
 40
0.0
  9
$COORDS
 70
     1
  9
$SPLFRAME
 70
     0
  9
$SPLINETYPE
 70
     6
  9
$SPLINESEGS
 70
     8
  9
$ATTDIA
 70
     1
  9
$ATTREQ
 70
     1
  9
$HANDLING
 70
     1
  9
$HANDSEED
  5
1609F
  9
$SURFTAB1
 70
     6
  9
$SURFTAB2
 70
     6
  9
$SURFTYPE
 70
     6
  9
$SURFU
 70
     6
  9
$SURFV
 70
     6
  9
$UCSNAME
  2

  9
$UCSORG
 10
0.0
 20
0.0
 30
0.0
  9
$UCSXDIR
 10
1.0
 20
0.0
 30
0.0
  9
$UCSYDIR
 10
0.0
 20
1.0
 30
0.0
  9
$PUCSNAME
  2

  9
$PUCSORG
 10
0.0
 20
0.0
 30
0.0
  9
$PUCSXDIR
 10
1.0
 20
0.0
 30
0.0
  9
$PUCSYDIR
 10
0.0
 20
1.0
 30
0.0
  9
$USERI1
 70
     0
  9
$USERI2
 70
     0
  9
$USERI3
 70
     0
  9
$USERI4
 70
     0
  9
$USERI5
 70
     0
  9
$USERR1
 40
0.0
  9
$USERR2
 40
0.0
  9
$USERR3
 40
0.0
  9
$USERR4
 40
0.0
  9
$USERR5
 40
0.0
  9
$WORLDVIEW
 70
     1
  9
$SHADEDGE
 70
     3
  9
$SHADEDIF
 70
    70
  9
$TILEMODE
 70
     1
  9
$MAXACTVP
 70
    64
  9
$PLIMCHECK
 70
     0
  9
$PEXTMIN
 10
1.0000000000000000E+20
 20
1.0000000000000000E+20
 30
1.0000000000000000E+20
  9
$PEXTMAX
 10
-1.0000000000000000E+20
 20
-1.0000000000000000E+20
 30
-1.0000000000000000E+20
  9
$PLIMMIN
 10
0.0
 20
0.0
  9
$PLIMMAX
 10
12.0
 20
9.0
  9
$UNITMODE
 70
     0
  9
$VISRETAIN
 70
     1
  9
$PLINEGEN
 70
     0
  9
$PSLTSCALE
 70
     1
  0
ENDSEC
  0
SECTION
  2
TABLES
  0
TABLE
  2
VPORT
 70
     1
  0
VPORT
  2
*ACTIVE
 70
     0
 10
0.0
 20
0.0
 11
1.0
 21
1.0
 12
346.3233496883427165
 22
222.8172881281298885
 13
0.0
 23
0.0
 14
1.0
 24
1.0
 15
0.0
 25
0.0
 16
0.0
 26
0.0
 36
60.4960186965801583
 17
3911.3653564453120453
 27
132.5796051025390057
 37
0.0
 40
27.1308018543741696
 41
1.9267068273092369
 42
50.0
 43
0.0
 44
0.0
 50
0.0
 51
0.0
 71
     0
 72
   100
 73
     1
 74
     1
 75
     0
 76
     0
 77
     0
 78
     0
  0
ENDTAB
  0
TABLE
  2
LTYPE
 70
     2
  0
LTYPE
  2
CONTINUOUS
 70
     0
  3
Solid line
 72
    65
 73
     0
 40
0.0
  0
LTYPE
  2
PHANTOM2
 70
     0
  3
___ _ _ ___ _ _ ___ _ _ ___ _ _
 72
    65
 73
     6
 40
1.25
 49
0.625
 49
-0.125
 49
0.125
 49
-0.125
 49
0.125
 49
-0.125
  0
ENDTAB
  0
TABLE
  2
LAYER
 70
     2
  0
LAYER
  2
0
 70
     0
 62
   255
  6
CONTINUOUS
  0
LAYER
  2
DEFPOINTS
 70
     0
 62
     7
  6
CONTINUOUS
  0
ENDTAB
  0
TABLE
  2
STYLE
 70
     1
  0
STYLE
  2
STANDARD
 70
     0
 40
0.0
 41
0.8
 50
0.0
 71
     0
 42
0.2
  3
txt
  4

  0
ENDTAB
  0
TABLE
  2
VIEW
 70
     0
  0
ENDTAB
  0
TABLE
  2
UCS
 70
     0
  0
ENDTAB
  0
TABLE
  2
APPID
 70
    10
  0
APPID
  2
ACAD
 70
     0
  0
APPID
  2
ACAD_MLEADERVER
 70
     0
  0
APPID
  2
ACAD_EXEMPT_FROM_CAD_STANDARDS
 70
     0
  0
APPID
  2
ACAD_NAV_VCDISPLAY
 70
     0
  0
APPID
  2
ACAECLAYERSTANDARD
 70
     0
  0
APPID
  2
ACCMTRANSPARENCY
 70
     0
  0
APPID
  2
ACAD_DSTYLE_DIMJAG
 70
     0
  0
APPID
  2
ACAD_DSTYLE_DIMTALN
 70
     0
  0
APPID
  2
ACDBATTR
 70
     0
  0
APPID
  2
ACADANNOTATIVE
 70
     0
  0
ENDTAB
  0
TABLE
  2
DIMSTYLE
 70
     1
  0
DIMSTYLE
  2
STANDARD
 70
     0
  3

  4

  5

  6

  7

 40
1.0
 41
0.1875
 42
0.0625
 43
0.38
 44
0.125
 45
0.0
 46
0.0
 47
0.01
 48
0.01
140
0.15625
141
0.09
142
0.0
143
25.3999999999999986
144
1.0
145
0.0
146
1.0
147
0.09
 71
     1
 72
     0
 73
     1
 74
     1
 75
     0
 76
     0
 77
     0
 78
     4
170
     0
171
     2
172
     0
173
     0
174
     0
175
     0
176
     0
177
     0
178
     0
  0
ENDTAB
  0
ENDSEC
  0
SECTION
  2
BLOCKS
  0
BLOCK
  8
0
  2
$MODEL_SPACE
 70
     0
 10
0.0
 20
0.0
 30
0.0
  3
$MODEL_SPACE
  1

  0
ENDBLK
  5
21
  8
0
  0
BLOCK
 67
     1
  8
0
  2
$PAPER_SPACE
 70
     0
 10
0.0
 20
0.0
 30
0.0
  3
$PAPER_SPACE
  1

  0
ENDBLK
  5
1D
 67
     1
  8
0
  0
ENDSEC
  0
SECTION
  2
ENTITIES
  0
ATTDEF
  5
159BF
  8
DEFPOINTS
 10
4259.2352476228152227
 20
355.4000577515096211
 30
0.0
 40
0.001
  1
K-72740T
  3

  2
MODELNUMBER
 70
     0
1001
ACDBATTR
1070
     0
1070
     1
  0
ATTDEF
  5
159C0
  8
DEFPOINTS
 10
4259.2351218131580026
 20
355.3983909111303774
 30
0.0
 40
0.001
  1
RAINJOY
  3

  2
TRADENAME
 70
     0
1001
ACDBATTR
1070
     0
1070
     1
  0
ATTDEF
  5
159C1
  8
DEFPOINTS
 10
4259.2352476228152227
 20
355.3967244181761771
 30
0.0
 40
0.001
  1
SLIDE BAR
  3

  2
PRODUCT
 70
     0
1001
ACDBATTR
1070
     0
1070
     1
  0
ARC
  5
15F7A
  8
0
 10
4257.2462521407269378
 20
355.3968932306689226
 30
0.0
 40
0.8080086993999991
 50
117.5734798305793021
 51
242.4265201694207121
  0
ARC
  5
15F7B
  8
0
 10
4257.2462521407269378
 20
355.3968932306689226
 30
0.0
 40
0.8080086993999991
 50
297.5734798385755084
 51
62.4265201614245413
  0
LINE
  5
15F7C
  8
0
 10
4256.8722363927263359
 20
354.6865089927060239
 30
0.0
 11
4256.8722363927263359
 21
344.8133976984689184
 31
0.0
  0
LINE
  5
15F7D
  8
0
 10
4257.6202678888257651
 20
344.830958093868901
 30
0.0
 11
4257.6202678888257651
 21
354.6865089926895962
 31
0.0
  0
ARC
  5
15F7E
  8
0
 10
4257.2476211555731425
 20
355.3962223935338898
 30
0.0
 40
0.7922875675455165
 50
124.2952099675566018
 51
243.3096472627404125
  0
LINE
  5
15F7F
  8
0
 10
4256.8917504822265983
 20
354.6883554190688983
 30
0.0
 11
4256.8626896324258269
 21
356.0201952713688911
 31
0.0
  0
ARC
  5
15F80
  8
0
 10
4256.8233731142881879
 20
356.0182399399765814
 30
0.0
 40
0.0393651104329047
 50
2.847149554597872
 51
124.2800164272222929
  0
ARC
  5
15F81
  8
0
 10
4256.8232900438497381
 20
356.019258803574985
 30
0.0
 40
0.0394107162066822
 50
1.361576440993477
 51
124.0844338077093028
  0
ARC
  5
15F82
  8
0
 10
4257.5037062612500449
 20
355.9460691306628064
 30
0.0
 40
1.3986899784483591
 50
242.398850039979294
 51
244.0542030681380936
  0
ARC
  5
15F83
  8
0
 10
4257.2462523269932717
 20
355.3815958448789729
 30
0.0
 40
0.7798894361100849
 50
239.9462234956671978
 51
300.0537407254994946
  0
ARC
  5
15F84
  8
0
 10
4256.9866767306903057
 20
355.9502873514458088
 30
0.0
 40
1.4034111597560801
 50
295.9483248152683927
 51
297.5981026283907909
  0
LINE
  5
15F85
  8
0
 10
4257.6298146464268939
 20
356.0201951352689207
 30
0.0
 11
4257.6007538010262579
 21
354.6883554059688777
 31
0.0
  0
ARC
  5
15F86
  8
0
 10
4257.6691759723671566
 20
356.0193330135842871
 30
0.0
 40
0.0393707662304838
 50
55.8082573477225381
 51
178.7452648982178971
  0
ARC
  5
15F87
  8
0
 10
4257.6691502154553746
 20
356.0182014356693116
 30
0.0
 40
0.039386061352894
 50
55.7849829778273119
 51
177.0984808396597998
  0
ARC
  5
15F88
  8
0
 10
4257.2462522947162142
 20
355.396893129892419
 30
0.0
 40
0.7909621760679363
 50
297.1440790399184948
 51
55.7598760461971708
  0
LINE
  5
15F89
  8
0
 10
4257.6071126794186057
 20
354.6930458831675992
 30
0.0
 11
4257.600783378226879
 21
354.6897109129689056
 31
0.0
  0
ARC
  5
15F8A
  8
0
 10
4257.0934684855101295
 20
355.167819820502416
 30
0.0
 40
1.067239255123521
 50
51.5641168290240728
 51
55.9326370667122319
  0
ARC
  5
15F8B
  8
0
 10
4257.24625214077696
 20
355.3841341736222148
 30
0.0
 40
0.8141400399467146
 50
54.3755857205445707
 51
125.6244142794553937
  0
ARC
  5
15F8C
  8
0
 10
4257.1992390709519896
 20
355.4889955814281279
 30
0.0
 40
0.7018919835054187
 50
117.7676725129577022
 51
127.4911325455539952
  0
ARC
  5
15F8D
  8
0
 10
4257.3939717749353804
 20
355.1748338838120276
 30
0.0
 40
1.0585922852666629
 50
124.0529474034541977
 51
128.4564489863273025
  0
ARC
  5
15F8E
  8
0
 10
4257.2462562970249564
 20
355.407809887786982
 30
0.0
 40
0.7848301295067677
 50
49.4094266193551377
 51
130.590057714603887
  0
ARC
  5
15F8F
  8
0
 10
4257.2931503279987737
 20
355.488815983467191
 30
0.0
 40
0.7021044072912318
 50
52.5103491657885186
 51
62.230859511023553
  0
CIRCLE
  5
15F90
  8
0
 10
4257.2462521407269378
 20
355.3968932306689226
 30
0.0
 40
0.7999072741999999
  0
CIRCLE
  5
15F91
  8
0
 10
4257.2462521407269378
 20
355.3968932306689226
 30
0.0
 40
0.7992125983999996
  0
LINE
  5
15F92
  8
0
 10
4256.2100316683263372
 20
355.4754269211688893
 30
0.0
 11
4256.3735358397261734
 21
355.4754269211688893
 31
0.0
  0
LINE
  5
15F93
  8
0
 10
4256.2100316683263372
 20
355.3183595400689114
 30
0.0
 11
4256.3735358397261734
 21
355.3183595400689114
 31
0.0
  0
ARC
  5
15F94
  8
0
 10
4256.2100316683763594
 20
355.3968932306189004
 30
0.0
 40
0.0785336905499996
 50
90.0000000364771466
 51
269.9999999635227823
  0
ARC
  5
15F95
  8
0
 10
4256.3735358397261734
 20
355.5543735455689216
 30
0.0
 40
0.0789466243999977
 50
270.0
 51
346.4641132301979951
  0
ARC
  5
15F96
  8
0
 10
4256.3735358397261734
 20
355.2394129156688791
 30
0.0
 40
0.0789466244000057
 50
13.5358865726296305
 51
90.0
  0
LINE
  5
15F97
  8
0
 10
4257.6202678888257651
 20
356.107277468450377
 30
0.0
 11
4257.6202678888257651
 21
365.9628283674932163
 31
0.0
  0
LINE
  5
15F98
  8
0
 10
4257.6202678888257651
 20
367.7582100745394769
 30
0.0
 11
4257.6202678888257651
 21
368.7827200022688885
 31
0.0
  0
LINE
  5
15F99
  8
0
 10
4256.8722363927263359
 20
368.7827200022688885
 30
0.0
 11
4256.8722363927263359
 21
367.7504055725989929
 31
0.0
  0
LINE
  5
15F9A
  8
0
 10
4256.8722363927263359
 20
365.9803887629346946
 30
0.0
 11
4256.8722363927263359
 21
356.107277468450377
 31
0.0
  0
LINE
  5
15F9B
  8
0
 10
4256.8722363927263359
 20
356.1066975104548078
 30
0.0
 11
4256.8722363927263359
 21
356.1066955374689087
 31
0.0
  0
LINE
  5
15F9C
  8
0
 10
4256.8722363927263359
 20
343.0433808887689224
 30
0.0
 11
4256.8722363927263359
 21
342.0110664589689122
 31
0.0
  0
LINE
  5
15F9D
  8
0
 10
4257.6202678888257651
 20
343.035576386868911
 30
0.0
 11
4257.6202678888257651
 21
342.0110664589689122
 31
0.0
  0
LINE
  5
15F9E
  8
0
 10
4256.8722363927263359
 20
342.0110664589689122
 30
0.0
 11
4257.6202678888257651
 21
342.0110664589689122
 31
0.0
  0
LINE
  5
15F9F
  8
0
 10
4257.1871970226256963
 20
342.0110664589689122
 30
0.0
 11
4257.1871970226256963
 21
341.9874444117688768
 31
0.0
  0
LINE
  5
15FA0
  8
0
 10
4257.1871970226256963
 20
341.9874444117688768
 30
0.0
 11
4257.3053072588263603
 21
341.9874444117688768
 31
0.0
  0
LINE
  5
15FA1
  8
0
 10
4257.3053072588263603
 20
341.9874444117688768
 30
0.0
 11
4257.3053072588263603
 21
342.0110664589689122
 31
0.0
  0
LINE
  5
15FA2
  8
0
 10
4256.8722363927263359
 20
341.9953184274688738
 30
0.0
 11
4256.8722363927263359
 21
341.9536503091688928
 31
0.0
  0
LINE
  5
15FA3
  8
0
 10
4257.6202678888257651
 20
341.9953184274688738
 30
0.0
 11
4257.6202678888257651
 21
341.9536503091688928
 31
0.0
  0
ARC
  5
15FA4
  8
0
 10
4257.2462521407269378
 20
345.4756333881690011
 30
0.0
 40
3.5629921260000872
 50
264.3184750969210199
 51
275.6815249030789801
  0
ARC
  5
15FA5
  8
0
 10
4256.8958584402498673
 20
341.9536503094039972
 30
0.0
 40
0.0236220475232241
 50
180.0000005700759118
 51
264.3184746232054181
  0
ARC
  5
15FA6
  8
0
 10
4257.5966458413276996
 20
341.9536503093941064
 30
0.0
 40
0.0236220474975726
 50
275.6815252974055284
 51
359.9999994539078898
  0
ARC
  5
15FA7
  8
0
 10
4257.604519857325613
 20
341.9953184274688738
 30
0.0
 40
0.0157480314999994
 50
0.0000000000032569
 51
90.0
  0
ARC
  5
15FA8
  8
0
 10
4256.8879844242273975
 20
341.9953184274688738
 30
0.0
 40
0.0157480315000012
 50
90.0
 51
179.9999999999967031
  0
LINE
  5
15FA9
  8
0
 10
4256.7717506588269316
 20
343.0444292953689001
 30
0.0
 11
4259.2147560777266335
 21
343.0189404747688968
 31
0.0
  0
LINE
  5
15FAA
  8
0
 10
4259.2147560777266335
 20
343.0189404747688968
 30
0.0
 11
4259.2147560777266335
 21
344.8378381125688747
 31
0.0
  0
LINE
  5
15FAB
  8
0
 10
4259.2147560777266335
 20
344.8378381125688747
 30
0.0
 11
4256.7717506588269316
 21
344.8123492919689284
 31
0.0
  0
LINE
  5
15FAC
  8
0
 10
4257.2462521407269378
 20
344.8173002338688775
 30
0.0
 11
4257.2462521407269378
 21
344.8279955928688878
 31
0.0
  0
LINE
  5
15FAD
  8
0
 10
4257.2462521407269378
 20
344.8279955928688878
 30
0.0
 11
4259.2344411171261527
 21
344.8437436243689262
 31
0.0
  0
LINE
  5
15FAE
  8
0
 10
4259.2344411171261527
 20
344.8437436243689262
 30
0.0
 11
4259.2344411171261527
 21
343.1153971676689025
 31
0.0
  0
LINE
  5
15FAF
  8
0
 10
4259.2344411171261527
 20
343.1153971676689025
 30
0.0
 11
4259.2147560777266335
 21
343.1155530887688769
 31
0.0
  0
LINE
  5
15FB0
  8
0
 10
4259.2147560777266335
 20
344.0661845692688985
 30
0.0
 11
4259.2344411171261527
 21
344.0661845692688985
 31
0.0
  0
LINE
  5
15FB1
  8
0
 10
4256.7620001722252709
 20
344.8025071979689073
 30
0.0
 11
4256.7620001722252709
 21
344.6961058290689266
 31
0.0
  0
LINE
  5
15FB2
  8
0
 10
4256.7620001722252709
 20
344.6961058290689266
 30
0.0
 11
4256.7668529491256777
 21
344.6961058290689266
 31
0.0
  0
LINE
  5
15FB3
  8
0
 10
4256.7668529491256777
 20
344.6961058290689266
 30
0.0
 11
4256.7668529491256777
 21
344.4205152778689012
 31
0.0
  0
LINE
  5
15FB4
  8
0
 10
4256.7668529491256777
 20
344.4205152778689012
 30
0.0
 11
4256.7620001722252709
 21
344.4205152778689012
 31
0.0
  0
LINE
  5
15FB5
  8
0
 10
4256.7620001722252709
 20
344.4205152778689012
 30
0.0
 11
4256.7620001722252709
 21
343.4362633093688828
 31
0.0
  0
LINE
  5
15FB6
  8
0
 10
4256.7620001722252709
 20
343.4362633093688828
 30
0.0
 11
4256.7668529491256777
 21
343.4362633093688828
 31
0.0
  0
LINE
  5
15FB7
  8
0
 10
4256.7668529491256777
 20
343.4362633093688828
 30
0.0
 11
4256.7668529491256777
 21
343.1606727581689142
 31
0.0
  0
LINE
  5
15FB8
  8
0
 10
4256.7668529491256777
 20
343.1606727581689142
 30
0.0
 11
4256.7620001722252709
 21
343.1606727581689142
 31
0.0
  0
LINE
  5
15FB9
  8
0
 10
4256.7620001722252709
 20
343.1606727581689142
 30
0.0
 11
4256.7620001722252709
 21
343.0542713892688766
 31
0.0
  0
ARC
  5
15FBA
  8
0
 10
4256.7718468995562944
 20
343.054275553244679
 30
0.0
 40
0.0098467282096444
 50
180.0242291897399127
 51
269.4399890723494764
  0
ARC
  5
15FBB
  8
0
 10
4256.7718469597293733
 20
344.8025029744794097
 30
0.0
 40
0.0098467884088144
 50
90.5603576556866443
 51
179.9754246643067859
  0
ARC
  5
15FBC
  8
0
 10
4257.1993540245157419
 20
355.3049705804181144
 30
0.0
 40
0.7021045318477989
 50
232.5103496641141874
 51
242.2308583185061082
  0
ARC
  5
15FBD
  8
0
 10
4257.24625214077696
 20
355.4096522855783178
 30
0.0
 40
0.8141400382093547
 50
234.3755856329590017
 51
305.6244143670410267
  0
ARC
  5
15FBE
  8
0
 10
4257.2932652074250655
 20
355.3047908826982848
 30
0.0
 40
0.701891987650105
 50
297.7676726276785075
 51
307.4911326126107838
  0
LINE
  5
15FBF
  8
0
 10
4256.7717506588269316
 20
365.9814371694689044
 30
0.0
 11
4259.2147560777266335
 21
365.9559483488689011
 31
0.0
  0
LINE
  5
15FC0
  8
0
 10
4259.2147560777266335
 20
365.9559483488689011
 30
0.0
 11
4259.2147560777266335
 21
367.774845986668879
 31
0.0
  0
LINE
  5
15FC1
  8
0
 10
4259.2147560777266335
 20
367.7748459865688915
 30
0.0
 11
4256.7717506588269316
 21
367.7493571660688758
 31
0.0
  0
LINE
  5
15FC2
  8
0
 10
4259.2344411171261527
 20
367.6783892936688858
 30
0.0
 11
4259.2344411171261527
 21
365.9500428369689189
 31
0.0
  0
LINE
  5
15FC3
  8
0
 10
4259.2344411171261527
 20
365.9500428369689189
 30
0.0
 11
4257.2462521407269378
 21
365.9657908684689005
 31
0.0
  0
LINE
  5
15FC4
  8
0
 10
4256.7620001722252709
 20
367.7395150720689116
 30
0.0
 11
4256.7620001722252709
 21
367.6331137031688741
 31
0.0
  0
LINE
  5
15FC5
  8
0
 10
4256.7620001722252709
 20
367.6331137031688741
 30
0.0
 11
4256.7668529491256777
 21
367.6331137031688741
 31
0.0
  0
LINE
  5
15FC6
  8
0
 10
4256.7668529491256777
 20
367.6331137031688741
 30
0.0
 11
4256.7668529491256777
 21
367.3575231519689055
 31
0.0
  0
LINE
  5
15FC7
  8
0
 10
4256.7668529491256777
 20
367.3575231519689055
 30
0.0
 11
4256.7620001722252709
 21
367.3575231519689055
 31
0.0
  0
LINE
  5
15FC8
  8
0
 10
4256.7620001722252709
 20
367.3575231519689055
 30
0.0
 11
4256.7620001722252709
 21
366.3732711834688871
 31
0.0
  0
LINE
  5
15FC9
  8
0
 10
4256.7620001722252709
 20
366.3732711834688871
 30
0.0
 11
4256.7668529491256777
 21
366.3732711834688871
 31
0.0
  0
LINE
  5
15FCA
  8
0
 10
4256.7668529491256777
 20
366.3732711834688871
 30
0.0
 11
4256.7668529491256777
 21
366.0976806322689185
 31
0.0
  0
LINE
  5
15FCB
  8
0
 10
4256.7668529491256777
 20
366.0976806322689185
 30
0.0
 11
4256.7620001722252709
 21
366.0976806322689185
 31
0.0
  0
LINE
  5
15FCC
  8
0
 10
4256.7620001722252709
 20
366.0976806322689185
 30
0.0
 11
4256.7620001722252709
 21
365.9912792633688809
 31
0.0
  0
ARC
  5
15FCD
  8
0
 10
4256.7718468995562944
 20
365.9912834273446833
 30
0.0
 40
0.0098467282096444
 50
180.0242291897399127
 51
269.4399890723494764
  0
ARC
  5
15FCE
  8
0
 10
4256.7718469597293733
 20
367.739510848579414
 30
0.0
 40
0.0098467884088144
 50
90.5603576556866443
 51
179.9754246643067859
  0
LINE
  5
15FCF
  8
0
 10
4259.2147560777266335
 20
367.6782333725689114
 30
0.0
 11
4259.2344411171261527
 21
367.6783892936688858
 31
0.0
  0
LINE
  5
15FD0
  8
0
 10
4257.2462521407269378
 20
365.9657908684689005
 30
0.0
 11
4257.2462521407269378
 21
365.9764865748688862
 31
0.0
  0
LINE
  5
15FD1
  8
0
 10
4259.2147560777266335
 20
366.7276018920688898
 30
0.0
 11
4259.2344411171261527
 21
366.7276018920688898
 31
0.0
  0
LINE
  5
15FD2
  8
0
 10
4256.8722363927263359
 20
368.7827200022688885
 30
0.0
 11
4257.6202678888257651
 21
368.7827200022688885
 31
0.0
  0
LINE
  5
15FD3
  8
0
 10
4256.8722363927263359
 20
368.8401361521688955
 30
0.0
 11
4256.8722363927263359
 21
368.7984680337689269
 31
0.0
  0
LINE
  5
15FD4
  8
0
 10
4257.6202678888257651
 20
368.8401361521688955
 30
0.0
 11
4257.6202678888257651
 21
368.7984680337689269
 31
0.0
  0
ARC
  5
15FD5
  8
0
 10
4257.2462521407933309
 20
365.3181530718184717
 30
0.0
 40
3.562992127350455
 50
84.3184751000107298
 51
95.6815249020312706
  0
ARC
  5
15FD6
  8
0
 10
4257.5966458413276996
 20
368.8401361519436819
 30
0.0
 40
0.0236220474975726
 50
0.0000005460889237
 51
84.3184747025944432
  0
ARC
  5
15FD7
  8
0
 10
4257.604519857325613
 20
368.7984680337689269
 30
0.0
 40
0.0157480315000012
 50
270.0
 51
359.9999999999869829
  0
ARC
  5
15FD8
  8
0
 10
4256.8958584402498673
 20
368.8401361519339048
 30
0.0
 40
0.0236220475232187
 50
95.6815253767945677
 51
179.9999994299305968
  0
ARC
  5
15FD9
  8
0
 10
4256.8879844242273975
 20
368.7984680337689269
 30
0.0
 40
0.0157480315000012
 50
180.0000000000129887
 51
270.0
  0
LINE
  5
15FDB
  8
0
 10
4256.8722363927263359
 20
368.8401361521688955
 30
0.0
 11
4257.6202678888257651
 21
368.8401361521688955
 31
0.0
  0
LINE
  5
15FDC
  8
0
 10
4256.8722363927263359
 20
341.9536503091688928
 30
0.0
 11
4257.6202678888257651
 21
341.9536503091688928
 31
0.0
  0
ENDSEC
  0
EOF
