  0
SECTION
  2
HEADER
  9
$ACADVER
  1
AC1009
  9
$INSBASE
 10
192.3453821128615004
 20
11.8623430549084699
 30
0.0
  9
$EXTMIN
 10
190.7865081333789874
 20
11.8562811008789595
 30
-0.0015258207003583
  9
$EXTMAX
 10
193.9079471335583946
 20
16.5545389485692915
 30
0.0000000349246037
  9
$LIMMIN
 10
0.0
 20
0.0
  9
$LIMMAX
 10
11.6929133858000007
 20
8.2677165353999982
  9
$ORTHOMODE
 70
     1
  9
$REGENMODE
 70
     1
  9
$FILLMODE
 70
     1
  9
$QTEXTMODE
 70
     0
  9
$MIRRTEXT
 70
     0
  9
$DRAGMODE
 70
     2
  9
$LTSCALE
 40
0.6431102362
  9
$OSMODE
 70
  4095
  9
$ATTMODE
 70
     1
  9
$TEXTSIZE
 40
0.2
  9
$TRACEWID
 40
0.05
  9
$TEXTSTYLE
  7
STANDARD
  9
$CLAYER
  8
0
  9
$CELTYPE
  6
BYLAYER
  9
$CECOLOR
 62
   256
  9
$DIMSCALE
 40
1.0
  9
$DIMASZ
 40
0.1875
  9
$DIMEXO
 40
0.0625
  9
$DIMDLI
 40
0.4443307087
  9
$DIMRND
 40
0.0
  9
$DIMDLE
 40
0.0
  9
$DIMEXE
 40
0.125
  9
$DIMTP
 40
0.01
  9
$DIMTM
 40
0.01
  9
$DIMTXT
 40
1.0
  9
$DIMCEN
 40
0.1052362205
  9
$DIMTSZ
 40
0.0
  9
$DIMTOL
 70
     1
  9
$DIMLIM
 70
     0
  9
$DIMTIH
 70
     1
  9
$DIMTOH
 70
     1
  9
$DIMSE1
 70
     0
  9
$DIMSE2
 70
     0
  9
$DIMTAD
 70
     0
  9
$DIMZIN
 70
     0
  9
$DIMBLK
  1

  9
$DIMASO
 70
     1
  9
$DIMSHO
 70
     1
  9
$DIMPOST
  1
\X
  9
$DIMAPOST
  1

  9
$DIMALT
 70
     1
  9
$DIMALTD
 70
     2
  9
$DIMALTF
 40
25.3999999999999986
  9
$DIMLFAC
 40
1.0
  9
$DIMTOFL
 70
     0
  9
$DIMTVP
 40
0.0
  9
$DIMTIX
 70
     0
  9
$DIMSOXD
 70
     0
  9
$DIMSAH
 70
     0
  9
$DIMBLK1
  1

  9
$DIMBLK2
  1

  9
$DIMSTYLE
  2
STANDARD
  9
$DIMCLRD
 70
     0
  9
$DIMCLRE
 70
     0
  9
$DIMCLRT
 70
     0
  9
$DIMTFAC
 40
1.0
  9
$DIMGAP
 40
0.09
  9
$LUNITS
 70
     2
  9
$LUPREC
 70
     4
  9
$SKETCHINC
 40
0.1
  9
$FILLETRAD
 40
0.0
  9
$AUNITS
 70
     0
  9
$AUPREC
 70
     0
  9
$MENU
  1
.
  9
$ELEVATION
 40
0.0
  9
$PELEVATION
 40
0.0
  9
$THICKNESS
 40
0.0
  9
$LIMCHECK
 70
     0
  9
$BLIPMODE
 70
     0
  9
$CHAMFERA
 40
0.0
  9
$CHAMFERB
 40
0.0
  9
$SKPOLY
 70
     0
  9
$TDCREATE
 40
2458172.4620254631154239
  9
$TDUPDATE
 40
2459031.6659722221083939
  9
$TDINDWG
 40
0.104458287
  9
$TDUSRTIMER
 40
0.104458287
  9
$USRTIMER
 70
     1
  9
$ANGBASE
 50
0.0
  9
$ANGDIR
 70
     0
  9
$PDMODE
 70
     0
  9
$PDSIZE
 40
0.3125
  9
$PLINEWID
 40
0.0
  9
$COORDS
 70
     1
  9
$SPLFRAME
 70
     0
  9
$SPLINETYPE
 70
     6
  9
$SPLINESEGS
 70
     8
  9
$ATTDIA
 70
     1
  9
$ATTREQ
 70
     1
  9
$HANDLING
 70
     1
  9
$HANDSEED
  5
2A69
  9
$SURFTAB1
 70
     6
  9
$SURFTAB2
 70
     6
  9
$SURFTYPE
 70
     6
  9
$SURFU
 70
     6
  9
$SURFV
 70
     6
  9
$UCSNAME
  2

  9
$UCSORG
 10
0.0
 20
0.0
 30
0.0
  9
$UCSXDIR
 10
1.0
 20
0.0
 30
0.0
  9
$UCSYDIR
 10
0.0
 20
1.0
 30
0.0
  9
$PUCSNAME
  2

  9
$PUCSORG
 10
0.0
 20
0.0
 30
0.0
  9
$PUCSXDIR
 10
1.0
 20
0.0
 30
0.0
  9
$PUCSYDIR
 10
0.0
 20
1.0
 30
0.0
  9
$USERI1
 70
     0
  9
$USERI2
 70
     0
  9
$USERI3
 70
     0
  9
$USERI4
 70
     0
  9
$USERI5
 70
     0
  9
$USERR1
 40
0.0
  9
$USERR2
 40
0.0
  9
$USERR3
 40
0.0
  9
$USERR4
 40
0.0
  9
$USERR5
 40
0.0
  9
$WORLDVIEW
 70
     1
  9
$SHADEDGE
 70
     3
  9
$SHADEDIF
 70
    70
  9
$TILEMODE
 70
     1
  9
$MAXACTVP
 70
    64
  9
$PLIMCHECK
 70
     0
  9
$PEXTMIN
 10
1.0000000000000000E+20
 20
1.0000000000000000E+20
 30
1.0000000000000000E+20
  9
$PEXTMAX
 10
-1.0000000000000000E+20
 20
-1.0000000000000000E+20
 30
-1.0000000000000000E+20
  9
$PLIMMIN
 10
0.0
 20
0.0
  9
$PLIMMAX
 10
12.0
 20
9.0
  9
$UNITMODE
 70
     0
  9
$VISRETAIN
 70
     1
  9
$PLINEGEN
 70
     0
  9
$PSLTSCALE
 70
     1
  0
ENDSEC
  0
SECTION
  2
TABLES
  0
TABLE
  2
VPORT
 70
     1
  0
VPORT
  2
*ACTIVE
 70
     0
 10
0.0
 20
0.0
 11
1.0
 21
1.0
 12
0.0018455206072479
 22
0.0005399394989549
 13
0.0
 23
0.0
 14
1.0
 24
1.0
 15
0.0
 25
0.0
 16
0.0
 26
0.0
 36
16.3429782064407014
 17
192.3453821128615004
 27
14.2048700852251706
 37
0.0
 40
4.7276832621852636
 41
2.005224660397074
 42
50.0
 43
0.0
 44
0.0
 50
0.0
 51
0.0
 71
     0
 72
   100
 73
     1
 74
     1
 75
     0
 76
     0
 77
     0
 78
     0
  0
ENDTAB
  0
TABLE
  2
LTYPE
 70
     2
  0
LTYPE
  2
CONTINUOUS
 70
     0
  3
Solid line
 72
    65
 73
     0
 40
0.0
  0
LTYPE
  2
PHANTOM2
 70
     0
  3
___ _ _ ___ _ _ ___ _ _ ___ _ _
 72
    65
 73
     6
 40
1.25
 49
0.625
 49
-0.125
 49
0.125
 49
-0.125
 49
0.125
 49
-0.125
  0
ENDTAB
  0
TABLE
  2
LAYER
 70
     2
  0
LAYER
  2
0
 70
     0
 62
   255
  6
CONTINUOUS
  0
LAYER
  2
DEFPOINTS
 70
     0
 62
     7
  6
CONTINUOUS
  0
ENDTAB
  0
TABLE
  2
STYLE
 70
     1
  0
STYLE
  2
STANDARD
 70
     0
 40
0.0
 41
0.8
 50
0.0
 71
     0
 42
0.2
  3
txt
  4

  0
ENDTAB
  0
TABLE
  2
VIEW
 70
     0
  0
ENDTAB
  0
TABLE
  2
UCS
 70
     0
  0
ENDTAB
  0
TABLE
  2
APPID
 70
     9
  0
APPID
  2
ACAD
 70
     0
  0
APPID
  2
ACAD_MLEADERVER
 70
     0
  0
APPID
  2
ACAD_EXEMPT_FROM_CAD_STANDARDS
 70
     0
  0
APPID
  2
ACAD_DSTYLE_DIMJAG
 70
     0
  0
APPID
  2
ACAD_DSTYLE_DIMTALN
 70
     0
  0
APPID
  2
ACAD_NAV_VCDISPLAY
 70
     0
  0
APPID
  2
ACAECLAYERSTANDARD
 70
     0
  0
APPID
  2
ACCMTRANSPARENCY
 70
     0
  0
APPID
  2
ACDBATTR
 70
     0
  0
ENDTAB
  0
TABLE
  2
DIMSTYLE
 70
     1
  0
DIMSTYLE
  2
STANDARD
 70
     0
  3

  4

  5

  6

  7

 40
1.0
 41
0.1875
 42
0.0625
 43
0.38
 44
0.125
 45
0.0
 46
0.0
 47
0.01
 48
0.01
140
0.15625
141
0.09
142
0.0
143
25.3999999999999986
144
1.0
145
0.0
146
1.0
147
0.09
 71
     1
 72
     0
 73
     1
 74
     1
 75
     0
 76
     0
 77
     0
 78
     4
170
     0
171
     2
172
     0
173
     0
174
     0
175
     0
176
     0
177
     0
178
     0
  0
ENDTAB
  0
ENDSEC
  0
SECTION
  2
BLOCKS
  0
BLOCK
  8
0
  2
$MODEL_SPACE
 70
     0
 10
0.0
 20
0.0
 30
0.0
  3
$MODEL_SPACE
  1

  0
ENDBLK
  5
21
  8
0
  0
BLOCK
 67
     1
  8
0
  2
$PAPER_SPACE
 70
     0
 10
0.0
 20
0.0
 30
0.0
  3
$PAPER_SPACE
  1

  0
ENDBLK
  5
1D
 67
     1
  8
0
  0
ENDSEC
  0
SECTION
  2
ENTITIES
  0
ATTDEF
  5
157D
  8
DEFPOINTS
 10
192.3405913832303042
 20
11.8607064494418601
 30
0.0
 40
0.001
  1
K-72758T
  3

  2
MODELNUMBER
 70
     0
1001
ACDBATTR
1070
     0
1070
     1
  0
ATTDEF
  5
157E
  8
DEFPOINTS
 10
192.3405913832303042
 20
11.8590397827752003
 30
0.0
 40
0.001
  1
ARTIFACTS
  3

  2
TRADENAME
 70
     0
1001
ACDBATTR
1070
     0
1070
     1
  0
ATTDEF
  5
157F
  8
DEFPOINTS
 10
192.3405913832303042
 20
11.8573731161085298
 30
0.0
 40
0.001
  1
BATHROOM SINK SPOUT
  3

  2
PRODUCT
 70
     0
1001
ACDBATTR
1070
     0
1070
     1
  0
LINE
  5
283F
  8
0
 10
191.7600247864615142
 20
13.5038492080084698
 30
0.0
 11
191.7600247843614056
 21
13.5368740648084707
 31
0.0
  0
LINE
  5
2840
  8
0
 10
192.0686190209615063
 20
15.8025114892084702
 30
0.0
 11
192.0686190209615063
 21
15.8284165049084802
 31
0.0
  0
LINE
  5
2841
  8
0
 10
192.090382112861505
 20
15.3067335611084694
 30
0.0
 11
192.090382112861505
 21
15.3470333454084695
 31
0.0
  0
LINE
  5
2842
  8
0
 10
192.126030684161492
 20
16.1516939999084705
 30
0.0
 11
192.126030684161492
 21
16.1783463096084716
 31
0.0
  0
LINE
  5
2843
  8
0
 10
190.9952632648615065
 20
11.8623430549084699
 30
0.0
 11
193.6955009608614944
 21
11.8623430549084699
 31
0.0
  0
LINE
  5
2844
  8
0
 10
191.4853821128614015
 20
13.2317332985084697
 30
0.0
 11
191.792687437061403
 21
13.2317332985084697
 31
0.0
  0
LINE
  5
2845
  8
0
 10
191.8155385760591116
 20
13.3567332985084697
 30
0.0
 11
191.4853821128614015
 21
13.3567332985084697
 31
0.0
  0
LINE
  5
2846
  8
0
 10
192.0703821128614948
 20
15.17673329850847
 30
0.0
 11
192.6203821128613924
 21
15.17673329850847
 31
0.0
  0
LINE
  5
2847
  8
0
 10
192.6203821128613924
 20
15.2767332985084696
 30
0.0
 11
192.0703821128614948
 21
15.2767332985084696
 31
0.0
  0
LINE
  5
2848
  8
0
 10
192.6303819927613858
 20
15.3770548916084699
 30
0.0
 11
192.0603822329613877
 21
15.3770548916084699
 31
0.0
  0
LINE
  5
2849
  8
0
 10
192.8104637911827126
 20
15.5867186953084698
 30
0.0
 11
191.8802997414402114
 21
15.5867186953084698
 31
0.0
  0
LINE
  5
284A
  8
0
 10
192.6476359967803091
 20
15.7728522176084809
 30
0.0
 11
192.0431282289613932
 21
15.7728522176084702
 31
0.0
  0
LINE
  5
284B
  8
0
 10
192.0933120530613962
 20
15.8579407850084699
 30
0.0
 11
192.5974521729895059
 21
15.8579407850084699
 31
0.0
  0
LINE
  5
284C
  8
0
 10
192.3453821128615004
 20
16.1258054049084691
 30
0.0
 11
192.1408770000614084
 21
16.1258054049084691
 31
0.0
  0
LINE
  5
284D
  8
0
 10
192.5821036472067078
 20
16.2055429439084691
 30
0.0
 11
192.1086605785162931
 21
16.2055429439084691
 31
0.0
  0
ARC
  5
284E
  8
0
 10
191.4853821128614015
 20
13.2942332985084697
 30
0.0
 40
0.0625
 50
89.9999999999006661
 51
270.0
  0
ARC
  5
284F
  8
0
 10
192.079071466785706
 20
15.5402219520833302
 30
0.0
 40
0.2353906471908481
 50
98.7832029609308933
 51
158.4868852671764046
  0
ARC
  5
2850
  8
0
 10
191.8290550267807077
 20
15.3915084740998491
 30
0.0
 40
0.2018243078232055
 50
3.8351362875214359
 51
75.2911382467453478
  0
ARC
  5
2851
  8
0
 10
192.0676628002615018
 20
16.0006507284084698
 30
0.0
 40
0.1449965934
 50
280.1889865977000227
 51
59.672804464300043
  0
ARC
  5
2852
  8
0
 10
192.0703821128614948
 20
15.2267332985084707
 30
0.0
 40
0.05
 50
90.0
 51
270.0
  0
ARC
  5
2853
  8
0
 10
191.529127752152192
 20
13.1814887504843998
 30
0.0
 40
0.0502449113388725
 50
90.2178880422632261
 51
165.7734505156263083
  0
ARC
  5
2854
  8
0
 10
191.1297070294598939
 20
13.2961820451144703
 30
0.0
 40
0.3653447549852908
 50
305.4800398297945776
 51
343.7318319643765108
  0
ARC
  5
2855
  8
0
 10
187.8967624934213063
 20
17.8500541918358415
 30
0.0
 40
5.9501164708147991
 50
302.265329060801605
 51
305.3788243642310931
  0
ARC
  5
2856
  8
0
 10
191.4594115308339042
 20
12.20163691565158
 30
0.0
 40
0.7279934021170127
 50
122.0423830919919936
 51
149.3558400401716995
  0
ARC
  5
2857
  8
0
 10
191.1654416825626868
 20
12.3943869810055496
 30
0.0
 40
0.3771702940015784
 50
151.7863025809895987
 51
177.1589846951941922
  0
ARC
  5
2858
  8
0
 10
191.2751366933053134
 20
12.4343605536922404
 30
0.0
 40
0.4868669710453074
 50
182.5049922183632134
 51
205.4182930768363065
  0
ARC
  5
2859
  8
0
 10
192.5634478342354043
 20
13.2455203264255701
 30
0.0
 40
2.006695364803126
 50
210.55501231929901
 51
215.5337408968613033
  0
ARC
  5
285A
  8
0
 10
190.593933075220491
 20
11.8605782223281704
 30
0.0
 40
0.4013340700106047
 50
0.251954149539261
 51
33.0177252701743171
  0
ARC
  5
285B
  8
0
 10
192.3795931606479996
 20
15.8186150684717699
 30
0.0
 40
0.7362139568695713
 50
92.6634306002443537
 51
105.9651226310815986
  0
ARC
  5
285C
  8
0
 10
192.2519204706466951
 20
16.2911514220521809
 30
0.0
 40
0.2468927145593211
 50
107.6417897058649942
 51
153.6492209349848963
  0
ARC
  5
285D
  8
0
 10
192.1598667159749994
 20
16.3401448660750788
 30
0.0
 40
0.1426899067047495
 50
154.8712867289341091
 51
216.2024282375583084
  0
ARC
  5
285E
  8
0
 10
192.1768893751751079
 20
16.358002937335069
 30
0.0
 40
0.1670305908783058
 50
217.6968334479275882
 51
245.8905605661674088
  0
ARC
  5
285F
  8
0
 10
192.0984335868321011
 20
16.1798657714330112
 30
0.0
 40
0.0276388955141684
 50
356.8485476422031866
 51
68.2830431216477081
  0
ARC
  5
2860
  8
0
 10
192.1547541446784066
 20
16.1509647731829311
 30
0.0
 40
0.028732715772931
 50
178.5456961061379957
 51
241.120203529663911
  0
ARC
  5
2861
  8
0
 10
192.0970646767997039
 20
15.8297139111017593
 30
0.0
 40
0.028475227811164
 50
97.5727849069182156
 51
182.6114503237058102
  0
ARC
  5
2862
  8
0
 10
192.0395020382667894
 20
15.8017524859166301
 30
0.0
 40
0.0291268736262125
 50
277.1516740294575243
 51
1.493212385783659
  0
ARC
  5
2863
  8
0
 10
191.8857015940691042
 20
15.6145067695890596
 30
0.0
 40
0.0283082512076255
 50
154.8375632564695081
 51
258.9992089664855826
  0
ARC
  5
2864
  8
0
 10
192.0593811064499903
 20
15.4060086154103892
 30
0.0
 40
0.0289710264969904
 50
181.9799936517532046
 51
271.9803145711081243
  0
ARC
  5
2865
  8
0
 10
192.0603180534735941
 20
15.3469908707202691
 30
0.0
 40
0.0300640893920461
 50
0.0809477761948359
 51
89.8776874121214036
  0
ARC
  5
2866
  8
0
 10
192.1226609344730036
 20
15.3090116275832102
 30
0.0
 40
0.0323591086325002
 50
184.0369359883250127
 51
265.9506951090572215
  0
ARC
  5
2867
  8
0
 10
192.0274084001345045
 20
15.0734526403638096
 30
0.0
 40
0.1118643568449453
 50
12.3285194178419601
 51
67.4084527648641512
  0
ARC
  5
2868
  8
0
 10
191.1907943273459125
 20
14.90034565360404
 30
0.0
 40
0.9661937143557139
 50
355.1973643692614928
 51
11.7642048280164708
  0
ARC
  5
2869
  8
0
 10
187.4044051798794044
 20
15.0003060720958601
 30
0.0
 40
4.7526328579610011
 50
355.6788026454283909
 51
357.8191757485395783
  0
ARC
  5
286A
  8
0
 10
192.3620105526269981
 20
14.1910032445145706
 30
0.0
 40
0.5013172285753023
 50
91.9008207853134991
 51
115.8373088406860063
  0
ARC
  5
286B
  8
0
 10
192.3331846492467037
 20
14.2552942709669601
 30
0.0
 40
0.430895212379992
 50
116.1131959459658987
 51
179.5002190784271079
  0
LINE
  5
286C
  8
0
 10
191.902305829661401
 20
14.2590528458084709
 30
0.0
 11
191.8929733426614064
 21
13.7696581663084796
 31
0.0
  0
ARC
  5
286D
  8
0
 10
192.0812610817181962
 20
13.6668708919856101
 30
0.0
 40
0.2145168908077577
 50
145.8802475253019963
 51
158.6524811505875903
  0
ARC
  5
286E
  8
0
 10
192.1965391018225091
 20
13.6216817535407007
 30
0.0
 40
0.336405076707685
 50
104.7506235579265024
 51
150.5267825781290867
  0
ARC
  5
286F
  8
0
 10
192.3411681162471041
 20
13.2476445707759698
 30
0.0
 40
0.7362932622973724
 50
89.672079657140813
 51
108.2255466551830949
  0
ARC
  5
2870
  8
0
 10
192.2644896994364956
 20
13.1991038610554696
 30
0.0
 40
0.666835134765188
 50
102.0402052183467987
 51
125.0573439977517012
  0
ARC
  5
2871
  8
0
 10
192.3434667784509884
 20
12.8907602832045391
 30
0.0
 40
0.9849548076417246
 50
89.8885830635189791
 51
102.7917864092855069
  0
ARC
  5
2872
  8
0
 10
192.0279034245220089
 20
13.5200201352830902
 30
0.0
 40
0.2684083098466621
 50
123.0650583706550947
 51
176.3999075357374977
  0
ARC
  5
2873
  8
0
 10
192.0037035755098884
 20
13.5117687945863203
 30
0.0
 40
0.2438074487426552
 50
181.8614637143201946
 51
228.7582173288523109
  0
ARC
  5
2874
  8
0
 10
192.1641323881250969
 20
13.6685488097311794
 30
0.0
 40
0.4677756474141577
 50
226.6416016948556091
 51
244.2971008093776959
  0
ARC
  5
2875
  8
0
 10
192.3195832509086074
 20
13.0072865643536293
 30
0.0
 40
0.7908718027230055
 50
88.1306348471465952
 51
122.5122243820739953
  0
ARC
  5
2876
  8
0
 10
192.0348174861036057
 20
13.4543920764268297
 30
0.0
 40
0.260782387408955
 50
122.5503884320678054
 51
170.9707959879754071
  0
ARC
  5
2877
  8
0
 10
191.9751328176594996
 20
13.4836093241715602
 30
0.0
 40
0.1982123958761126
 50
176.6132832491595934
 51
219.8323109547746981
  0
ARC
  5
2878
  8
0
 10
192.1309356179895929
 20
13.6075267588507707
 30
0.0
 40
0.3972583790936733
 50
219.1631652103561976
 51
244.6712102984745911
  0
ARC
  5
2879
  8
0
 10
191.2075139042237026
 20
14.0798017974176499
 30
0.0
 40
0.7746217112286159
 50
291.0212834197947132
 51
315.5012237974287927
  0
ARC
  5
287A
  8
0
 10
190.9553958858608098
 20
13.7285603831021703
 30
0.0
 40
0.9735986306984235
 50
329.3162056430845723
 51
335.7342840117922265
  0
ARC
  5
287B
  8
0
 10
192.3365802601483949
 20
13.5674668052245195
 30
0.0
 40
0.5056257570598943
 50
243.3195134341013102
 51
270.9974461924779234
  0
ARC
  5
287C
  8
0
 10
192.1895744320740107
 20
13.2871611252555102
 30
0.0
 40
0.1892377310512423
 50
203.6296427610020885
 51
244.9825416747187887
  0
ARC
  5
287D
  8
0
 10
192.1249733027732134
 20
13.2489838929706192
 30
0.0
 40
0.115109627208881
 50
137.8400473042954957
 51
199.1040486406708112
  0
ARC
  5
287E
  8
0
 10
192.266671115708192
 20
13.1119902635803207
 30
0.0
 40
0.3121634800515999
 50
103.4902846946911978
 51
136.6575978143098098
  0
ARC
  5
287F
  8
0
 10
192.3432719579083141
 20
12.8697703863876107
 30
0.0
 40
0.5658556675794933
 50
89.7863355267368632
 51
105.311382647588502
  0
ARC
  5
2880
  8
0
 10
192.3385579198437938
 20
13.64573470081835
 30
0.0
 40
0.5207496402804646
 50
245.9665838271536131
 51
270.750857264360377
  0
ARC
  5
2881
  8
0
 10
192.2006531723459943
 20
13.3577657755853103
 30
0.0
 40
0.2017672146524442
 50
202.5143356279301941
 51
248.4289607876320076
  0
ARC
  5
2882
  8
0
 10
192.3190366729774894
 20
13.5979586135026906
 30
0.0
 40
0.4454992384247884
 50
227.8642033233525979
 51
273.3902722876920848
  0
ARC
  5
2883
  8
0
 10
192.3284888988976036
 20
13.7849648958916493
 30
0.0
 40
0.5766678168782516
 50
237.7232690814603018
 51
271.678693220199591
  0
ARC
  5
2884
  8
0
 10
192.3417681191095028
 20
13.8650620048914295
 30
0.0
 40
0.6195114474820964
 50
240.6838458896868076
 51
270.334243643900777
  0
ARC
  5
2885
  8
0
 10
192.3425724174161928
 20
13.8952716290783709
 30
0.0
 40
0.6278490996030028
 50
242.437689905221788
 51
270.2564059232773275
  0
ARC
  5
2886
  8
0
 10
192.3437661479428016
 20
13.9160628861186293
 30
0.0
 40
0.6358748262185256
 50
243.5744889189217872
 51
270.1456073829630213
  0
ARC
  5
2887
  8
0
 10
192.3449307505871104
 20
13.9562600168997903
 30
0.0
 40
0.6700400694077081
 50
245.1072333140593003
 51
270.0385964310029863
  0
ARC
  5
2888
  8
0
 10
192.3360957107942966
 20
13.92426699624931
 30
0.0
 40
0.6282767588864493
 50
244.9985482169335
 51
270.846905465396901
  0
ARC
  5
2889
  8
0
 10
192.3357023140453919
 20
13.8865101381432101
 30
0.0
 40
0.5724606453762703
 50
244.5935103227486991
 51
270.9688666906208141
  0
ARC
  5
288A
  8
0
 10
192.3375771979962963
 20
13.8951778504036998
 30
0.0
 40
0.5672287233057932
 50
245.6677330295042907
 51
270.7883994147576914
  0
ARC
  5
288B
  8
0
 10
192.3341418084291945
 20
12.9124575692007006
 30
0.0
 40
0.5743088894876877
 50
88.8785422972938761
 51
117.7212087250535006
  0
ARC
  5
288C
  8
0
 10
192.1637967768313899
 20
13.2288739231459402
 30
0.0
 40
0.2150012124463791
 50
116.7602610781761001
 51
156.5795906567811926
  0
ARC
  5
288D
  8
0
 10
192.0828036650461001
 20
13.2714086606148793
 30
0.0
 40
0.1239631119857991
 50
159.7415880484867898
 51
191.328931663753508
  0
ARC
  5
288E
  8
0
 10
192.164615036928609
 20
13.2979353378268392
 30
0.0
 40
0.2096271076203479
 50
194.0464166803365913
 51
247.0790899670512033
  0
ARC
  5
288F
  8
0
 10
192.312358543269994
 20
13.5452886525727596
 30
0.0
 40
0.4965834337102047
 50
242.4885277779144133
 51
259.8969679994330022
  0
ARC
  5
2890
  8
0
 10
192.3445950790394079
 20
13.6963680041623803
 30
0.0
 40
0.6509960738265038
 50
259.4362607742231148
 51
270.0692688161083197
  0
LINE
  5
2891
  8
0
 10
192.9307394392614015
 20
13.5038492080084698
 30
0.0
 11
192.93073944136151
 21
13.5368740648084707
 31
0.0
  0
LINE
  5
2892
  8
0
 10
192.6221452047614093
 20
15.8025114892084702
 30
0.0
 11
192.6221452047614093
 21
15.8284165049084802
 31
0.0
  0
LINE
  5
2893
  8
0
 10
192.6003821128614959
 20
15.3067335611084694
 30
0.0
 11
192.6003821128614959
 21
15.3470333454084695
 31
0.0
  0
LINE
  5
2894
  8
0
 10
192.5647335415615089
 20
16.1516939999084705
 30
0.0
 11
192.5647335415615089
 21
16.1783463096084716
 31
0.0
  0
LINE
  5
2895
  8
0
 10
193.2053821128614004
 20
13.2317332985084697
 30
0.0
 11
192.898076788661399
 21
13.2317332985084697
 31
0.0
  0
LINE
  5
2896
  8
0
 10
192.875225649663804
 20
13.3567332985084697
 30
0.0
 11
193.2053821128614004
 21
13.3567332985084697
 31
0.0
  0
LINE
  5
2897
  8
0
 10
192.3453821128615004
 20
16.1258054049084691
 30
0.0
 11
192.5498872256615073
 21
16.1258054049084691
 31
0.0
  0
ARC
  5
2898
  8
0
 10
193.2053821128614004
 20
13.2942332985084697
 30
0.0
 40
0.0625
 50
270.0
 51
90.0000000000993339
  0
ARC
  5
2899
  8
0
 10
192.6116937675232066
 20
15.5402242511917805
 30
0.0
 40
0.2353882210373207
 50
21.512745981165061
 51
81.2169542071566468
  0
ARC
  5
289A
  8
0
 10
192.8617096544743106
 20
15.3915082931817402
 30
0.0
 40
0.201824774436134
 50
104.7091640824162937
 51
176.164821116580697
  0
ARC
  5
289B
  8
0
 10
192.623101425461499
 20
16.0006507284084698
 30
0.0
 40
0.1449965934
 50
120.3271955356999001
 51
259.8110134022999205
  0
ARC
  5
289C
  8
0
 10
192.6203821128613924
 20
15.2267332985084707
 30
0.0
 40
0.05
 50
270.0
 51
90.0
  0
ARC
  5
289D
  8
0
 10
193.16163647357061
 20
13.1814887504843998
 30
0.0
 40
0.0502449113388725
 50
14.2265494843736597
 51
89.7821119577367455
  0
ARC
  5
289E
  8
0
 10
193.5610571962629933
 20
13.2961820451144703
 30
0.0
 40
0.3653447549852908
 50
196.2681680356232903
 51
234.5199601702040866
  0
ARC
  5
289F
  8
0
 10
196.7940017323016093
 20
17.8500541918358415
 30
0.0
 40
5.9501164708147991
 50
234.6211756357702996
 51
237.734670939198395
  0
ARC
  5
28A0
  8
0
 10
193.2313526948890114
 20
12.20163691565158
 30
0.0
 40
0.7279934021170127
 50
30.6441599598282508
 51
57.9576169080078998
  0
ARC
  5
28A1
  8
0
 10
193.5253225431602004
 20
12.3943869810055496
 30
0.0
 40
0.3771702940015784
 50
2.8410153048057638
 51
28.2136974190104013
  0
ARC
  5
28A2
  8
0
 10
193.4156275324176022
 20
12.4343605536922404
 30
0.0
 40
0.4868669710453074
 50
334.5817069231636083
 51
357.4950077816367866
  0
ARC
  5
28A3
  8
0
 10
192.1273163914875113
 20
13.2455203264255701
 30
0.0
 40
2.006695364803126
 50
324.4662591031386114
 51
329.4449876807008764
  0
ARC
  5
28A4
  8
0
 10
194.0968311505023962
 20
11.8605782223281704
 30
0.0
 40
0.4013340700106047
 50
146.98227472982569
 51
179.7480458504606986
  0
ARC
  5
28A5
  8
0
 10
192.3111710650748876
 20
15.8186150684717699
 30
0.0
 40
0.7362139568695713
 50
74.0348773689183872
 51
87.336569399755632
  0
ARC
  5
28A6
  8
0
 10
192.4388437550761921
 20
16.2911514220521809
 30
0.0
 40
0.2468927145593211
 50
26.3507790650151108
 51
72.3582102941334
  0
ARC
  5
28A7
  8
0
 10
192.5308975097478879
 20
16.3401448660750788
 30
0.0
 40
0.1426899067047495
 50
323.7975717624415779
 51
25.1287132710658909
  0
ARC
  5
28A8
  8
0
 10
192.5138748505478077
 20
16.358002937335069
 30
0.0
 40
0.1670305908783058
 50
294.1094394338310281
 51
322.3031665520713887
  0
ARC
  5
28A9
  8
0
 10
192.5923306388907861
 20
16.1798657714330112
 30
0.0
 40
0.0276388955141684
 50
111.7169568783522067
 51
183.1514523577966997
  0
ARC
  5
28AA
  8
0
 10
192.536010081044509
 20
16.1509647731829311
 30
0.0
 40
0.028732715772931
 50
298.879796470336089
 51
1.454303893861957
  0
ARC
  5
28AB
  8
0
 10
192.5936995489232118
 20
15.8297139111017593
 30
0.0
 40
0.028475227811164
 50
357.3885496762941898
 51
82.4272150930817986
  0
ARC
  5
28AC
  8
0
 10
192.6512621874560978
 20
15.8017524859166301
 30
0.0
 40
0.0291268736262125
 50
178.5067876142163072
 51
262.8483259705441242
  0
ARC
  5
28AD
  8
0
 10
192.8050619386538074
 20
15.6145067695890596
 30
0.0
 40
0.0283082512076255
 50
281.0007910335144174
 51
25.1624367435304386
  0
ARC
  5
28AE
  8
0
 10
192.6313831192728969
 20
15.4060086154103892
 30
0.0
 40
0.0289710264969904
 50
268.0196854288918757
 51
358.0200063482467954
  0
ARC
  5
28AF
  8
0
 10
192.6304461722492078
 20
15.3469908707202691
 30
0.0
 40
0.0300640893920461
 50
90.1223125878785822
 51
179.9190522238052097
  0
ARC
  5
28B0
  8
0
 10
192.5681032912499973
 20
15.3090116275832102
 30
0.0
 40
0.0323591086325002
 50
274.0493048909427785
 51
355.9630640116748737
  0
ARC
  5
28B1
  8
0
 10
192.6633558255884111
 20
15.0734526403638096
 30
0.0
 40
0.1118643568449453
 50
112.5915472351358062
 51
167.6714805821580114
  0
ARC
  5
28B2
  8
0
 10
193.4999698983770031
 20
14.90034565360404
 30
0.0
 40
0.9661937143557139
 50
168.2357951719835114
 51
184.8026356307383935
  0
ARC
  5
28B3
  8
0
 10
197.2863590458435112
 20
15.0003060720958601
 30
0.0
 40
4.7526328579610011
 50
182.180824251460507
 51
184.3211973545716091
  0
ARC
  5
28B4
  8
0
 10
192.3287536730958891
 20
14.1910032445145706
 30
0.0
 40
0.5013172285753043
 50
64.1626911593139937
 51
88.0991792146865151
  0
ARC
  5
28B5
  8
0
 10
192.357579576476212
 20
14.2552942709669601
 30
0.0
 40
0.430895212379992
 50
0.499780921572849
 51
63.8868040540340374
  0
LINE
  5
28B6
  8
0
 10
192.7884583960614009
 20
14.2590528458084709
 30
0.0
 11
192.7977908830613956
 21
13.7696581663084796
 31
0.0
  0
ARC
  5
28B7
  8
0
 10
192.609503144004691
 20
13.6668708919856101
 30
0.0
 40
0.2145168908077577
 50
21.3475188494124311
 51
34.1197524746979468
  0
ARC
  5
28B8
  8
0
 10
192.4942251239004065
 20
13.6216817535407007
 30
0.0
 40
0.336405076707685
 50
29.4732174218708707
 51
75.2493764420734124
  0
ARC
  5
28B9
  8
0
 10
192.3495961094758115
 20
13.2476445707759698
 30
0.0
 40
0.7362932622973724
 50
71.7744533448168909
 51
90.327920342859187
  0
ARC
  5
28BA
  8
0
 10
192.4262745262863916
 20
13.1991038610554696
 30
0.0
 40
0.666835134765188
 50
54.9426560022482775
 51
77.9597947816531303
  0
ARC
  5
28BB
  8
0
 10
192.3472974472718988
 20
12.8907602832045391
 30
0.0
 40
0.9849548076417246
 50
77.2082135907145215
 51
90.1114169364810067
  0
ARC
  5
28BC
  8
0
 10
192.662860801200793
 20
13.5200201352830902
 30
0.0
 40
0.2684083098466621
 50
3.6000924642624872
 51
56.9349416293448911
  0
ARC
  5
28BD
  8
0
 10
192.6870606502129988
 20
13.5117687945863203
 30
0.0
 40
0.2438074487426552
 50
311.2417826711475755
 51
358.1385362856797201
  0
ARC
  5
28BE
  8
0
 10
192.5266318375977903
 20
13.6685488097311794
 30
0.0
 40
0.4677756474141577
 50
295.7028991906223041
 51
313.3583983051443056
  0
ARC
  5
28BF
  8
0
 10
192.3711809748143082
 20
13.0072865643536293
 30
0.0
 40
0.7908718027230055
 50
57.487775617925962
 51
91.8693651528534332
  0
ARC
  5
28C0
  8
0
 10
192.6559467396193099
 20
13.4543920764268297
 30
0.0
 40
0.260782387408955
 50
9.0292040120245503
 51
57.449611567932152
  0
ARC
  5
28C1
  8
0
 10
192.7156314080633877
 20
13.4836093241715602
 30
0.0
 40
0.1982123958761126
 50
320.1676890452253019
 51
3.386716750840348
  0
ARC
  5
28C2
  8
0
 10
192.5598286077332943
 20
13.6075267588507707
 30
0.0
 40
0.3972583790936733
 50
295.3287897015254089
 51
320.836834789643774
  0
ARC
  5
28C3
  8
0
 10
193.483250321499213
 20
14.0798017974176499
 30
0.0
 40
0.7746217112286159
 50
224.4987762025710936
 51
248.9787165802052016
  0
ARC
  5
28C4
  8
0
 10
193.7353683398621058
 20
13.7285603831021703
 30
0.0
 40
0.9735986306984235
 50
204.265715988207802
 51
210.6837943569153992
  0
ARC
  5
28C5
  8
0
 10
192.3541839655744923
 20
13.5674668052245195
 30
0.0
 40
0.5056257570598943
 50
269.0025538075221903
 51
296.6804865658986046
  0
ARC
  5
28C6
  8
0
 10
192.5011897936489049
 20
13.2871611252555102
 30
0.0
 40
0.1892377310512423
 50
295.0174583252810976
 51
336.3703572389978831
  0
ARC
  5
28C7
  8
0
 10
192.5657909229497022
 20
13.2489838929706192
 30
0.0
 40
0.115109627208881
 50
340.8959513593292172
 51
42.159952695704483
  0
ARC
  5
28C8
  8
0
 10
192.4240931100146952
 20
13.1119902635803207
 30
0.0
 40
0.3121634800515999
 50
43.3424021856902328
 51
76.5097153053071537
  0
ARC
  5
28C9
  8
0
 10
192.3474922678146015
 20
12.8697703863876107
 30
0.0
 40
0.5658556675794933
 50
74.6886173524114554
 51
90.2136644732631368
  0
ARC
  5
28CA
  8
0
 10
192.3522063058790934
 20
13.64573470081835
 30
0.0
 40
0.5207496402804646
 50
269.2491427356395093
 51
294.0334161728462732
  0
ARC
  5
28CB
  8
0
 10
192.4901110533768929
 20
13.3577657755853103
 30
0.0
 40
0.2017672146524442
 50
291.5710392123680208
 51
337.4856643720692091
  0
ARC
  5
28CC
  8
0
 10
192.3717275527455115
 20
13.5979586135026906
 30
0.0
 40
0.4454992384247884
 50
266.6097277123078015
 51
312.1357966766473737
  0
ARC
  5
28CD
  8
0
 10
192.362275326825312
 20
13.7849648958916493
 30
0.0
 40
0.5766678168782516
 50
268.321306779800409
 51
302.2767309185380782
  0
ARC
  5
28CE
  8
0
 10
192.3489961066134128
 20
13.8650620048914295
 30
0.0
 40
0.6195114474820964
 50
269.665756356099223
 51
299.3161541103132208
  0
ARC
  5
28CF
  8
0
 10
192.3481918083066944
 20
13.8952716290783709
 30
0.0
 40
0.6278490996030028
 50
269.7435940767226157
 51
297.5623100947781836
  0
ARC
  5
28D0
  8
0
 10
192.346998077780114
 20
13.9160628861186293
 30
0.0
 40
0.6358748262185256
 50
269.8543926170369787
 51
296.4255110810781844
  0
ARC
  5
28D1
  8
0
 10
192.3458334751358052
 20
13.9562600168997903
 30
0.0
 40
0.6700400694077081
 50
269.9614035689970137
 51
294.8927666859407282
  0
ARC
  5
28D2
  8
0
 10
192.3546685149285906
 20
13.92426699624931
 30
0.0
 40
0.6282767588864493
 50
269.153094534603099
 51
295.0014517830666136
  0
ARC
  5
28D3
  8
0
 10
192.3550619116774953
 20
13.8865101381432101
 30
0.0
 40
0.5724606453762703
 50
269.0311333093791859
 51
295.4064896772513862
  0
ARC
  5
28D4
  8
0
 10
192.3531870277265909
 20
13.8951778504036998
 30
0.0
 40
0.5672287233057932
 50
269.211600585240717
 51
294.3322669704957093
  0
ARC
  5
28D5
  8
0
 10
192.3566224172936927
 20
12.9124575692007006
 30
0.0
 40
0.5743088894876877
 50
62.2787912749464496
 51
91.1214577027061239
  0
ARC
  5
28D6
  8
0
 10
192.5269674488914973
 20
13.2288739231459402
 30
0.0
 40
0.2150012124463791
 50
23.4204093432186795
 51
63.2397389218238928
  0
ARC
  5
28D7
  8
0
 10
192.6079605606767871
 20
13.2714086606148793
 30
0.0
 40
0.1239631119857991
 50
348.6710683362463783
 51
20.2584119515131604
  0
ARC
  5
28D8
  8
0
 10
192.5261491887943066
 20
13.2979353378268392
 30
0.0
 40
0.2096271076203479
 50
292.9209100329488251
 51
345.9535833196633234
  0
ARC
  5
28D9
  8
0
 10
192.3784056824528932
 20
13.5452886525727596
 30
0.0
 40
0.4965834337102047
 50
280.1030320005668841
 51
297.5114722220856152
  0
ARC
  5
28DA
  8
0
 10
192.3461691466835077
 20
13.6963680041623803
 30
0.0
 40
0.6509960738265038
 50
269.9307311838916235
 51
280.5637392257768852
  0
ENDSEC
  0
EOF
