  0
SECTION
  2
HEADER
  9
$ACADVER
  1
AC1009
  9
$INSBASE
 10
204.7405897410471027
 20
12.4386255354976498
 30
0.0
  9
$EXTMIN
 10
199.0320089834744124
 20
12.4376196194979105
 30
-0.0015258207003583
  9
$EXTMAX
 10
206.3035330623216055
 20
17.1308390172458687
 30
0.0000000349246037
  9
$LIMMIN
 10
0.0
 20
0.0
  9
$LIMMAX
 10
11.6929133858000007
 20
8.2677165353999982
  9
$ORTHOMODE
 70
     1
  9
$REGENMODE
 70
     1
  9
$FILLMODE
 70
     1
  9
$QTEXTMODE
 70
     0
  9
$MIRRTEXT
 70
     0
  9
$DRAGMODE
 70
     2
  9
$LTSCALE
 40
0.6431102362
  9
$OSMODE
 70
  4095
  9
$ATTMODE
 70
     1
  9
$TEXTSIZE
 40
0.2
  9
$TRACEWID
 40
0.05
  9
$TEXTSTYLE
  7
STANDARD
  9
$CLAYER
  8
0
  9
$CELTYPE
  6
BYLAYER
  9
$CECOLOR
 62
   256
  9
$DIMSCALE
 40
1.0
  9
$DIMASZ
 40
0.1875
  9
$DIMEXO
 40
0.0625
  9
$DIMDLI
 40
0.4443307087
  9
$DIMRND
 40
0.0
  9
$DIMDLE
 40
0.0
  9
$DIMEXE
 40
0.125
  9
$DIMTP
 40
0.01
  9
$DIMTM
 40
0.01
  9
$DIMTXT
 40
1.0
  9
$DIMCEN
 40
0.1052362205
  9
$DIMTSZ
 40
0.0
  9
$DIMTOL
 70
     1
  9
$DIMLIM
 70
     0
  9
$DIMTIH
 70
     1
  9
$DIMTOH
 70
     1
  9
$DIMSE1
 70
     0
  9
$DIMSE2
 70
     0
  9
$DIMTAD
 70
     0
  9
$DIMZIN
 70
     0
  9
$DIMBLK
  1

  9
$DIMASO
 70
     1
  9
$DIMSHO
 70
     1
  9
$DIMPOST
  1
\X
  9
$DIMAPOST
  1

  9
$DIMALT
 70
     1
  9
$DIMALTD
 70
     2
  9
$DIMALTF
 40
25.3999999999999986
  9
$DIMLFAC
 40
1.0
  9
$DIMTOFL
 70
     0
  9
$DIMTVP
 40
0.0
  9
$DIMTIX
 70
     0
  9
$DIMSOXD
 70
     0
  9
$DIMSAH
 70
     0
  9
$DIMBLK1
  1

  9
$DIMBLK2
  1

  9
$DIMSTYLE
  2
STANDARD
  9
$DIMCLRD
 70
     0
  9
$DIMCLRE
 70
     0
  9
$DIMCLRT
 70
     0
  9
$DIMTFAC
 40
1.0
  9
$DIMGAP
 40
0.09
  9
$LUNITS
 70
     2
  9
$LUPREC
 70
     4
  9
$SKETCHINC
 40
0.1
  9
$FILLETRAD
 40
0.0
  9
$AUNITS
 70
     0
  9
$AUPREC
 70
     0
  9
$MENU
  1
.
  9
$ELEVATION
 40
0.0
  9
$PELEVATION
 40
0.0
  9
$THICKNESS
 40
0.0
  9
$LIMCHECK
 70
     0
  9
$BLIPMODE
 70
     0
  9
$CHAMFERA
 40
0.0
  9
$CHAMFERB
 40
0.0
  9
$SKPOLY
 70
     0
  9
$TDCREATE
 40
2458172.4620254631154239
  9
$TDUPDATE
 40
2459031.6658217590302229
  9
$TDINDWG
 40
0.105790544
  9
$TDUSRTIMER
 40
0.105790544
  9
$USRTIMER
 70
     1
  9
$ANGBASE
 50
0.0
  9
$ANGDIR
 70
     0
  9
$PDMODE
 70
     0
  9
$PDSIZE
 40
0.3125
  9
$PLINEWID
 40
0.0
  9
$COORDS
 70
     1
  9
$SPLFRAME
 70
     0
  9
$SPLINETYPE
 70
     6
  9
$SPLINESEGS
 70
     8
  9
$ATTDIA
 70
     1
  9
$ATTREQ
 70
     1
  9
$HANDLING
 70
     1
  9
$HANDSEED
  5
2B0B
  9
$SURFTAB1
 70
     6
  9
$SURFTAB2
 70
     6
  9
$SURFTYPE
 70
     6
  9
$SURFU
 70
     6
  9
$SURFV
 70
     6
  9
$UCSNAME
  2

  9
$UCSORG
 10
0.0
 20
0.0
 30
0.0
  9
$UCSXDIR
 10
1.0
 20
0.0
 30
0.0
  9
$UCSYDIR
 10
0.0
 20
1.0
 30
0.0
  9
$PUCSNAME
  2

  9
$PUCSORG
 10
0.0
 20
0.0
 30
0.0
  9
$PUCSXDIR
 10
1.0
 20
0.0
 30
0.0
  9
$PUCSYDIR
 10
0.0
 20
1.0
 30
0.0
  9
$USERI1
 70
     0
  9
$USERI2
 70
     0
  9
$USERI3
 70
     0
  9
$USERI4
 70
     0
  9
$USERI5
 70
     0
  9
$USERR1
 40
0.0
  9
$USERR2
 40
0.0
  9
$USERR3
 40
0.0
  9
$USERR4
 40
0.0
  9
$USERR5
 40
0.0
  9
$WORLDVIEW
 70
     1
  9
$SHADEDGE
 70
     3
  9
$SHADEDIF
 70
    70
  9
$TILEMODE
 70
     1
  9
$MAXACTVP
 70
    64
  9
$PLIMCHECK
 70
     0
  9
$PEXTMIN
 10
1.0000000000000000E+20
 20
1.0000000000000000E+20
 30
1.0000000000000000E+20
  9
$PEXTMAX
 10
-1.0000000000000000E+20
 20
-1.0000000000000000E+20
 30
-1.0000000000000000E+20
  9
$PLIMMIN
 10
0.0
 20
0.0
  9
$PLIMMAX
 10
12.0
 20
9.0
  9
$UNITMODE
 70
     0
  9
$VISRETAIN
 70
     1
  9
$PLINEGEN
 70
     0
  9
$PSLTSCALE
 70
     1
  0
ENDSEC
  0
SECTION
  2
TABLES
  0
TABLE
  2
VPORT
 70
     1
  0
VPORT
  2
*ACTIVE
 70
     0
 10
0.0
 20
0.0
 11
1.0
 21
1.0
 12
-0.0015835958372461
 22
-0.0002415501757653
 13
0.0
 23
0.0
 14
1.0
 24
1.0
 15
0.0
 25
0.0
 16
0.0
 26
0.0
 36
25.0543030530933208
 17
202.6693546187352126
 27
14.7844708685476505
 37
0.0
 40
4.7226132561889704
 41
2.005224660397074
 42
50.0
 43
0.0
 44
0.0
 50
0.0
 51
0.0
 71
     0
 72
   100
 73
     1
 74
     1
 75
     0
 76
     0
 77
     0
 78
     0
  0
ENDTAB
  0
TABLE
  2
LTYPE
 70
     2
  0
LTYPE
  2
CONTINUOUS
 70
     0
  3
Solid line
 72
    65
 73
     0
 40
0.0
  0
LTYPE
  2
PHANTOM2
 70
     0
  3
___ _ _ ___ _ _ ___ _ _ ___ _ _
 72
    65
 73
     6
 40
1.25
 49
0.625
 49
-0.125
 49
0.125
 49
-0.125
 49
0.125
 49
-0.125
  0
ENDTAB
  0
TABLE
  2
LAYER
 70
     2
  0
LAYER
  2
0
 70
     0
 62
   255
  6
CONTINUOUS
  0
LAYER
  2
DEFPOINTS
 70
     0
 62
     7
  6
CONTINUOUS
  0
ENDTAB
  0
TABLE
  2
STYLE
 70
     1
  0
STYLE
  2
STANDARD
 70
     0
 40
0.0
 41
0.8
 50
0.0
 71
     0
 42
0.2
  3
txt
  4

  0
ENDTAB
  0
TABLE
  2
VIEW
 70
     0
  0
ENDTAB
  0
TABLE
  2
UCS
 70
     0
  0
ENDTAB
  0
TABLE
  2
APPID
 70
     9
  0
APPID
  2
ACAD
 70
     0
  0
APPID
  2
ACAD_MLEADERVER
 70
     0
  0
APPID
  2
ACAD_EXEMPT_FROM_CAD_STANDARDS
 70
     0
  0
APPID
  2
ACAD_DSTYLE_DIMJAG
 70
     0
  0
APPID
  2
ACAD_DSTYLE_DIMTALN
 70
     0
  0
APPID
  2
ACAD_NAV_VCDISPLAY
 70
     0
  0
APPID
  2
ACAECLAYERSTANDARD
 70
     0
  0
APPID
  2
ACCMTRANSPARENCY
 70
     0
  0
APPID
  2
ACDBATTR
 70
     0
  0
ENDTAB
  0
TABLE
  2
DIMSTYLE
 70
     1
  0
DIMSTYLE
  2
STANDARD
 70
     0
  3

  4

  5

  6

  7

 40
1.0
 41
0.1875
 42
0.0625
 43
0.38
 44
0.125
 45
0.0
 46
0.0
 47
0.01
 48
0.01
140
0.15625
141
0.09
142
0.0
143
25.3999999999999986
144
1.0
145
0.0
146
1.0
147
0.09
 71
     1
 72
     0
 73
     1
 74
     1
 75
     0
 76
     0
 77
     0
 78
     4
170
     0
171
     2
172
     0
173
     0
174
     0
175
     0
176
     0
177
     0
178
     0
  0
ENDTAB
  0
ENDSEC
  0
SECTION
  2
BLOCKS
  0
BLOCK
  8
0
  2
$MODEL_SPACE
 70
     0
 10
0.0
 20
0.0
 30
0.0
  3
$MODEL_SPACE
  1

  0
ENDBLK
  5
21
  8
0
  0
BLOCK
 67
     1
  8
0
  2
$PAPER_SPACE
 70
     0
 10
0.0
 20
0.0
 30
0.0
  3
$PAPER_SPACE
  1

  0
ENDBLK
  5
1D
 67
     1
  8
0
  0
ENDSEC
  0
SECTION
  2
ENTITIES
  0
ATTDEF
  5
157D
  8
DEFPOINTS
 10
204.7370393765667984
 20
12.4532399520316499
 30
0.0
 40
0.001
  1
K-72758T
  3

  2
MODELNUMBER
 70
     0
1001
ACDBATTR
1070
     0
1070
     1
  0
ATTDEF
  5
157E
  8
DEFPOINTS
 10
204.7370393765667984
 20
12.4515732853649901
 30
0.0
 40
0.001
  1
ARTIFACTS
  3

  2
TRADENAME
 70
     0
1001
ACDBATTR
1070
     0
1070
     1
  0
ATTDEF
  5
157F
  8
DEFPOINTS
 10
204.7370393765667984
 20
12.4499066186983196
 30
0.0
 40
0.001
  1
BATHROOM SINK SPOUT
  3

  2
PRODUCT
 70
     0
1001
ACDBATTR
1070
     0
1070
     1
  0
LINE
  5
299D
  8
0
 10
199.0686191420471118
 20
14.4386791844976496
 30
0.0
 11
199.0465217166471064
 21
14.4056543277976505
 31
0.0
  0
LINE
  5
299E
  8
0
 10
200.0416118955471063
 20
13.7876351854976509
 30
0.0
 11
200.0195144701471008
 21
13.75461032869765
 31
0.0
  0
LINE
  5
299F
  8
0
 10
199.0659326337058133
 20
14.0233831613123794
 30
0.0
 11
199.6587479288058091
 21
13.6267215839123796
 31
0.0
  0
LINE
  5
29A0
  8
0
 10
199.0454459429471115
 20
14.3740202270976507
 30
0.0
 11
199.9906831249471111
 21
13.74154789589765
 31
0.0
  0
LINE
  5
29A1
  8
0
 10
200.043357133247099
 20
13.81803905849765
 30
0.0
 11
199.0960579046470968
 21
14.4518911358976503
 31
0.0
  0
LINE
  5
29A2
  8
0
 10
200.0397011776884142
 20
14.0359164705829293
 30
0.0
 11
199.298852815988397
 21
14.5316291861829292
 31
0.0
  0
LINE
  5
29A3
  8
0
 10
205.2056717660099139
 20
16.16300117580845
 30
0.0
 11
204.2755077161845065
 21
16.1630011758084606
 31
0.0
  0
ARC
  5
29A4
  8
0
 10
199.0826158768470862
 20
14.0483164602976505
 30
0.0
 40
0.03
 50
150.7834033088003025
 51
236.2129277575002959
  0
ARC
  5
29A5
  8
0
 10
199.6754311719471104
 20
13.6516548828976507
 30
0.0
 40
0.03
 50
236.2129277575002959
 51
321.6424522066997724
  0
ARC
  5
29A6
  8
0
 10
199.9945811711471038
 20
13.7712935717976492
 30
0.0
 40
0.03
 50
262.5341710550000016
 51
326.2129277575003243
  0
ARC
  5
29A7
  8
0
 10
199.0714550156471034
 20
14.3889710845976495
 30
0.0
 40
0.03
 50
146.2129277575002959
 51
209.8916844598003024
  0
ARC
  5
29A8
  8
0
 10
199.0935524410471089
 20
14.4219959413976504
 30
0.0
 40
0.03
 50
85.2093369121999871
 51
146.2129277575002959
  0
ARC
  5
29A9
  8
0
 10
200.0166785966470968
 20
13.8043184285976501
 30
0.0
 40
0.03
 50
326.2129277575003243
 51
27.216518602800079
  0
ARC
  5
29AA
  8
0
 10
200.0230179345471129
 20
14.0109831715976494
 30
0.0
 40
0.03
 50
336.1104471450997835
 51
56.212927757500303
  0
ARC
  5
29AB
  8
0
 10
199.2821695728470957
 20
14.5066958871976492
 30
0.0
 40
0.03
 50
56.212927757500303
 51
136.3154083697997976
  0
LINE
  5
29AC
  8
0
 10
204.4638266491471086
 20
16.3787939697976483
 30
0.0
 11
204.4638266491471086
 21
16.4046989854976495
 31
0.0
  0
LINE
  5
29AD
  8
0
 10
204.4855897410471073
 20
15.8830160416976494
 30
0.0
 11
204.4855897410471073
 21
15.9233158259976495
 31
0.0
  0
LINE
  5
29AE
  8
0
 10
204.5212383123470943
 20
16.7279764804976487
 30
0.0
 11
204.5212383123470943
 21
16.7546287901976498
 31
0.0
  0
LINE
  5
29AF
  8
0
 10
203.3904708930471088
 20
12.4386255354976498
 30
0.0
 11
206.0907085890470967
 21
12.4386255354976498
 31
0.0
  0
LINE
  5
29B0
  8
0
 10
203.8805897410472028
 20
13.8080157790976497
 30
0.0
 11
205.6005897410472016
 21
13.8080157790976497
 31
0.0
  0
LINE
  5
29B1
  8
0
 10
205.6005897410103955
 20
13.9330157790976497
 30
0.0
 11
203.8805897410472028
 21
13.9330157790976497
 31
0.0
  0
LINE
  5
29B2
  8
0
 10
204.465589741047097
 20
15.7530157790976499
 30
0.0
 11
205.0155897410471084
 21
15.7530157790976499
 31
0.0
  0
LINE
  5
29B3
  8
0
 10
205.0155897410471084
 20
15.8530157790976496
 30
0.0
 11
204.465589741047097
 21
15.8530157790976496
 31
0.0
  0
LINE
  5
29B4
  8
0
 10
205.0255896209471018
 20
15.9533373721976499
 30
0.0
 11
204.4555898611471036
 21
15.9533373721976499
 31
0.0
  0
LINE
  5
29B5
  8
0
 10
205.0428436249659967
 20
16.3491346981976591
 30
0.0
 11
204.4383358571471092
 21
16.3491346981976484
 31
0.0
  0
LINE
  5
29B6
  8
0
 10
204.4885196812471122
 20
16.4342232655976517
 30
0.0
 11
204.9926598011751082
 21
16.4342232655976517
 31
0.0
  0
LINE
  5
29B7
  8
0
 10
204.7405897410471027
 20
16.7020878854976509
 30
0.0
 11
204.5360846282470959
 21
16.7020878854976509
 31
0.0
  0
LINE
  5
29B8
  8
0
 10
204.9773112753923954
 20
16.7818254244976508
 30
0.0
 11
204.503868206702009
 21
16.7818254244976508
 31
0.0
  0
ARC
  5
29B9
  8
0
 10
203.8805897410472028
 20
13.8705157790976497
 30
0.0
 40
0.0625
 50
89.9999999998990319
 51
270.0
  0
ARC
  5
29BA
  8
0
 10
204.2242624272809053
 20
15.9677908642619695
 30
0.0
 40
0.2018245410471235
 50
3.8351575779603269
 51
75.2909870848635592
  0
ARC
  5
29BB
  8
0
 10
204.4628704284471041
 20
16.5769332089976515
 30
0.0
 40
0.1449965934
 50
280.1889865977000227
 51
59.672804464300043
  0
ARC
  5
29BC
  8
0
 10
204.465589741047097
 20
15.8030157790976507
 30
0.0
 40
0.05
 50
90.0
 51
270.0
  0
ARC
  5
29BD
  8
0
 10
204.7748007888336872
 20
16.3948975490609499
 30
0.0
 40
0.7362139568695713
 50
92.6634306002443537
 51
105.9651226310815986
  0
ARC
  5
29BE
  8
0
 10
204.6471280988324111
 20
16.8674339026413591
 30
0.0
 40
0.2468927145593211
 50
107.6417897058649942
 51
153.649220934984811
  0
ARC
  5
29BF
  8
0
 10
204.5550743441606869
 20
16.9164273466642605
 30
0.0
 40
0.1426899067047495
 50
154.8712867289341091
 51
216.2024282375581947
  0
ARC
  5
29C0
  8
0
 10
204.5720970033607955
 20
16.9342854179242508
 30
0.0
 40
0.1670305908783058
 50
217.6968334479275882
 51
245.8905605661674088
  0
ARC
  5
29C1
  8
0
 10
204.4936412150177887
 20
16.7561482520221894
 30
0.0
 40
0.0276388955141684
 50
356.8485476422031866
 51
68.2830431216477081
  0
ARC
  5
29C2
  8
0
 10
204.5499617728640942
 20
16.7272472537721093
 30
0.0
 40
0.028732715772931
 50
178.5456961061379957
 51
241.120203529663911
  0
ARC
  5
29C3
  8
0
 10
204.4922723049853062
 20
16.405996391690941
 30
0.0
 40
0.028475227811164
 50
97.5727849069182156
 51
182.6114503237058102
  0
ARC
  5
29C4
  8
0
 10
204.4347096664525054
 20
16.3780349665058083
 30
0.0
 40
0.0291268736262125
 50
277.1516740294575243
 51
1.493212385783659
  0
ARC
  5
29C5
  8
0
 10
204.4545887346357063
 20
15.9822910959995692
 30
0.0
 40
0.0289710264969904
 50
181.9799936517532046
 51
271.9803145711081243
  0
ARC
  5
29C6
  8
0
 10
204.4555256816593101
 20
15.9232733513094509
 30
0.0
 40
0.0300640893920461
 50
0.0809477761948359
 51
89.8776874121214036
  0
ARC
  5
29C7
  8
0
 10
204.5178685626586912
 20
15.8852941081723902
 30
0.0
 40
0.0323591086325002
 50
184.0369359883250127
 51
265.9506951090572215
  0
ARC
  5
29C8
  8
0
 10
204.4226160283201921
 20
15.6497351209529896
 30
0.0
 40
0.1118643568449453
 50
12.3285194178419601
 51
67.4084527648641512
  0
ARC
  5
29C9
  8
0
 10
203.5860019555316001
 20
15.4766281341932093
 30
0.0
 40
0.9661937143557139
 50
355.1973643692614928
 51
11.7642048280165206
  0
ARC
  5
29CA
  8
0
 10
199.7996128080650067
 20
15.5765885526850401
 30
0.0
 40
4.7526328579610011
 50
355.6788026454283909
 51
357.8191757485395783
  0
ARC
  5
29CB
  8
0
 10
203.6027215324093049
 20
14.6560842780068299
 30
0.0
 40
0.7746217112286159
 50
291.0212834197947132
 51
315.5012237974287927
  0
LINE
  5
29CC
  8
0
 10
205.0173528329472106
 20
16.3787939697976483
 30
0.0
 11
205.0173528329472106
 21
16.4046989854976495
 31
0.0
  0
LINE
  5
29CD
  8
0
 10
204.9955897410470982
 20
15.8830160416976494
 30
0.0
 11
204.9955897410470982
 21
15.9233158259976495
 31
0.0
  0
LINE
  5
29CE
  8
0
 10
204.9599411697471112
 20
16.7279764804976487
 30
0.0
 11
204.9599411697471112
 21
16.7546287901976498
 31
0.0
  0
LINE
  5
29CF
  8
0
 10
204.7405897410471027
 20
16.7020878854976509
 30
0.0
 11
204.9450948538471096
 21
16.7020878854976509
 31
0.0
  0
ARC
  5
29D0
  8
0
 10
205.6005897410472016
 20
13.8705157790976497
 30
0.0
 40
0.0625
 50
270.0
 51
90.0000000000993339
  0
ARC
  5
29D1
  8
0
 10
205.2569170547475892
 20
15.9677908642880695
 30
0.0
 40
0.201824540979789
 50
104.7090128715071984
 51
176.1648424281843006
  0
ARC
  5
29D2
  8
0
 10
205.0183090536471866
 20
16.5769332089976515
 30
0.0
 40
0.1449965934
 50
120.3271955356999001
 51
259.8110134022999205
  0
ARC
  5
29D3
  8
0
 10
205.0155897410471084
 20
15.8030157790976507
 30
0.0
 40
0.05
 50
270.0
 51
90.0
  0
ARC
  5
29D4
  8
0
 10
205.5568441017562975
 20
13.7577712310735798
 30
0.0
 40
0.0502449113388725
 50
14.2265494843736597
 51
89.7821119577367455
  0
ARC
  5
29D5
  8
0
 10
205.9562648244487093
 20
13.8724645257036503
 30
0.0
 40
0.3653447549852908
 50
196.268168035623404
 51
234.5199601702040866
  0
ARC
  5
29D6
  8
0
 10
209.1892093604872969
 20
18.4263366724250197
 30
0.0
 40
5.9501164708147991
 50
234.6211756357702996
 51
237.734670939198395
  0
ARC
  5
29D7
  8
0
 10
205.626560323074699
 20
12.77791939624076
 30
0.0
 40
0.7279934021170127
 50
30.6441599598282508
 51
57.9576169080078998
  0
ARC
  5
29D8
  8
0
 10
205.920530171345888
 20
12.9706694615947296
 30
0.0
 40
0.3771702940015784
 50
2.8410153048057638
 51
28.2136974190104013
  0
ARC
  5
29D9
  8
0
 10
205.8108351606032898
 20
13.0106430342814203
 30
0.0
 40
0.4868669710453074
 50
334.5817069231636083
 51
357.4950077816367866
  0
ARC
  5
29DA
  8
0
 10
204.5225240196731988
 20
13.8218028070147394
 30
0.0
 40
2.006695364803126
 50
324.4662591031386114
 51
329.4449876807008764
  0
ARC
  5
29DB
  8
0
 10
206.4920387786881122
 20
12.4368607029173397
 30
0.0
 40
0.4013340700106047
 50
146.9822747298256047
 51
179.7480458504606986
  0
ARC
  5
29DC
  8
0
 10
204.7063786932604899
 20
16.3948975490609499
 30
0.0
 40
0.7362139568695713
 50
74.0348773689183872
 51
87.336569399755632
  0
ARC
  5
29DD
  8
0
 10
204.8340513832619081
 20
16.8674339026413591
 30
0.0
 40
0.2468927145593211
 50
26.3507790650151996
 51
72.3582102941334
  0
ARC
  5
29DE
  8
0
 10
204.9261051379336038
 20
16.9164273466642605
 30
0.0
 40
0.1426899067047495
 50
323.7975717624415779
 51
25.1287132710658909
  0
ARC
  5
29DF
  8
0
 10
204.90908247873341
 20
16.9342854179242508
 30
0.0
 40
0.1670305908783058
 50
294.1094394338310281
 51
322.3031665520713887
  0
ARC
  5
29E0
  8
0
 10
204.9875382670765021
 20
16.7561482520221894
 30
0.0
 40
0.0276388955141684
 50
111.7169568783522067
 51
183.1514523577966997
  0
ARC
  5
29E1
  8
0
 10
204.9312177092301965
 20
16.7272472537721093
 30
0.0
 40
0.028732715772931
 50
298.879796470336089
 51
1.454303893861957
  0
ARC
  5
29E2
  8
0
 10
204.9889071771088993
 20
16.405996391690941
 30
0.0
 40
0.028475227811164
 50
357.3885496762941898
 51
82.4272150930817986
  0
ARC
  5
29E3
  8
0
 10
205.0464698156418137
 20
16.3780349665058083
 30
0.0
 40
0.0291268736262125
 50
178.5067876142163072
 51
262.8483259705441242
  0
ARC
  5
29E4
  8
0
 10
205.0265907474586129
 20
15.9822910959995692
 30
0.0
 40
0.0289710264969904
 50
268.0196854288918757
 51
358.0200063482467954
  0
ARC
  5
29E5
  8
0
 10
205.0256538004350091
 20
15.9232733513094509
 30
0.0
 40
0.0300640893920461
 50
90.1223125878785822
 51
179.9190522238052097
  0
ARC
  5
29E6
  8
0
 10
204.9633109194357132
 20
15.8852941081723902
 30
0.0
 40
0.0323591086325002
 50
274.0493048909411868
 51
355.9630640116748737
  0
ARC
  5
29E7
  8
0
 10
205.0585634537740987
 20
15.6497351209529896
 30
0.0
 40
0.1118643568449453
 50
112.5915472351358062
 51
167.6714805821580114
  0
ARC
  5
29E8
  8
0
 10
205.8951775265626907
 20
15.4766281341932093
 30
0.0
 40
0.9661937143557139
 50
168.2357951719833977
 51
184.8026356307383935
  0
ARC
  5
29E9
  8
0
 10
209.6815666740291988
 20
15.5765885526850401
 30
0.0
 40
4.7526328579610011
 50
182.180824251460507
 51
184.3211973545716091
  0
ARC
  5
29EA
  8
0
 10
205.8784579496849005
 20
14.6560842780068299
 30
0.0
 40
0.7746217112286159
 50
224.4987762025710936
 51
248.9787165802052016
  0
ARC
  5
29EB
  8
0
 10
202.7812154408468928
 20
15.2090774471366004
 30
0.0
 40
1.757545237366207
 50
321.424010904976285
 51
0.3068126246119209
  0
ARC
  5
29EC
  8
0
 10
206.6925355639033057
 20
15.2065000830299795
 30
0.0
 40
1.7501326247428051
 50
179.6075086320466028
 51
218.6616678383657018
  0
ARC
  5
29ED
  8
0
 10
202.8265912224366048
 20
12.3315452014835607
 30
0.0
 40
0.5739568632400402
 50
10.7523962970891898
 51
33.4774341769502115
  0
ARC
  5
29EE
  8
0
 10
198.6505307535047962
 20
9.2093565805650712
 30
0.0
 40
5.7872639346100501
 50
36.4555722628997287
 51
59.5245209688301102
  0
ARC
  5
29EF
  8
0
 10
200.9074248177199991
 20
13.2636010293788598
 30
0.0
 40
1.153860897267037
 50
53.9995309743886409
 51
137.020257594010701
  0
ARC
  5
29F0
  8
0
 10
198.8121182581787139
 20
14.2100549837071704
 30
0.0
 40
0.2851778560045812
 50
328.9489606556256831
 51
35.0966795593763834
  0
ARC
  5
29F1
  8
0
 10
199.9280997180603094
 20
13.4633953011447201
 30
0.0
 40
0.2851062062130469
 50
77.319798276598334
 51
143.4862725822825951
  0
ARC
  5
29F2
  8
0
 10
199.1081130992280919
 20
14.6423760913580292
 30
0.0
 40
0.1908660419943924
 50
266.3787595565377728
 51
322.9648422235185876
  0
ARC
  5
29F3
  8
0
 10
200.2212683983516968
 20
13.9015979935754093
 30
0.0
 40
0.1965566429358615
 50
150.3502445659173077
 51
205.1578647592504012
  0
ARC
  5
29F4
  8
0
 10
200.0409077699667932
 20
14.07041039884413
 30
0.0
 40
0.0301163148756535
 50
249.2567687374547063
 51
317.936492661760326
  0
ARC
  5
29F5
  8
0
 10
199.3348327948355063
 20
14.5404713483117902
 30
0.0
 40
0.0292140517318752
 50
137.5007139406783097
 51
215.6769883204702012
  0
ARC
  5
29F6
  8
0
 10
200.8492632988784123
 20
13.2484445730373892
 30
0.0
 40
2.01988252626353
 50
48.118251716178392
 51
139.5016984265166116
  0
ARC
  5
29F7
  8
0
 10
210.6486292569252043
 20
24.5717297420012599
 30
0.0
 40
12.9552698027341098
 50
229.2837174014850063
 51
235.4157188959613052
  0
ARC
  5
29F8
  8
0
 10
204.2551458296375131
 20
15.4768154913351204
 30
0.0
 40
1.841229917885608
 50
238.5686020809403942
 51
251.6913965999756044
  0
ARC
  5
29F9
  8
0
 10
203.7508763996862058
 20
13.8442251168209207
 30
0.0
 40
0.137183950384244
 50
237.2935186915213137
 51
331.6541521727706936
  0
ARC
  5
29FA
  8
0
 10
203.9170780292963059
 20
13.7578196442917697
 30
0.0
 40
0.0501962907474492
 50
90.1428179762597352
 51
154.9273376815193046
  0
ARC
  5
29FC
  8
0
 10
204.4742796076760953
 20
16.1165043099533314
 30
0.0
 40
0.2353908467565974
 50
98.7833217321801413
 51
158.4868723186471868
  0
ARC
  5
29FD
  8
0
 10
204.2809095688047876
 20
16.1907892501336512
 30
0.0
 40
0.0283082512076255
 50
154.8375632564695081
 51
258.9992089664855826
  0
ARC
  5
29FE
  8
0
 10
205.0069019081373085
 20
16.1165068542059693
 30
0.0
 40
0.2353880218040126
 50
21.5127330539337009
 51
81.217072920037694
  0
ARC
  5
29FF
  8
0
 10
205.2002699133894907
 20
16.1907892501336512
 30
0.0
 40
0.0283082512076255
 50
281.0007910335128258
 51
25.1624367435305309
  0
ENDSEC
  0
EOF
