  0
SECTION
  2
HEADER
  9
$ACADVER
  1
AC1009
  9
$INSBASE
 10
4381.6313106168154263
 20
223.1629683338096868
 30
0.0
  9
$EXTMIN
 10
4380.2815683547642038
 20
223.1629683338098005
 30
0.0
  9
$EXTMAX
 10
4382.9810528788666488
 20
228.1494250501147008
 30
0.0
  9
$LIMMIN
 10
0.0
 20
0.0
  9
$LIMMAX
 10
11.6929133858000007
 20
8.2677165353999982
  9
$ORTHOMODE
 70
     0
  9
$REGENMODE
 70
     1
  9
$FILLMODE
 70
     1
  9
$QTEXTMODE
 70
     0
  9
$MIRRTEXT
 70
     0
  9
$DRAGMODE
 70
     2
  9
$LTSCALE
 40
0.6431102362
  9
$OSMODE
 70
  4095
  9
$ATTMODE
 70
     1
  9
$TEXTSIZE
 40
0.2
  9
$TRACEWID
 40
0.05
  9
$TEXTSTYLE
  7
STANDARD
  9
$CLAYER
  8
0
  9
$CELTYPE
  6
BYLAYER
  9
$CECOLOR
 62
   256
  9
$DIMSCALE
 40
1.0
  9
$DIMASZ
 40
0.1875
  9
$DIMEXO
 40
0.0625
  9
$DIMDLI
 40
0.4443307087
  9
$DIMRND
 40
0.0
  9
$DIMDLE
 40
0.0
  9
$DIMEXE
 40
0.125
  9
$DIMTP
 40
0.01
  9
$DIMTM
 40
0.01
  9
$DIMTXT
 40
2.0
  9
$DIMCEN
 40
0.1052362205
  9
$DIMTSZ
 40
0.0
  9
$DIMTOL
 70
     1
  9
$DIMLIM
 70
     0
  9
$DIMTIH
 70
     1
  9
$DIMTOH
 70
     1
  9
$DIMSE1
 70
     0
  9
$DIMSE2
 70
     0
  9
$DIMTAD
 70
     0
  9
$DIMZIN
 70
     0
  9
$DIMBLK
  1

  9
$DIMASO
 70
     1
  9
$DIMSHO
 70
     1
  9
$DIMPOST
  1
\X
  9
$DIMAPOST
  1

  9
$DIMALT
 70
     1
  9
$DIMALTD
 70
     2
  9
$DIMALTF
 40
25.3999999999999986
  9
$DIMLFAC
 40
1.0
  9
$DIMTOFL
 70
     0
  9
$DIMTVP
 40
0.0
  9
$DIMTIX
 70
     0
  9
$DIMSOXD
 70
     0
  9
$DIMSAH
 70
     0
  9
$DIMBLK1
  1

  9
$DIMBLK2
  1

  9
$DIMSTYLE
  2
STANDARD
  9
$DIMCLRD
 70
     0
  9
$DIMCLRE
 70
     0
  9
$DIMCLRT
 70
     0
  9
$DIMTFAC
 40
1.0
  9
$DIMGAP
 40
0.09
  9
$LUNITS
 70
     2
  9
$LUPREC
 70
     4
  9
$SKETCHINC
 40
0.1
  9
$FILLETRAD
 40
0.0
  9
$AUNITS
 70
     0
  9
$AUPREC
 70
     0
  9
$MENU
  1
.
  9
$ELEVATION
 40
0.0
  9
$PELEVATION
 40
0.0
  9
$THICKNESS
 40
0.0
  9
$LIMCHECK
 70
     0
  9
$BLIPMODE
 70
     0
  9
$CHAMFERA
 40
0.0
  9
$CHAMFERB
 40
0.0
  9
$SKPOLY
 70
     0
  9
$TDCREATE
 40
2458060.468368056230247
  9
$TDUPDATE
 40
2459234.422013889066875
  9
$TDINDWG
 40
0.6465695602
  9
$TDUSRTIMER
 40
0.6465695602
  9
$USRTIMER
 70
     1
  9
$ANGBASE
 50
0.0
  9
$ANGDIR
 70
     0
  9
$PDMODE
 70
     0
  9
$PDSIZE
 40
0.3125
  9
$PLINEWID
 40
0.0
  9
$COORDS
 70
     1
  9
$SPLFRAME
 70
     0
  9
$SPLINETYPE
 70
     6
  9
$SPLINESEGS
 70
     8
  9
$ATTDIA
 70
     1
  9
$ATTREQ
 70
     1
  9
$HANDLING
 70
     1
  9
$HANDSEED
  5
13ED7
  9
$SURFTAB1
 70
     6
  9
$SURFTAB2
 70
     6
  9
$SURFTYPE
 70
     6
  9
$SURFU
 70
     6
  9
$SURFV
 70
     6
  9
$UCSNAME
  2

  9
$UCSORG
 10
0.0
 20
0.0
 30
0.0
  9
$UCSXDIR
 10
1.0
 20
0.0
 30
0.0
  9
$UCSYDIR
 10
0.0
 20
1.0
 30
0.0
  9
$PUCSNAME
  2

  9
$PUCSORG
 10
0.0
 20
0.0
 30
0.0
  9
$PUCSXDIR
 10
1.0
 20
0.0
 30
0.0
  9
$PUCSYDIR
 10
0.0
 20
1.0
 30
0.0
  9
$USERI1
 70
     0
  9
$USERI2
 70
     0
  9
$USERI3
 70
     0
  9
$USERI4
 70
     0
  9
$USERI5
 70
     0
  9
$USERR1
 40
0.0
  9
$USERR2
 40
0.0
  9
$USERR3
 40
0.0
  9
$USERR4
 40
0.0
  9
$USERR5
 40
0.0
  9
$WORLDVIEW
 70
     1
  9
$SHADEDGE
 70
     3
  9
$SHADEDIF
 70
    70
  9
$TILEMODE
 70
     1
  9
$MAXACTVP
 70
    64
  9
$PLIMCHECK
 70
     0
  9
$PEXTMIN
 10
1.0000000000000000E+20
 20
1.0000000000000000E+20
 30
1.0000000000000000E+20
  9
$PEXTMAX
 10
-1.0000000000000000E+20
 20
-1.0000000000000000E+20
 30
-1.0000000000000000E+20
  9
$PLIMMIN
 10
0.0
 20
0.0
  9
$PLIMMAX
 10
12.0
 20
9.0
  9
$UNITMODE
 70
     0
  9
$VISRETAIN
 70
     1
  9
$PLINEGEN
 70
     0
  9
$PSLTSCALE
 70
     1
  0
ENDSEC
  0
SECTION
  2
TABLES
  0
TABLE
  2
VPORT
 70
     1
  0
VPORT
  2
*ACTIVE
 70
     0
 10
0.0
 20
0.0
 11
1.0
 21
1.0
 12
220.0749141324403979
 22
-0.4546355223932324
 13
0.0
 23
0.0
 14
1.0
 24
1.0
 15
0.0
 25
0.0
 16
0.0
 26
0.0
 36
202.37134017897489
 17
4161.556396484375
 27
226.1108322143554972
 37
0.0
 40
5.0506600216650783
 41
2.9182795698924728
 42
50.0
 43
0.0
 44
0.0
 50
0.0
 51
0.0
 71
     0
 72
   100
 73
     1
 74
     1
 75
     0
 76
     0
 77
     0
 78
     0
  0
ENDTAB
  0
TABLE
  2
LTYPE
 70
     2
  0
LTYPE
  2
CONTINUOUS
 70
     0
  3
Solid line
 72
    65
 73
     0
 40
0.0
  0
LTYPE
  2
PHANTOM2
 70
     0
  3
___ _ _ ___ _ _ ___ _ _ ___ _ _
 72
    65
 73
     6
 40
1.25
 49
0.625
 49
-0.125
 49
0.125
 49
-0.125
 49
0.125
 49
-0.125
  0
ENDTAB
  0
TABLE
  2
LAYER
 70
     2
  0
LAYER
  2
0
 70
     0
 62
   255
  6
CONTINUOUS
  0
LAYER
  2
DEFPOINTS
 70
     0
 62
     7
  6
CONTINUOUS
  0
ENDTAB
  0
TABLE
  2
STYLE
 70
     1
  0
STYLE
  2
STANDARD
 70
     0
 40
0.0
 41
0.8
 50
0.0
 71
     0
 42
0.2
  3
txt
  4

  0
ENDTAB
  0
TABLE
  2
VIEW
 70
     0
  0
ENDTAB
  0
TABLE
  2
UCS
 70
     0
  0
ENDTAB
  0
TABLE
  2
APPID
 70
     9
  0
APPID
  2
ACAD
 70
     0
  0
APPID
  2
ACAD_MLEADERVER
 70
     0
  0
APPID
  2
ACAD_EXEMPT_FROM_CAD_STANDARDS
 70
     0
  0
APPID
  2
ACAD_NAV_VCDISPLAY
 70
     0
  0
APPID
  2
ACAECLAYERSTANDARD
 70
     0
  0
APPID
  2
ACCMTRANSPARENCY
 70
     0
  0
APPID
  2
ACAD_DSTYLE_DIMJAG
 70
     0
  0
APPID
  2
ACAD_DSTYLE_DIMTALN
 70
     0
  0
APPID
  2
ACDBATTR
 70
     0
  0
ENDTAB
  0
TABLE
  2
DIMSTYLE
 70
     1
  0
DIMSTYLE
  2
STANDARD
 70
     0
  3

  4

  5

  6

  7

 40
1.0
 41
0.1875
 42
0.0625
 43
0.38
 44
0.125
 45
0.0
 46
0.0
 47
0.01
 48
0.01
140
0.15625
141
0.09
142
0.0
143
25.3999999999999986
144
1.0
145
0.0
146
1.0
147
0.09
 71
     1
 72
     0
 73
     1
 74
     1
 75
     0
 76
     0
 77
     0
 78
     4
170
     0
171
     2
172
     0
173
     0
174
     0
175
     0
176
     0
177
     0
178
     0
  0
ENDTAB
  0
ENDSEC
  0
SECTION
  2
BLOCKS
  0
BLOCK
  8
0
  2
$MODEL_SPACE
 70
     0
 10
0.0
 20
0.0
 30
0.0
  3
$MODEL_SPACE
  1

  0
ENDBLK
  5
21
  8
0
  0
BLOCK
 67
     1
  8
0
  2
$PAPER_SPACE
 70
     0
 10
0.0
 20
0.0
 30
0.0
  3
$PAPER_SPACE
  1

  0
ENDBLK
  5
1D
 67
     1
  8
0
  0
ENDSEC
  0
SECTION
  2
ENTITIES
  0
ATTDEF
  5
3930
  8
DEFPOINTS
 10
4381.6279264754675751
 20
223.1681085737932904
 30
0.0
 40
0.001
  1
K-72761
  3

  2
MODELNUMBER
 70
     0
1001
ACDBATTR
1070
     0
1070
     1
  0
ATTDEF
  5
3931
  8
DEFPOINTS
 10
4381.6279264754675751
 20
223.1664419071265968
 30
0.0
 40
0.001
  1
ARTIFACTS
  3

  2
TRADENAME
 70
     0
1001
ACDBATTR
1070
     0
1070
     1
  0
ATTDEF
  5
3932
  8
DEFPOINTS
 10
4381.6279264754675751
 20
223.1647752404599885
 30
0.0
 40
0.001
  1
BATHROOM SINK FAUCET
  3

  2
PRODUCT
 70
     0
1001
ACDBATTR
1070
     0
1070
     1
  0
LINE
  5
13D54
  8
0
 10
4380.2855875926652516
 20
223.1629683338098005
 30
0.0
 11
4382.9770336409646916
 21
223.1629683338098005
 31
0.0
  0
ARC
  5
13D55
  8
0
 10
4380.3115683546493528
 20
223.1779683338039888
 30
0.0
 40
0.0299999998850384
 50
175.0439570964695122
 51
210.0000001140745098
  0
ARC
  5
13D56
  8
0
 10
4380.5449646738061347
 20
223.1577292210102996
 30
0.0
 40
0.2642721994365033
 50
111.1277535715531997
 51
175.0439570964695122
  0
ARC
  5
13D57
  8
0
 10
4380.4321919694393728
 20
223.4495655387422062
 30
0.0
 40
0.0485953751022831
 50
291.1277535715537965
 51
37.30161089971606
  0
ARC
  5
13D58
  8
0
 10
4380.5284327382232732
 20
223.5228856337056982
 30
0.0
 40
0.072392731344428
 50
97.240064244993178
 51
217.3016108997161098
  0
ARC
  5
13D59
  8
0
 10
4380.4964086078771288
 20
223.7749650355283961
 30
0.0
 40
0.1817126990336665
 50
277.2400642449932207
 51
294.9878290514440096
  0
ARC
  5
13D5A
  8
0
 10
4380.4464219119681729
 20
223.9062742162709867
 30
0.0
 40
0.3220070263287617
 50
293.1796269978917167
 51
312.5294394877780064
  0
ARC
  5
13D5B
  8
0
 10
4380.250278697795693
 20
224.1038528925409992
 30
0.0
 40
0.6002959734229805
 50
313.5781420590888047
 51
341.5076027449006233
  0
ARC
  5
13D5C
  8
0
 10
4380.2139543277744451
 20
224.1353570314080912
 30
0.0
 40
0.6449984604226622
 50
339.8767918048318961
 51
3.179193238116913
  0
ARC
  5
13D5D
  8
0
 10
4380.5292313622394431
 20
224.1545388132605012
 30
0.0
 40
0.3291470690103044
 50
2.8889529375553811
 51
36.8364872006919768
  0
ARC
  5
13D5E
  8
0
 10
4380.8081228407481831
 20
224.3645631688355024
 30
0.0
 40
0.0199999999692392
 50
90.0
 51
219.3817766379424938
  0
LINE
  5
13D5F
  8
0
 10
4380.7723093036647697
 20
224.384563168809791
 30
0.0
 11
4382.490311929966083
 21
224.384563168809791
 31
0.0
  0
LINE
  5
13D60
  8
0
 10
4380.7473093036651335
 20
224.4095631688097967
 30
0.0
 11
4380.7473093036651335
 21
224.5075060137478999
 31
0.0
  0
ARC
  5
13D61
  8
0
 10
4380.6495791178149375
 20
224.7949197845182994
 30
0.0
 40
0.287520997930147
 50
293.1232418642433117
 51
308.0443783690762984
  0
ARC
  5
13D62
  8
0
 10
4380.7362151987408652
 20
224.6842075191879076
 30
0.0
 40
0.1469400027251839
 50
308.0443783690762984
 51
331.433049147751376
  0
ARC
  5
13D63
  8
0
 10
4380.7831833845411893
 20
224.6586347673971886
 30
0.0
 40
0.0934612582422739
 50
331.433049147751376
 51
26.3809586706880204
  0
ARC
  5
13D64
  8
0
 10
4380.6661335560520456
 20
224.6005792051022922
 30
0.0
 40
0.2241177187129395
 50
26.3809586706880204
 51
48.0120634402171973
  0
ARC
  5
13D65
  8
0
 10
4381.4235683420165515
 20
225.442152022901098
 30
0.0
 40
0.9081155888029362
 50
222.8105592316595107
 51
228.0120634402171902
  0
ARC
  5
13D66
  8
0
 10
4381.0469488184426154
 20
225.0510568641311124
 30
0.0
 40
0.3673542582551647
 50
199.7638296769578119
 51
217.9748681514876978
  0
ARC
  5
13D67
  8
0
 10
4381.4963500819012552
 20
225.2012599281779899
 30
0.0
 40
0.8411404100892589
 50
185.9568200777164861
 51
199.0412942843497888
  0
ARC
  5
13D68
  8
0
 10
4393.6322864607163865
 20
225.8846879597687973
 30
0.0
 40
12.99540971281602
 50
180.9621124270865948
 51
183.4000444337229965
  0
ARC
  5
13D69
  8
0
 10
4429.0439980038381691
 20
224.8719151603866919
 30
0.0
 40
48.4118099947693565
 50
178.6046291852109107
 51
179.0595849744458974
  0
ARC
  5
13D6A
  8
0
 10
4382.3226421393273995
 20
225.9715150685748029
 30
0.0
 40
1.6779728013975821
 50
169.3817870865493092
 51
177.2913695951467048
  0
ARC
  5
13D6B
  8
0
 10
4381.2179333429057806
 20
226.1738486981433027
 30
0.0
 40
0.5549171736052979
 50
149.973385703103105
 51
168.8976581760888109
  0
ARC
  5
13D6C
  8
0
 10
4381.1536313103988505
 20
226.1546558804730012
 30
0.0
 40
0.5111831355778871
 50
125.8996976963334049
 51
144.4960009361838047
  0
ARC
  5
13D6D
  8
0
 10
4380.6836905912050497
 20
226.7782908015263956
 30
0.0
 40
0.2699639636188272
 50
309.0834571659632957
 51
328.6103326058350831
  0
ARC
  5
13D6E
  8
0
 10
4380.8235623426289749
 20
226.6873110237966955
 30
0.0
 40
0.1032879677333202
 50
331.2802787039591976
 51
22.6916773014717101
  0
ARC
  5
13D6F
  8
0
 10
4380.7854360027849907
 20
226.6685813468911874
 30
0.0
 40
0.1457111889462295
 50
23.7030050457182817
 51
65.8553150799126144
  0
LINE
  5
13D70
  8
0
 10
4380.8273093036650607
 20
226.82892052033759
 30
0.0
 11
4380.8273093036650607
 21
226.9114714423471924
 31
0.0
  0
ARC
  5
13D71
  8
0
 10
4380.8225915876928411
 20
227.1444340944127021
 30
0.0
 40
0.2055353838804162
 50
278.4762335875400936
 51
287.29433930780948
  0
ARC
  5
13D72
  8
0
 10
4380.7883502574268277
 20
227.240624073776587
 30
0.0
 40
0.3075832112442645
 50
288.0577033450297222
 51
298.4451416556080972
  0
ARC
  5
13D73
  8
0
 10
4381.5062295410853039
 20
225.9819261579729925
 30
0.0
 40
1.141534266286842
 50
115.9212886886779046
 51
120.0350701903120978
  0
ARC
  5
13D74
  8
0
 10
4381.0932322838043547
 20
226.821783011608801
 30
0.0
 40
0.2056801838057318
 50
99.1815089272956243
 51
114.7188538266659066
  0
LINE
  5
13D75
  8
0
 10
4381.0897773954920922
 20
227.0270061877097874
 30
0.0
 11
4382.1728438381460364
 21
227.0270061877097874
 31
0.0
  0
ARC
  5
13D76
  8
0
 10
4381.0887311174601564
 20
226.8420966463067998
 30
0.0
 40
0.1849125014691911
 50
89.6758053953852965
 51
98.8090004126605947
  0
LINE
  5
13D77
  8
0
 10
4381.0686931875570735
 20
227.0571403355631901
 30
0.0
 11
4381.0686931875570735
 21
227.1339577482841037
 31
0.0
  0
LINE
  5
13D78
  8
0
 10
4381.2596686565129858
 20
227.2520033937375104
 30
0.0
 11
4382.0029525771178669
 21
227.2520033937375104
 31
0.0
  0
ARC
  5
13D79
  8
0
 10
4380.7723093036647697
 20
224.4095631688097967
 30
0.0
 40
0.025
 50
180.0
 51
270.0
  0
ARC
  5
13D7A
  8
0
 10
4380.7723093036647697
 20
224.5075060137478999
 30
0.0
 40
0.025
 50
113.1232418642949966
 51
179.999999999985306
  0
ARC
  5
13D7B
  8
0
 10
4380.8573093036648061
 20
226.82892052033759
 30
0.0
 40
0.03
 50
180.0000000000032117
 51
245.8553150798624074
  0
ARC
  5
13D7C
  8
0
 10
4380.8573093036648061
 20
226.9114714423471924
 30
0.0
 40
0.03
 50
98.476233587539781
 51
180.0000000000032117
  0
ARC
  5
13D7D
  8
0
 10
4381.4591798806013685
 20
227.8520611733534906
 30
0.0
 40
0.9007741032114868
 50
245.5443396434438057
 51
246.3395667994907114
  0
ARC
  5
13D7E
  8
0
 10
4381.0985150730903115
 20
227.0590287188003913
 30
0.0
 40
0.0295797636114312
 50
219.1699419031895104
 51
245.5443396434438057
  0
ARC
  5
13D7F
  8
0
 10
4381.0998360760086143
 20
227.060104948995388
 30
0.0
 40
0.0312836767960319
 50
185.4378233546734975
 51
219.1699419031882883
  0
ARC
  5
13D80
  8
0
 10
4381.1381544089008457
 20
227.3169739480368889
 30
0.0
 40
0.1242242476278582
 50
299.4805913257318934
 51
321.9902749550254271
  0
ARC
  5
13D81
  8
0
 10
4380.9521652517632901
 20
227.6459686524001995
 30
0.0
 40
0.50215212708678
 50
292.4032339222151222
 51
299.4805913257318934
  0
ARC
  5
13D82
  8
0
 10
4380.2633988765292088
 20
229.4520261974550124
 30
0.0
 40
2.4349467180983222
 50
289.8074077550805896
 51
291.1901905374315902
  0
ARC
  5
13D83
  8
0
 10
4381.0985003270116067
 20
227.1332531195589866
 30
0.0
 40
0.029622854741416
 50
109.7220747577838011
 51
146.0901043839874944
  0
ARC
  5
13D84
  8
0
 10
4381.0995578323882
 20
227.1325422402910021
 30
0.0
 40
0.0308970866495928
 50
146.0901043839874944
 51
177.3741526971573137
  0
ARC
  5
13D85
  8
0
 10
4381.2596686565129858
 20
227.2220033937375092
 30
0.0
 40
0.03
 50
89.9999999999478888
 51
141.9902749551023931
  0
ARC
  5
13D86
  8
0
 10
4381.2645606719652278
 20
227.2690078547097983
 30
0.0
 40
0.0160000000000016
 50
172.4803929502008089
 51
268.2640801686749796
  0
ARC
  5
13D87
  8
0
 10
4381.2784386359162454
 20
227.2671759544180077
 30
0.0
 40
0.0299983478341821
 50
100.5230247486718014
 51
172.4803929501991888
  0
ARC
  5
13D88
  8
0
 10
4381.2494385508116466
 20
227.4232962530172983
 30
0.0
 40
0.1287925605037783
 50
280.5230247486717872
 51
303.4541036320762259
  0
ARC
  5
13D89
  8
0
 10
4381.2502247220645586
 20
227.4221064080587098
 30
0.0
 40
0.1273664482127552
 50
303.4541036320762259
 51
338.5634890751605894
  0
ARC
  5
13D8A
  8
0
 10
4381.2492989402662715
 20
227.4224698986946862
 30
0.0
 40
0.1283610322379365
 50
338.5634890751605894
 51
22.7795228589760583
  0
ARC
  5
13D8B
  8
0
 10
4381.2500932059010665
 20
227.4228034432489096
 30
0.0
 40
0.1274995742476986
 50
22.7795228589760583
 51
67.8533141440528738
  0
LINE
  5
13D8C
  8
0
 10
4381.2794672527033981
 20
227.9759918619398888
 30
0.0
 11
4381.2794672527033981
 21
227.9994129432631951
 31
0.0
  0
ARC
  5
13D8D
  8
0
 10
4381.2654758022481474
 20
227.8243856307520048
 30
0.0
 40
0.196658852092305
 50
210.3608959127321043
 51
265.9499174553117768
  0
ARC
  5
13D8E
  8
0
 10
4381.0710440455577555
 20
227.7104915005836006
 30
0.0
 40
0.0286755236610517
 50
30.3608959127335503
 51
77.6577648132751648
  0
ARC
  5
13D8F
  8
0
 10
4381.0888046150839727
 20
227.7871369126233958
 30
0.0
 40
0.0500041650059034
 50
103.4512537291389975
 51
256.5495809696919878
  0
ARC
  5
13D90
  8
0
 10
4381.0710435314822462
 20
227.8637793124966038
 30
0.0
 40
0.0286727050921539
 50
282.3430698855050878
 51
329.641242859475085
  0
ARC
  5
13D91
  8
0
 10
4381.2654875443067795
 20
227.74988775165329
 30
0.0
 40
0.1966709474801907
 50
94.0528395903851333
 51
149.6412428594751134
  0
ARC
  5
13D92
  8
0
 10
4381.2494672527027433
 20
227.9759918619398888
 30
0.0
 40
0.03
 50
274.0528395904893841
 51
359.9999999999723173
  0
ARC
  5
13D93
  8
0
 10
4381.2837106898687125
 20
228.1834448753247102
 30
0.0
 40
0.1558255971262553
 50
277.9671957685224015
 51
295.3143366264380916
  0
ARC
  5
13D94
  8
0
 10
4381.2515403971010528
 20
228.2514576037891914
 30
0.0
 40
0.2310629480235018
 50
295.3143366264380916
 51
307.5873394628363258
  0
ARC
  5
13D95
  8
0
 10
4381.7892517300988402
 20
227.5529059524205877
 30
0.0
 40
0.6504742816298927
 50
121.4006096997501061
 51
127.5873394628361979
  0
ARC
  5
13D96
  8
0
 10
4381.5783987873410297
 20
227.8983302592799021
 30
0.0
 40
0.2457806750103021
 50
105.4958713627685967
 51
121.4006096997501061
  0
ARC
  5
13D97
  8
0
 10
4381.615882383654025
 20
227.7631309471177019
 30
0.0
 40
0.3860799052352053
 50
93.4420096061032552
 51
105.4958713627685967
  0
ARC
  5
13D98
  8
0
 10
4381.6368876751757853
 20
227.0941273194987957
 30
0.0
 40
1.055312467387244
 50
90.3027950520975082
 51
92.3996175953904384
  0
ARC
  5
13D99
  8
0
 10
4381.3094672527031435
 20
227.9994129432633088
 30
0.0
 40
0.03
 50
97.9671957683652153
 51
180.0000000000505054
  0
ARC
  5
13D9A
  8
0
 10
4381.6341776077852046
 20
225.3949039160650898
 30
0.0
 40
0.7433786771161282
 50
254.6089261517356022
 51
269.7790266323190167
  0
ARC
  5
13D9B
  8
0
 10
4381.6544630612443143
 20
225.4686450241794944
 30
0.0
 40
0.8198590699353104
 50
234.2042866966218071
 51
254.6098608610776921
  0
ARC
  5
13D9C
  8
0
 10
4381.5797655125679739
 20
225.3650579842787067
 30
0.0
 40
0.6921484649971226
 50
205.9570306697806927
 51
234.2042866966218071
  0
ARC
  5
13D9D
  8
0
 10
4381.7962937834390686
 20
225.470464935995011
 30
0.0
 40
0.9329702197379258
 50
181.4448592357776135
 51
205.9570306697806927
  0
ARC
  5
13D9E
  8
0
 10
4381.7600022663546042
 20
225.4695495587706944
 30
0.0
 40
0.8966671602564419
 50
165.9633125261732118
 51
181.4448592357776135
  0
ARC
  5
13D9F
  8
0
 10
4381.0955382271449707
 20
225.6356710395816947
 30
0.0
 40
0.2117519787991898
 50
137.9788509660561999
 51
165.9633125261732118
  0
ARC
  5
13DA0
  8
0
 10
4381.0405291048973595
 20
225.6852382547405114
 30
0.0
 40
0.1377052884680893
 50
119.1878071215159025
 51
137.9788509660561999
  0
ARC
  5
13DA1
  8
0
 10
4380.9565089272082332
 20
225.8356498136523953
 30
0.0
 40
0.0345823411325569
 50
299.1878071215152204
 51
333.3079917574119122
  0
ARC
  5
13DA2
  8
0
 10
4381.9389563328149961
 20
225.4894689975209872
 30
0.0
 40
1.0073605537142361
 50
149.2641191944198056
 51
160.8385809103070017
  0
ARC
  5
13DA3
  8
0
 10
4381.6311623508163393
 20
225.6643585884550021
 30
0.0
 40
0.653456189518384
 50
121.2445586995634983
 51
148.6517005134413978
  0
ARC
  5
13DA4
  8
0
 10
4381.6282515747298021
 20
225.6656829556343098
 30
0.0
 40
0.6508166043742348
 50
96.0441136093092638
 51
121.0859460562113981
  0
ARC
  5
13DA5
  8
0
 10
4381.636381102888663
 20
225.5708423780085923
 30
0.0
 40
0.7459883906722539
 50
90.3894426411269762
 51
95.8980437930872966
  0
ARC
  5
13DA6
  8
0
 10
4381.6409131944546971
 20
225.6903785461441885
 30
0.0
 40
0.9027999472636556
 50
259.2217674649020864
 51
269.3905653765784223
  0
ARC
  5
13DA7
  8
0
 10
4381.5948384641642406
 20
225.4070436302623079
 30
0.0
 40
0.6158956089817365
 50
236.3677386462659058
 51
258.5031943280034739
  0
ARC
  5
13DA8
  8
0
 10
4381.5635195175309491
 20
225.3599623613339986
 30
0.0
 40
0.5593489706894808
 50
208.5120857235637004
 51
236.3677386462659058
  0
ARC
  5
13DA9
  8
0
 10
4381.7438516289212203
 20
225.457923966934402
 30
0.0
 40
0.7645711589891484
 50
189.0676105907741089
 51
208.5120857235637004
  0
ARC
  5
13DAA
  8
0
 10
4381.9993696827787062
 20
225.4987031908949859
 30
0.0
 40
1.023322817831376
 50
175.6825013420549055
 51
189.0676105907741089
  0
ARC
  5
13DAB
  8
0
 10
4381.4286096280447964
 20
225.5417941598948062
 30
0.0
 40
0.4509384437543848
 50
161.7971219630722999
 51
175.6825013420549055
  0
ARC
  5
13DAC
  8
0
 10
4381.155255149597906
 20
225.6316837549491936
 30
0.0
 40
0.1631836693598962
 50
140.044067867522898
 51
161.7971219630722999
  0
ARC
  5
13DAD
  8
0
 10
4381.1003459834537352
 20
225.6623184985880926
 30
0.0
 40
0.1021019137889606
 50
113.9145175778496935
 51
133.4188990631743081
  0
ARC
  5
13DAE
  8
0
 10
4381.0342987323083435
 20
225.8142493486575972
 30
0.0
 40
0.0635711987242107
 50
292.8225261069022167
 51
319.7712297280630196
  0
ARC
  5
13DAF
  8
0
 10
4369.3834972656968603
 20
231.4170691375014997
 30
0.0
 40
12.9895270718619305
 50
334.2468742970974063
 51
334.9317635332786267
  0
ARC
  5
13DB0
  8
0
 10
4381.6479139402708824
 20
225.6509842352334942
 30
0.0
 40
0.5633288518679751
 50
128.9948071564847965
 51
152.2312800045920937
  0
ARC
  5
13DB1
  8
0
 10
4381.6262649052732741
 20
225.6766208719344888
 30
0.0
 40
0.5297817811205096
 50
102.6720859152426044
 51
128.9197682395673041
  0
ARC
  5
13DB2
  8
0
 10
4381.6279899218770879
 20
225.6724393563816875
 30
0.0
 40
0.5342404085420284
 50
94.6133102699776742
 51
102.754204575802305
  0
ARC
  5
13DB3
  8
0
 10
4381.7011769432201618
 20
223.9098892829850911
 30
0.0
 40
2.297997197147835
 50
91.7422660534396641
 51
92.8973487407698855
  0
CIRCLE
  5
13DB4
  8
0
 10
4381.631309303665148
 20
225.6651761877097897
 30
0.0
 40
0.3750000000000003
  0
ARC
  5
13DB5
  8
0
 10
4381.6268640186954144
 20
225.6778753844768914
 30
0.0
 40
0.4895225301024665
 50
174.5289049844016063
 51
270.5399960081899167
  0
ARC
  5
13DB6
  8
0
 10
4381.6281012216595627
 20
225.6777568852903073
 30
0.0
 40
0.4907653950325508
 50
94.684978980563173
 51
174.5289049844016063
  0
ARC
  5
13DB7
  8
0
 10
4381.6277477626726977
 20
225.6820699363065046
 30
0.0
 40
0.4864378850875171
 50
89.5804951320746454
 51
94.684978980563173
  0
ARC
  5
13DB8
  8
0
 10
4381.5857958513033736
 20
225.4972889118598118
 30
0.0
 40
0.8082301748381485
 50
98.0914482241087313
 51
124.071009102954207
  0
ARC
  5
13DB9
  8
0
 10
4381.4717802294062494
 20
225.6658729615230925
 30
0.0
 40
0.6047107805849548
 50
124.071009102954207
 51
160.9765909671351949
  0
ARC
  5
13DBA
  8
0
 10
4381.4633514709930751
 20
225.6687790683151889
 30
0.0
 40
0.5957950963669923
 50
160.9765909671351949
 51
187.1177505261989893
  0
ARC
  5
13DBB
  8
0
 10
4381.637607487362402
 20
225.2355821945097034
 30
0.0
 40
1.143099785043667
 50
90.315620679654856
 51
101.0981303920495975
  0
ARC
  5
13DBC
  8
0
 10
4381.5904562342466306
 20
225.4862816914290136
 30
0.0
 40
0.8880147153878215
 50
101.2263765671363984
 51
125.0346989026844966
  0
ARC
  5
13DBD
  8
0
 10
4381.4483825823308507
 20
225.6889225886675945
 30
0.0
 40
0.6405308658089939
 50
125.0346989026844966
 51
151.8064895811317001
  0
ARC
  5
13DBE
  8
0
 10
4381.515024816982077
 20
225.6604784581159038
 30
0.0
 40
0.7127337966999122
 50
152.3222509786469061
 51
179.5731019521157918
  0
ARC
  5
13DBF
  8
0
 10
4381.6434245396130791
 20
225.6961875652930019
 30
0.0
 40
0.8416628779495077
 50
182.0698289289346121
 51
203.0879063985709934
  0
LINE
  5
13DC0
  8
0
 10
4381.2794672449626887
 20
227.5982928150203861
 30
0.0
 11
4381.2794672449626887
 21
227.5686829804485001
 31
0.0
  0
ARC
  5
13DC1
  8
0
 10
4381.2494672449638529
 20
227.5982928150203861
 30
0.0
 40
0.03
 50
0.0000000000130276
 51
85.9499174553116632
  0
ARC
  5
13DC2
  8
0
 10
4381.6301346892450965
 20
225.6880161697503979
 30
0.0
 40
1.4731230086530429
 50
89.954285354564675
 51
98.1084106618787359
  0
ARC
  5
13DC3
  8
0
 10
4381.4087382859097488
 20
227.2419930686635041
 30
0.0
 40
0.0965459277042565
 50
261.7017932729776248
 51
278.1084106618786791
  0
ARC
  5
13DC4
  8
0
 10
4381.2472594878554446
 20
226.4124543576054123
 30
0.0
 40
0.7486860043282056
 50
78.6342310120459445
 51
101.3659783725666017
  0
ARC
  5
13DC5
  8
0
 10
4381.029601424557768
 20
227.6271410995080089
 30
0.0
 40
0.4857698086118396
 50
277.2753729486182124
 51
278.2984161115930988
  0
ARC
  5
13DC6
  8
0
 10
4381.0943819594112938
 20
227.1197195213188991
 30
0.0
 40
0.0257701954033077
 50
97.275372948618255
 51
175.444162721477511
  0
ARC
  5
13DC7
  8
0
 10
4381.6301346892450965
 20
228.5071397595689859
 30
0.0
 40
1.4731230086530429
 50
261.8915893381213209
 51
270.0457146454353961
  0
ARC
  5
13DC8
  8
0
 10
4381.4087382859097488
 20
226.9531628606561071
 30
0.0
 40
0.0965459277042565
 50
81.8915893381212499
 51
98.2982067270223752
  0
ARC
  5
13DC9
  8
0
 10
4381.2472594878554446
 20
227.782701571714199
 30
0.0
 40
0.7486860043282056
 50
258.6340216274332988
 51
281.3657689879540271
  0
ARC
  5
13DCA
  8
0
 10
4381.0943819594112938
 20
227.0754364080007122
 30
0.0
 40
0.0257701954033077
 50
184.555837278522489
 51
262.7246270513816739
  0
ARC
  5
13DCB
  8
0
 10
4381.1182328594140927
 20
227.2161425976387079
 30
0.0
 40
0.1684652491334749
 50
260.7379888302950803
 51
263.6882221094745091
  0
ARC
  5
13DCC
  8
0
 10
4382.2464339206690056
 20
227.1259308074743899
 30
0.0
 40
0.8411562118265173
 50
178.6668268720349033
 51
185.1990329551896082
  0
ARC
  5
13DCD
  8
0
 10
4381.3094672449633435
 20
227.5686829804485001
 30
0.0
 40
0.03
 50
179.9999999999527915
 51
247.8533171840057889
  0
LINE
  5
13DCE
  8
0
 10
4381.3053090694556886
 20
228.0291233709288861
 30
0.0
 11
4381.9573121641742546
 21
228.0291233709288861
 31
0.0
  0
LINE
  5
13DCF
  8
0
 10
4381.2515875453718763
 20
227.9460668830928114
 30
0.0
 11
4382.0110336882571573
 21
227.9460668830928114
 31
0.0
  0
LINE
  5
13DD0
  8
0
 10
4381.077172746042379
 20
227.8357693723648936
 30
0.0
 11
4382.1854484875875642
 21
227.8357693723648936
 31
0.0
  0
LINE
  5
13DD1
  8
0
 10
4381.0771734545332947
 20
227.7385042834310127
 30
0.0
 11
4382.1854477790975579
 21
227.7385042834310127
 31
0.0
  0
LINE
  5
13DD2
  8
0
 10
4381.2515860976536715
 20
227.6282178958603026
 30
0.0
 11
4382.0110351359771812
 21
227.6282178958603026
 31
0.0
  0
LINE
  5
13DD3
  8
0
 10
4381.2981578736189476
 20
227.5408963268216098
 30
0.0
 11
4381.964463360011905
 21
227.5408963268216098
 31
0.0
  0
LINE
  5
13DD4
  8
0
 10
4381.2729600184729861
 20
227.2966697779017977
 30
0.0
 11
4381.9896612151578665
 21
227.2966697779017977
 31
0.0
  0
ARC
  5
13DD5
  8
0
 10
4381.2909637069869859
 20
227.4026683321320945
 30
0.0
 40
0.1520493676527491
 50
259.8145112527653282
 51
262.2623196863684143
  0
LINE
  5
13DD6
  8
0
 10
4380.8528873290897536
 20
226.9411437550452888
 30
0.0
 11
4382.4097339045401895
 21
226.9411437550452888
 31
0.0
  0
LINE
  5
13DD7
  8
0
 10
4380.8450380360281997
 20
226.8015450570433131
 30
0.0
 11
4382.4175831976026529
 21
226.8015450570433131
 31
0.0
  0
LINE
  5
13DD8
  8
0
 10
4380.7624915484848316
 20
224.5304975705292065
 30
0.0
 11
4382.5001296851451116
 21
224.5304975705292065
 31
0.0
  0
LINE
  5
13DD9
  8
0
 10
4380.5193093036641585
 20
223.5947011647097895
 30
0.0
 11
4382.7433119299648752
 21
223.5947011647097895
 31
0.0
  0
LINE
  5
13DDA
  8
0
 10
4380.4708474736571588
 20
223.479014859191409
 30
0.0
 11
4382.7917737599736938
 21
223.479014859191409
 31
0.0
  0
LINE
  5
13DDB
  8
0
 10
4380.4497081082654404
 20
223.4042367911098097
 30
0.0
 11
4382.8129131253654123
 21
223.4042367911098097
 31
0.0
  0
ARC
  5
13DDC
  8
0
 10
4382.9510528789824093
 20
223.1779683338039888
 30
0.0
 40
0.0299999998850384
 50
329.9999998860461119
 51
4.9560429035304976
  0
ARC
  5
13DDD
  8
0
 10
4382.717656559822899
 20
223.1577292210102996
 30
0.0
 40
0.2642721994365033
 50
4.9560429035304976
 51
68.8722464284467861
  0
ARC
  5
13DDE
  8
0
 10
4382.8304292641923894
 20
223.4495655387422062
 30
0.0
 40
0.0485953751022831
 50
142.6983891002838902
 51
248.8722464284462035
  0
ARC
  5
13DDF
  8
0
 10
4382.7341884954075795
 20
223.5228856337056982
 30
0.0
 40
0.072392731344428
 50
322.6983891002839755
 51
82.7599357550068362
  0
ARC
  5
13DE0
  8
0
 10
4382.7662126257528143
 20
223.7749650355283961
 30
0.0
 40
0.1817126990336665
 50
245.0121709485561041
 51
262.7599357550067793
  0
ARC
  5
13DE1
  8
0
 10
4382.8161993216617702
 20
223.9062742162709867
 30
0.0
 40
0.3220070263287617
 50
227.4705605122219936
 51
246.8203730021083118
  0
ARC
  5
13DE2
  8
0
 10
4383.0123425358351597
 20
224.1038528925409992
 30
0.0
 40
0.6002959734229805
 50
198.4923972550992914
 51
226.4218579409111953
  0
ARC
  5
13DE3
  8
0
 10
4383.0486669058564075
 20
224.1353570314080912
 30
0.0
 40
0.6449984604226622
 50
176.820806761883091
 51
200.1232081951679902
  0
ARC
  5
13DE4
  8
0
 10
4382.7333898713895906
 20
224.1545388132605012
 30
0.0
 40
0.3291470690103044
 50
143.1635127993079948
 51
177.1110470624446123
  0
ARC
  5
13DE5
  8
0
 10
4382.4544983928817601
 20
224.3645631688355024
 30
0.0
 40
0.0199999999692392
 50
320.6182233620573925
 51
90.0
  0
LINE
  5
13DE6
  8
0
 10
4382.5153119299648097
 20
224.4095631688097967
 30
0.0
 11
4382.5153119299648097
 21
224.5075060137478999
 31
0.0
  0
ARC
  5
13DE7
  8
0
 10
4382.6130421158140962
 20
224.7949197845182994
 30
0.0
 40
0.287520997930147
 50
231.9556216309237016
 51
246.8767581357566883
  0
ARC
  5
13DE8
  8
0
 10
4382.526406034889078
 20
224.6842075191879076
 30
0.0
 40
0.1469400027251839
 50
208.5669508522485955
 51
231.9556216309237016
  0
ARC
  5
13DE9
  8
0
 10
4382.4794378490896634
 20
224.6586347673971886
 30
0.0
 40
0.0934612582422739
 50
153.6190413293120116
 51
208.5669508522485955
  0
ARC
  5
13DEA
  8
0
 10
4382.5964876775788071
 20
224.6005792051022922
 30
0.0
 40
0.2241177187129395
 50
131.9879365597828098
 51
153.6190413293120116
  0
ARC
  5
13DEB
  8
0
 10
4381.8390528916133917
 20
225.442152022901098
 30
0.0
 40
0.9081155888029362
 50
311.9879365597827814
 51
317.189440768340603
  0
ARC
  5
13DEC
  8
0
 10
4382.2156724151873277
 20
225.0510568641311124
 30
0.0
 40
0.3673542582551647
 50
322.0251318485122738
 51
340.2361703230420744
  0
ARC
  5
13DED
  8
0
 10
4381.766271151728688
 20
225.2012599281779899
 30
0.0
 40
0.8411404100892589
 50
340.958705715650126
 51
354.0431799222834002
  0
ARC
  5
13DEE
  8
0
 10
4369.6303347729153757
 20
225.8846879597687973
 30
0.0
 40
12.99540971281602
 50
356.5999555662770035
 51
359.0378875729132915
  0
ARC
  5
13DEF
  8
0
 10
4334.2186232297926836
 20
224.8719151603866919
 30
0.0
 40
48.4118099947693565
 50
0.9404150255541106
 51
1.3953708147890369
  0
ARC
  5
13DF0
  8
0
 10
4380.9399790943034532
 20
225.9715150685748029
 30
0.0
 40
1.6779728013975821
 50
2.7086304048533281
 51
10.6182129134507104
  0
ARC
  5
13DF1
  8
0
 10
4382.0446878907241626
 20
226.1738486981433027
 30
0.0
 40
0.5549171736052979
 50
11.1023418239111908
 51
30.0266142968968808
  0
ARC
  5
13DF2
  8
0
 10
4382.1089899232310927
 20
226.1546558804730012
 30
0.0
 40
0.5111831355778871
 50
35.5039990638161385
 51
54.1003023036666022
  0
ARC
  5
13DF3
  8
0
 10
4382.578930642423984
 20
226.7782908015263956
 30
0.0
 40
0.2699639636188272
 50
211.3896673941648885
 51
230.9165428340365906
  0
ARC
  5
13DF4
  8
0
 10
4382.4390588910009683
 20
226.6873110237966955
 30
0.0
 40
0.1032879677333202
 50
157.3083226985282863
 51
208.7197212960408024
  0
ARC
  5
13DF5
  8
0
 10
4382.477185230845862
 20
226.6685813468911874
 30
0.0
 40
0.1457111889462295
 50
114.1446849200873999
 51
156.2969949542817005
  0
LINE
  5
13DF6
  8
0
 10
4382.4353119299648824
 20
226.82892052033759
 30
0.0
 11
4382.4353119299648824
 21
226.9114714423471924
 31
0.0
  0
ARC
  5
13DF7
  8
0
 10
4382.4400296459380115
 20
227.1444340944127021
 30
0.0
 40
0.2055353838804162
 50
252.7056606921904915
 51
261.5237664124600201
  0
ARC
  5
13DF8
  8
0
 10
4382.4742709762040249
 20
227.240624073776587
 30
0.0
 40
0.3075832112442645
 50
241.5548583443919028
 51
251.9422966549703062
  0
ARC
  5
13DF9
  8
0
 10
4381.7563916925455487
 20
225.9819261579729925
 30
0.0
 40
1.141534266286842
 50
59.9649298096878525
 51
64.0787113113220954
  0
ARC
  5
13DFA
  8
0
 10
4382.169388949824679
 20
226.821783011608801
 30
0.0
 40
0.2056801838057318
 50
65.2811461733340508
 51
80.8184910727043899
  0
ARC
  5
13DFB
  8
0
 10
4382.1738901161697868
 20
226.8420966463067998
 30
0.0
 40
0.1849125014691911
 50
81.1909995873394053
 51
90.3241946024260471
  0
LINE
  5
13DFC
  8
0
 10
4382.1939280460728696
 20
227.0571403355631901
 30
0.0
 11
4382.1939280460728696
 21
227.1339577482841037
 31
0.0
  0
ARC
  5
13DFD
  8
0
 10
4382.490311929966083
 20
224.4095631688097967
 30
0.0
 40
0.025
 50
270.0
 51
0.0
  0
ARC
  5
13DFE
  8
0
 10
4382.490311929966083
 20
224.5075060137478999
 30
0.0
 40
0.025
 50
0.000000000014656
 51
66.8767581357049892
  0
ARC
  5
13DFF
  8
0
 10
4382.4053119299651371
 20
226.82892052033759
 30
0.0
 40
0.03
 50
294.1446849201375926
 51
359.9999999999968168
  0
ARC
  5
13E00
  8
0
 10
4382.4053119299651371
 20
226.9114714423471924
 30
0.0
 40
0.03
 50
359.9999999999968168
 51
81.5237664124602333
  0
ARC
  5
13E01
  8
0
 10
4381.8034413530303937
 20
227.8520611733534906
 30
0.0
 40
0.9007741032114868
 50
293.6604332005093738
 51
294.4556603565562227
  0
ARC
  5
13E02
  8
0
 10
4382.1641061605396317
 20
227.0590287188003913
 30
0.0
 40
0.0295797636114312
 50
294.4556603565562227
 51
320.8300580968103759
  0
ARC
  5
13E03
  8
0
 10
4382.1627851576222383
 20
227.060104948995388
 30
0.0
 40
0.0312836767960319
 50
320.8300580968116833
 51
354.5621766453264172
  0
ARC
  5
13E04
  8
0
 10
4382.1244668247281879
 20
227.3169739480368889
 30
0.0
 40
0.1242242476278582
 50
218.0097250449746014
 51
240.5194086742681066
  0
ARC
  5
13E05
  8
0
 10
4382.310455981866653
 20
227.6459686524001995
 30
0.0
 40
0.50215212708678
 50
240.5194086742681066
 51
247.5967660777843093
  0
ARC
  5
13E06
  8
0
 10
4382.9992223571016439
 20
229.4520261974550124
 30
0.0
 40
2.4349467180983222
 50
248.8098094625684098
 51
250.1925922449194104
  0
ARC
  5
13E07
  8
0
 10
4382.1641209066192459
 20
227.1332531195589866
 30
0.0
 40
0.029622854741416
 50
33.9098956160124132
 51
70.277925242216142
  0
ARC
  5
13E08
  8
0
 10
4382.1630634012408336
 20
227.1325422402910021
 30
0.0
 40
0.0308970866495928
 50
2.6258473028426468
 51
33.9098956160110632
  0
ARC
  5
13E09
  8
0
 10
4382.0029525771178669
 20
227.2220033937375092
 30
0.0
 40
0.03
 50
38.0097250448975785
 51
90.0000000000521254
  0
ARC
  5
13E0A
  8
0
 10
4381.9980605616656248
 20
227.2690078547097983
 30
0.0
 40
0.0160000000000016
 50
271.7359198313250204
 51
7.5196070497991547
  0
ARC
  5
13E0B
  8
0
 10
4381.9841825977136978
 20
227.2671759544180077
 30
0.0
 40
0.0299983478341821
 50
7.5196070498007721
 51
79.4769752513281986
  0
ARC
  5
13E0C
  8
0
 10
4382.0131826828192061
 20
227.4232962530172983
 30
0.0
 40
0.1287925605037783
 50
236.5458963679238025
 51
259.4769752513282128
  0
ARC
  5
13E0D
  8
0
 10
4382.0123965115653846
 20
227.4221064080587098
 30
0.0
 40
0.1273664482127552
 50
201.4365109248394106
 51
236.5458963679238025
  0
ARC
  5
13E0E
  8
0
 10
4382.0133222933645811
 20
227.4224698986946862
 30
0.0
 40
0.1283610322379365
 50
157.2204771410239061
 51
201.4365109248394106
  0
ARC
  5
13E0F
  8
0
 10
4382.0125280277288766
 20
227.4228034432489096
 30
0.0
 40
0.1274995742476986
 50
112.1466858559470978
 51
157.2204771410239061
  0
LINE
  5
13E10
  8
0
 10
4381.983153980928364
 20
227.9759918619398888
 30
0.0
 11
4381.983153980928364
 21
227.9994129432631951
 31
0.0
  0
ARC
  5
13E11
  8
0
 10
4381.9971454313808863
 20
227.8243856307520048
 30
0.0
 40
0.196658852092305
 50
274.0500825446882232
 51
329.6391040872679241
  0
ARC
  5
13E12
  8
0
 10
4382.1915771880712782
 20
227.7104915005836006
 30
0.0
 40
0.0286755236610517
 50
102.3422351867248068
 51
149.6391040872663893
  0
ARC
  5
13E13
  8
0
 10
4382.1738166185450609
 20
227.7871369126233958
 30
0.0
 40
0.0500041650059034
 50
283.4504190303080122
 51
76.5487462708610167
  0
ARC
  5
13E14
  8
0
 10
4382.191577702147697
 20
227.8637793124966038
 30
0.0
 40
0.0286727050921539
 50
210.3587571405248013
 51
257.6569301144949122
  0
ARC
  5
13E15
  8
0
 10
4381.9971336893231637
 20
227.74988775165329
 30
0.0
 40
0.1966709474801907
 50
30.3587571405234691
 51
85.9471604096148667
  0
ARC
  5
13E16
  8
0
 10
4382.0131539809271999
 20
227.9759918619398888
 30
0.0
 40
0.03
 50
180.0000000000277112
 51
265.9471604095106159
  0
ARC
  5
13E17
  8
0
 10
4381.9789105437612307
 20
228.1834448753247102
 30
0.0
 40
0.1558255971262553
 50
244.6856633735619084
 51
262.0328042314774848
  0
ARC
  5
13E18
  8
0
 10
4382.0110808365297999
 20
228.2514576037891914
 30
0.0
 40
0.2310629480235018
 50
232.4126605371637027
 51
244.6856633735619084
  0
ARC
  5
13E19
  8
0
 10
4381.4733695035320125
 20
227.5529059524205877
 30
0.0
 40
0.6504742816298927
 50
52.4126605371637311
 51
58.5993903002499295
  0
ARC
  5
13E1A
  8
0
 10
4381.6842224462889135
 20
227.8983302592799021
 30
0.0
 40
0.2457806750103021
 50
58.5993903002499295
 51
74.5041286372313749
  0
ARC
  5
13E1B
  8
0
 10
4381.6467388499759181
 20
227.7631309471177019
 30
0.0
 40
0.3860799052352053
 50
74.5041286372313749
 51
86.5579903938967306
  0
ARC
  5
13E1C
  8
0
 10
4381.5583757650756525
 20
224.2384555243397131
 30
0.0
 40
3.9116495400455542
 50
88.3659605065077614
 51
88.9316268459572683
  0
ARC
  5
13E1D
  8
0
 10
4381.9531539809258902
 20
227.9994129432633088
 30
0.0
 40
0.03
 50
359.999999999949523
 51
82.0328042316348132
  0
ARC
  5
13E1E
  8
0
 10
4381.6284436258447386
 20
225.3949039160652035
 30
0.0
 40
0.7433786771161675
 50
270.2209733676809833
 51
285.3910738482643978
  0
ARC
  5
13E1F
  8
0
 10
4381.6081581723856289
 20
225.4686450241794944
 30
0.0
 40
0.8198590699353104
 50
285.3901391389222795
 51
305.7957133033783066
  0
ARC
  5
13E20
  8
0
 10
4381.6828557210619692
 20
225.3650579842787067
 30
0.0
 40
0.6921484649971226
 50
305.7957133033783066
 51
334.0429693302193073
  0
ARC
  5
13E21
  8
0
 10
4381.4663274501908745
 20
225.470464935995011
 30
0.0
 40
0.9329702197379258
 50
334.0429693302193073
 51
358.5551407642223012
  0
ARC
  5
13E22
  8
0
 10
4381.5026189672753389
 20
225.4695495587706944
 30
0.0
 40
0.8966671602564419
 50
358.5551407642223012
 51
14.0366874738267597
  0
ARC
  5
13E23
  8
0
 10
4382.1670830064858819
 20
225.6356710395816947
 30
0.0
 40
0.2117519787991898
 50
14.0366874738267597
 51
42.0211490339437717
  0
ARC
  5
13E24
  8
0
 10
4382.2220921287316742
 20
225.6852382547405114
 30
0.0
 40
0.1377052884680893
 50
42.0211490339437717
 51
60.812192878484062
  0
ARC
  5
13E25
  8
0
 10
4382.3061123064217099
 20
225.8356498136523953
 30
0.0
 40
0.0345823411325569
 50
206.6920082425880878
 51
240.812192878484808
  0
ARC
  5
13E26
  8
0
 10
4381.3236649008158565
 20
225.4894689975209872
 30
0.0
 40
1.0073605537142361
 50
19.1614190896929983
 51
30.7358808055802299
  0
ARC
  5
13E27
  8
0
 10
4381.6314588828136039
 20
225.6643585884550021
 30
0.0
 40
0.653456189518384
 50
31.3482994865585489
 51
58.7554413004365017
  0
ARC
  5
13E28
  8
0
 10
4381.6343696588992316
 20
225.6656829556343098
 30
0.0
 40
0.6508166043742348
 50
58.9140539437885806
 51
83.9558863906907362
  0
ARC
  5
13E29
  8
0
 10
4381.6262401307412802
 20
225.5708423780085923
 30
0.0
 40
0.7459883906722539
 50
84.1019562069127176
 51
89.6105573588729953
  0
ARC
  5
13E2A
  8
0
 10
4381.6034810017463315
 20
225.8731889899005125
 30
0.0
 40
1.085915985141231
 50
271.4685243652676263
 51
279.9191427932746024
  0
ARC
  5
13E2B
  8
0
 10
4381.6677827694647931
 20
225.4070436302623079
 30
0.0
 40
0.6158956089817365
 50
281.4968056719965261
 51
303.6322613537341226
  0
ARC
  5
13E2C
  8
0
 10
4381.6991017160999036
 20
225.3599623613339986
 30
0.0
 40
0.5593489706894808
 50
303.6322613537341226
 51
331.4879142764364133
  0
ARC
  5
13E2D
  8
0
 10
4381.5187696047087229
 20
225.457923966934402
 30
0.0
 40
0.7645711589891484
 50
331.4879142764364133
 51
350.9323894092257774
  0
ARC
  5
13E2E
  8
0
 10
4381.2632515508521465
 20
225.4987031908949859
 30
0.0
 40
1.023322817831376
 50
350.9323894092257774
 51
4.3174986579451344
  0
ARC
  5
13E2F
  8
0
 10
4381.8340116055842373
 20
225.5417941598948062
 30
0.0
 40
0.4509384437543848
 50
4.3174986579451344
 51
18.2028780369276717
  0
ARC
  5
13E30
  8
0
 10
4382.1073660840329467
 20
225.6316837549491936
 30
0.0
 40
0.1631836693598962
 50
18.2028780369276717
 51
39.9559321324771375
  0
ARC
  5
13E31
  8
0
 10
4382.1622752501762079
 20
225.6623184985880926
 30
0.0
 40
0.1021019137889606
 50
46.5811009368256919
 51
66.0854824221503208
  0
ARC
  5
13E32
  8
0
 10
4382.2283225013215997
 20
225.8142493486575972
 30
0.0
 40
0.0635711987242107
 50
220.2287702719370088
 51
247.1774738930978117
  0
ARC
  5
13E33
  8
0
 10
4393.8791239679330829
 20
231.4170691375014997
 30
0.0
 40
12.9895270718619305
 50
205.068236466721288
 51
205.7531257029025937
  0
ARC
  5
13E34
  8
0
 10
4381.6147072933581512
 20
225.6509842352334942
 30
0.0
 40
0.5633288518679751
 50
27.7687199954078707
 51
51.005192843515232
  0
ARC
  5
13E35
  8
0
 10
4381.6363563283557596
 20
225.6766208719344888
 30
0.0
 40
0.5297817811205096
 50
51.080231760432639
 51
77.327914084757424
  0
ARC
  5
13E36
  8
0
 10
4381.6346313117528553
 20
225.6724393563816875
 30
0.0
 40
0.5342404085420284
 50
77.2457954241976381
 51
85.3866897300223542
  0
ARC
  5
13E37
  8
0
 10
4381.5614442904097814
 20
223.9098892829850911
 30
0.0
 40
2.297997197147835
 50
87.1026512592301287
 51
88.2577339465603643
  0
ARC
  5
13E38
  8
0
 10
4381.6357572149363477
 20
225.6778753844768914
 30
0.0
 40
0.4895225301024665
 50
269.460003991810197
 51
5.4710950155983689
  0
ARC
  5
13E39
  8
0
 10
4381.6345200119703804
 20
225.6777568852903073
 30
0.0
 40
0.4907653950325508
 50
5.4710950155983689
 51
85.3150210194368555
  0
ARC
  5
13E3A
  8
0
 10
4381.634873470956336
 20
225.6820699363065046
 30
0.0
 40
0.4864378850875171
 50
85.3150210194368555
 51
90.4195048679253546
  0
ARC
  5
13E3B
  8
0
 10
4381.6768253823265695
 20
225.4972889118598118
 30
0.0
 40
0.8082301748381485
 50
55.9289908970458001
 51
81.9085517758912829
  0
ARC
  5
13E3C
  8
0
 10
4381.7908410042236937
 20
225.6658729615230925
 30
0.0
 40
0.6047107805849548
 50
19.0234090328647589
 51
55.9289908970458001
  0
ARC
  5
13E3D
  8
0
 10
4381.7992697626368681
 20
225.6687790683151889
 30
0.0
 40
0.5957950963669923
 50
352.8822494738009823
 51
19.0234090328647589
  0
ARC
  5
13E3E
  8
0
 10
4381.6250137462693601
 20
225.2355821945097034
 30
0.0
 40
1.1430997850436699
 50
78.9018696079504309
 51
89.6843793202930328
  0
ARC
  5
13E3F
  8
0
 10
4381.6721649993833125
 20
225.4862816914290136
 30
0.0
 40
0.8880147153878215
 50
54.9653010973154892
 51
78.7736234328635732
  0
ARC
  5
13E40
  8
0
 10
4381.8142386512990925
 20
225.6889225886675945
 30
0.0
 40
0.6405308658089939
 50
28.1935104188682502
 51
54.9653010973154892
  0
ARC
  5
13E41
  8
0
 10
4381.7475964166469566
 20
225.6604784581159038
 30
0.0
 40
0.7127337966999122
 50
0.4268980478825159
 51
27.6777490213531294
  0
ARC
  5
13E42
  8
0
 10
4381.6191966940177736
 20
225.6961875652930019
 30
0.0
 40
0.8416628779495077
 50
336.9120936014290919
 51
357.9301710710652742
  0
LINE
  5
13E43
  8
0
 10
4381.983153988666345
 20
227.5982928150203861
 30
0.0
 11
4381.983153988666345
 21
227.5686829804485001
 31
0.0
  0
ARC
  5
13E44
  8
0
 10
4382.0131539886669998
 20
227.5982928150203861
 30
0.0
 40
0.03
 50
94.0500825446883368
 51
179.9999999999870113
  0
ARC
  5
13E45
  8
0
 10
4381.6324865443848466
 20
225.6880161697503979
 30
0.0
 40
1.4731230086530429
 50
81.8915893381212499
 51
90.0457146454353392
  0
ARC
  5
13E46
  8
0
 10
4381.8538829477201944
 20
227.2419930686635041
 30
0.0
 40
0.0965459277042565
 50
261.8915893381213209
 51
278.2982067270223752
  0
ARC
  5
13E47
  8
0
 10
4382.0153617457763175
 20
226.4124543576054123
 30
0.0
 40
0.7486860043282056
 50
78.6340216274333557
 51
101.3657689879539987
  0
ARC
  5
13E48
  8
0
 10
4382.2330198090721751
 20
227.6271410995080089
 30
0.0
 40
0.4857698086118396
 50
261.7015838884067875
 51
262.7246270513816739
  0
ARC
  5
13E49
  8
0
 10
4382.1682392742186494
 20
227.1197195213188991
 30
0.0
 40
0.0257701954033077
 50
4.5558372785225334
 51
82.7246270513817734
  0
ARC
  5
13E4A
  8
0
 10
4381.6324865443848466
 20
228.5071397595689859
 30
0.0
 40
1.4731230086530429
 50
269.9542853545647176
 51
278.1084106618786791
  0
ARC
  5
13E4B
  8
0
 10
4381.8538829477201944
 20
226.9531628606561071
 30
0.0
 40
0.0965459277042565
 50
81.7017932729776248
 51
98.1084106618787359
  0
ARC
  5
13E4C
  8
0
 10
4382.0153617457763175
 20
227.782701571714199
 30
0.0
 40
0.7486860043282056
 50
258.6342310120459729
 51
281.3659783725665875
  0
ARC
  5
13E4D
  8
0
 10
4382.1682392742186494
 20
227.0754364080007122
 30
0.0
 40
0.0257701954033077
 50
277.2753729486182124
 51
355.4441627214774826
  0
ARC
  5
13E4E
  8
0
 10
4382.14438837421676
 20
227.2161425976387079
 30
0.0
 40
0.1684652491334749
 50
276.3117778905254909
 51
279.2620111697049197
  0
ARC
  5
13E4F
  8
0
 10
4381.0161873129600281
 20
227.1259308074743899
 30
0.0
 40
0.8411562118265173
 50
354.8009670448087149
 51
1.333173127965086
  0
ARC
  5
13E50
  8
0
 10
4381.9531539886665996
 20
227.5686829804485001
 30
0.0
 40
0.03
 50
292.1466828159942111
 51
0.0000000000472249
  0
ARC
  5
13E51
  8
0
 10
4381.9716575266420477
 20
227.4026683321320945
 30
0.0
 40
0.1520493676527491
 50
277.7376803136315857
 51
280.1854887472346718
  0
ENDSEC
  0
EOF
