  0
SECTION
  2
HEADER
  9
$ACADVER
  1
AC1009
  9
$INSBASE
 10
44.6926037934774314
 20
3.9014865046318121
 30
0.0
  9
$EXTMIN
 10
38.5631812847305824
 20
3.9013196292285519
 30
-0.0015258207003583
  9
$EXTMAX
 10
46.0436566373178593
 20
10.8475477543932897
 30
0.0000000349246037
  9
$LIMMIN
 10
0.0
 20
0.0
  9
$LIMMAX
 10
11.6929133858000007
 20
8.2677165353999982
  9
$ORTHOMODE
 70
     0
  9
$REGENMODE
 70
     1
  9
$FILLMODE
 70
     1
  9
$QTEXTMODE
 70
     0
  9
$MIRRTEXT
 70
     0
  9
$DRAGMODE
 70
     2
  9
$LTSCALE
 40
0.6431102362
  9
$OSMODE
 70
    19
  9
$ATTMODE
 70
     1
  9
$TEXTSIZE
 40
0.2
  9
$TRACEWID
 40
0.05
  9
$TEXTSTYLE
  7
STANDARD
  9
$CLAYER
  8
0
  9
$CELTYPE
  6
BYLAYER
  9
$CECOLOR
 62
   256
  9
$DIMSCALE
 40
1.0
  9
$DIMASZ
 40
0.1875
  9
$DIMEXO
 40
0.0625
  9
$DIMDLI
 40
0.4443307087
  9
$DIMRND
 40
0.0
  9
$DIMDLE
 40
0.0
  9
$DIMEXE
 40
0.125
  9
$DIMTP
 40
0.01
  9
$DIMTM
 40
0.01
  9
$DIMTXT
 40
1.0
  9
$DIMCEN
 40
0.1052362205
  9
$DIMTSZ
 40
0.0
  9
$DIMTOL
 70
     1
  9
$DIMLIM
 70
     0
  9
$DIMTIH
 70
     1
  9
$DIMTOH
 70
     1
  9
$DIMSE1
 70
     0
  9
$DIMSE2
 70
     0
  9
$DIMTAD
 70
     0
  9
$DIMZIN
 70
     0
  9
$DIMBLK
  1

  9
$DIMASO
 70
     1
  9
$DIMSHO
 70
     1
  9
$DIMPOST
  1
\X
  9
$DIMAPOST
  1

  9
$DIMALT
 70
     1
  9
$DIMALTD
 70
     2
  9
$DIMALTF
 40
25.3999999999999986
  9
$DIMLFAC
 40
1.0
  9
$DIMTOFL
 70
     0
  9
$DIMTVP
 40
0.0
  9
$DIMTIX
 70
     0
  9
$DIMSOXD
 70
     0
  9
$DIMSAH
 70
     0
  9
$DIMBLK1
  1

  9
$DIMBLK2
  1

  9
$DIMSTYLE
  2
STANDARD
  9
$DIMCLRD
 70
     0
  9
$DIMCLRE
 70
     0
  9
$DIMCLRT
 70
     0
  9
$DIMTFAC
 40
1.0
  9
$DIMGAP
 40
0.09
  9
$LUNITS
 70
     2
  9
$LUPREC
 70
     4
  9
$SKETCHINC
 40
0.1
  9
$FILLETRAD
 40
0.0
  9
$AUNITS
 70
     0
  9
$AUPREC
 70
     0
  9
$MENU
  1
.
  9
$ELEVATION
 40
0.0
  9
$PELEVATION
 40
0.0
  9
$THICKNESS
 40
0.0
  9
$LIMCHECK
 70
     0
  9
$BLIPMODE
 70
     0
  9
$CHAMFERA
 40
0.0
  9
$CHAMFERB
 40
0.0
  9
$SKPOLY
 70
     0
  9
$TDCREATE
 40
2458171.3976967590861022
  9
$TDUPDATE
 40
2459697.7051273151300848
  9
$TDINDWG
 40
0.0905981713
  9
$TDUSRTIMER
 40
0.0905981713
  9
$USRTIMER
 70
     1
  9
$ANGBASE
 50
0.0
  9
$ANGDIR
 70
     0
  9
$PDMODE
 70
     0
  9
$PDSIZE
 40
0.3125
  9
$PLINEWID
 40
0.0
  9
$COORDS
 70
     1
  9
$SPLFRAME
 70
     0
  9
$SPLINETYPE
 70
     6
  9
$SPLINESEGS
 70
     8
  9
$ATTDIA
 70
     1
  9
$ATTREQ
 70
     1
  9
$HANDLING
 70
     1
  9
$HANDSEED
  5
1734
  9
$SURFTAB1
 70
     6
  9
$SURFTAB2
 70
     6
  9
$SURFTYPE
 70
     6
  9
$SURFU
 70
     6
  9
$SURFV
 70
     6
  9
$UCSNAME
  2

  9
$UCSORG
 10
0.0
 20
0.0
 30
0.0
  9
$UCSXDIR
 10
1.0
 20
0.0
 30
0.0
  9
$UCSYDIR
 10
0.0
 20
1.0
 30
0.0
  9
$PUCSNAME
  2

  9
$PUCSORG
 10
0.0
 20
0.0
 30
0.0
  9
$PUCSXDIR
 10
1.0
 20
0.0
 30
0.0
  9
$PUCSYDIR
 10
0.0
 20
1.0
 30
0.0
  9
$USERI1
 70
     0
  9
$USERI2
 70
     0
  9
$USERI3
 70
     0
  9
$USERI4
 70
     0
  9
$USERI5
 70
     0
  9
$USERR1
 40
0.0
  9
$USERR2
 40
0.0
  9
$USERR3
 40
0.0
  9
$USERR4
 40
0.0
  9
$USERR5
 40
0.0
  9
$WORLDVIEW
 70
     1
  9
$SHADEDGE
 70
     3
  9
$SHADEDIF
 70
    70
  9
$TILEMODE
 70
     1
  9
$MAXACTVP
 70
    64
  9
$PLIMCHECK
 70
     0
  9
$PEXTMIN
 10
1.0000000000000000E+20
 20
1.0000000000000000E+20
 30
1.0000000000000000E+20
  9
$PEXTMAX
 10
-1.0000000000000000E+20
 20
-1.0000000000000000E+20
 30
-1.0000000000000000E+20
  9
$PLIMMIN
 10
0.0
 20
0.0
  9
$PLIMMAX
 10
12.0
 20
9.0
  9
$UNITMODE
 70
     0
  9
$VISRETAIN
 70
     1
  9
$PLINEGEN
 70
     0
  9
$PSLTSCALE
 70
     1
  0
ENDSEC
  0
SECTION
  2
TABLES
  0
TABLE
  2
VPORT
 70
     1
  0
VPORT
  2
*ACTIVE
 70
     0
 10
0.0
 20
0.0
 11
1.0
 21
1.0
 12
-1.5303592037642351
 22
3.7981210865435169
 13
0.0
 23
0.0
 14
1.0
 24
1.0
 15
0.0
 25
0.0
 16
-0.0000000000000142
 26
0.0
 36
57.6924941899995076
 17
43.8337781647884484
 27
3.576312605267407
 37
0.0
 40
6.9897326854476134
 41
2.005224660397074
 42
50.0
 43
0.0
 44
0.0
 50
0.0
 51
0.0
 71
     0
 72
   100
 73
     1
 74
     1
 75
     0
 76
     0
 77
     0
 78
     0
  0
ENDTAB
  0
TABLE
  2
LTYPE
 70
     2
  0
LTYPE
  2
CONTINUOUS
 70
     0
  3
Solid line
 72
    65
 73
     0
 40
0.0
  0
LTYPE
  2
PHANTOM2
 70
     0
  3
___ _ _ ___ _ _ ___ _ _ ___ _ _
 72
    65
 73
     6
 40
1.25
 49
0.625
 49
-0.125
 49
0.125
 49
-0.125
 49
0.125
 49
-0.125
  0
ENDTAB
  0
TABLE
  2
LAYER
 70
     2
  0
LAYER
  2
0
 70
     0
 62
   255
  6
CONTINUOUS
  0
LAYER
  2
DEFPOINTS
 70
     0
 62
     7
  6
CONTINUOUS
  0
ENDTAB
  0
TABLE
  2
STYLE
 70
     1
  0
STYLE
  2
STANDARD
 70
     0
 40
0.0
 41
0.8
 50
0.0
 71
     0
 42
0.2
  3
txt
  4

  0
ENDTAB
  0
TABLE
  2
VIEW
 70
     0
  0
ENDTAB
  0
TABLE
  2
UCS
 70
     0
  0
ENDTAB
  0
TABLE
  2
APPID
 70
    10
  0
APPID
  2
ACAD
 70
     0
  0
APPID
  2
ACAD_MLEADERVER
 70
     0
  0
APPID
  2
ACAD_EXEMPT_FROM_CAD_STANDARDS
 70
     0
  0
APPID
  2
ACAD_DSTYLE_DIMJAG
 70
     0
  0
APPID
  2
ACAD_DSTYLE_DIMTALN
 70
     0
  0
APPID
  2
ACAD_NAV_VCDISPLAY
 70
     0
  0
APPID
  2
ACAECLAYERSTANDARD
 70
     0
  0
APPID
  2
ACCMTRANSPARENCY
 70
     0
  0
APPID
  2
DCO15
 70
     0
  0
APPID
  2
ACDBATTR
 70
     0
  0
ENDTAB
  0
TABLE
  2
DIMSTYLE
 70
     1
  0
DIMSTYLE
  2
STANDARD
 70
     0
  3

  4

  5

  6

  7

 40
1.0
 41
0.1875
 42
0.0625
 43
0.38
 44
0.125
 45
0.0
 46
0.0
 47
0.01
 48
0.01
140
0.15625
141
0.09
142
0.0
143
25.3999999999999986
144
1.0
145
0.0
146
1.0
147
0.09
 71
     1
 72
     0
 73
     1
 74
     1
 75
     0
 76
     0
 77
     0
 78
     4
170
     0
171
     2
172
     0
173
     0
174
     0
175
     0
176
     0
177
     0
178
     0
  0
ENDTAB
  0
ENDSEC
  0
SECTION
  2
BLOCKS
  0
BLOCK
  8
0
  2
$MODEL_SPACE
 70
     0
 10
0.0
 20
0.0
 30
0.0
  3
$MODEL_SPACE
  1

  0
ENDBLK
  5
21
  8
0
  0
BLOCK
 67
     1
  8
0
  2
$PAPER_SPACE
 70
     0
 10
0.0
 20
0.0
 30
0.0
  3
$PAPER_SPACE
  1

  0
ENDBLK
  5
1D
 67
     1
  8
0
  0
ENDSEC
  0
SECTION
  2
ENTITIES
  0
ATTDEF
  5
710
  8
DEFPOINTS
 10
44.6927041617677929
 20
3.9049532518462491
 30
0.0
 40
0.001
  1
K-72762-9M
  3

  2
MODELNUMBER
 70
     0
1001
ACDBATTR
1070
     0
1070
     1
  0
ATTDEF
  5
711
  8
DEFPOINTS
 10
44.6927041617677929
 20
3.9032865851795839
 30
0.0
 40
0.001
  1
ARTIFACTS
  3

  2
TRADENAME
 70
     0
1001
ACDBATTR
1070
     0
1070
     1
  0
ATTDEF
  5
712
  8
DEFPOINTS
 10
44.6927041617677929
 20
3.9016199185129188
 30
0.0
 40
0.001
  1
BATHROOM SINK FAUCET
  3

  2
PRODUCT
 70
     0
1001
ACDBATTR
1070
     0
1070
     1
  0
LINE
  5
156C
  8
0
 10
43.34260379347743
 20
3.9014865046318099
 30
0.0
 11
46.0426037934774186
 21
3.9014865046318099
 31
0.0
  0
ARC
  5
156D
  8
0
 10
45.7110626277242105
 20
3.9016488020592819
 30
0.0
 40
0.3315412054775306
 50
359.9719523309971123
 51
31.6113703363670488
  0
ARC
  5
156E
  8
0
 10
45.7018386686046227
 20
3.8466194754290921
 30
0.0
 40
0.3706312066711805
 50
38.1226988452285909
 51
69.0640997282595777
  0
ARC
  5
156F
  8
0
 10
45.5852983396135087
 20
3.5420033712784451
 30
0.0
 40
0.6967793619462236
 50
69.0640997282595777
 51
76.5633653652216708
  0
ARC
  5
1570
  8
0
 10
45.7522974906951134
 20
4.2446907742290474
 30
0.0
 40
0.0254936521126248
 50
137.1481142301774128
 51
258.4861868437827184
  0
ARC
  5
1571
  8
0
 10
45.680694635577467
 20
4.2921975059318012
 30
0.0
 40
0.0609091577999988
 50
330.3104074814929731
 51
77.2821498281911516
  0
ARC
  5
1572
  8
0
 10
45.7782081073711211
 20
4.6443001592206823
 30
0.0
 40
0.304531948300899
 50
210.0895902801277941
 51
253.9679115675448884
  0
ARC
  5
1573
  8
0
 10
46.4124722740846565
 20
4.856181231516719
 30
0.0
 40
0.9689546700112416
 50
175.5154658114803965
 51
202.1009565033359081
  0
ARC
  5
1574
  8
0
 10
44.7014118663372386
 20
4.9407132097899948
 30
0.0
 40
0.7451238216239463
 50
359.3256662055094921
 51
24.9149686549185887
  0
ARC
  5
1575
  8
0
 10
45.3982971061148888
 20
5.270812870846532
 30
0.0
 40
0.026606906929613
 50
132.5858050554095939
 51
217.5055069381004103
  0
ARC
  5
1576
  8
0
 10
45.3330954729199078
 20
5.3321458640081172
 30
0.0
 40
0.0630083209528865
 50
318.5088764985600847
 51
80.7503176101106277
  0
ARC
  5
1577
  8
0
 10
45.3452383592157702
 20
5.4209117911161728
 30
0.0
 40
0.0266531725113578
 50
192.1084300999268919
 51
265.6640177238496108
  0
ARC
  5
1578
  8
0
 10
51.7597920558760975
 20
6.3033305020735826
 30
0.0
 40
6.501543536443199
 50
174.1173343172737873
 51
187.8502491381105983
  0
ARC
  5
1579
  8
0
 10
46.4886662446003598
 20
6.7932241238542916
 30
0.0
 40
1.209125351774595
 50
159.1820233031426994
 51
171.608274919063291
  0
ARC
  5
157A
  8
0
 10
44.8564700466032917
 20
7.4182400150848951
 30
0.0
 40
0.5386582589010792
 50
338.7429013770448023
 51
347.7433992098116278
  0
ARC
  5
157B
  8
0
 10
45.2688552043421026
 20
7.3171466908382481
 30
0.0
 40
0.1147637278028159
 50
353.365844419816824
 51
48.6485002619408107
  0
ARC
  5
157C
  8
0
 10
45.2689438391791867
 20
7.311336535874891
 30
0.0
 40
0.1191307053062469
 50
50.5270236458220481
 51
88.2394720521658087
  0
ARC
  5
157D
  8
0
 10
45.2726037934774368
 20
7.460411007031813
 30
0.0
 40
0.0300000000000003
 50
270.000000000019611
 51
0.0
  0
LINE
  5
157E
  8
0
 10
45.3026037934774735
 20
7.460411007031813
 30
0.0
 11
45.3026037934774735
 21
7.5117265749318038
 31
0.0
  0
ARC
  5
157F
  8
0
 10
45.2726037934774368
 20
7.5117265749318038
 30
0.0
 40
0.0300000000000038
 50
0.0
 51
60.9060779061658408
  0
ARC
  5
1580
  8
0
 10
45.3932468024677718
 20
7.7502998635951084
 30
0.0
 40
0.2373688725179825
 50
183.6055332295179028
 51
243.4616246440211
  0
ARC
  5
1581
  8
0
 10
43.6741449592308086
 20
3.9016488020304201
 30
0.0
 40
0.3315412054775306
 50
148.3886296652611918
 51
180.0280476640139966
  0
ARC
  5
1582
  8
0
 10
43.6833689183517677
 20
3.8466194754004781
 30
0.0
 40
0.3706312066711805
 50
110.9359002733654052
 51
141.877301156400506
  0
ARC
  5
1583
  8
0
 10
43.7999092473517422
 20
3.5420033712531431
 30
0.0
 40
0.6967793619462236
 50
103.4366346364024025
 51
110.9359002733654052
  0
ARC
  5
1584
  8
0
 10
43.6329100962499723
 20
4.2446907741990048
 30
0.0
 40
0.0254936521126248
 50
281.5138131577991771
 51
42.8518857714466321
  0
ARC
  5
1585
  8
0
 10
43.7045129513664818
 20
4.2921975059038049
 30
0.0
 40
0.0609091577999988
 50
102.7178501734481983
 51
209.6895925201297928
  0
ARC
  5
1586
  8
0
 10
43.606999479562873
 20
4.6443001591899291
 30
0.0
 40
0.304531948300899
 50
286.0320884340749217
 51
329.9104097214934086
  0
ARC
  5
1587
  8
0
 10
42.9727353128433691
 20
4.8561812314679624
 30
0.0
 40
0.9689546700112416
 50
337.899043498284982
 51
4.4845341901390734
  0
ARC
  5
1588
  8
0
 10
44.683795720588229
 20
4.940713209789739
 30
0.0
 40
0.7451238216239463
 50
155.0850313467045112
 51
180.674333796119214
  0
ARC
  5
1589
  8
0
 10
43.98691048080142
 20
5.2708128708265507
 30
0.0
 40
0.026606906929613
 50
322.4944930635467131
 51
47.4141949462049226
  0
ARC
  5
158A
  8
0
 10
44.0521121139945322
 20
5.3321458639899548
 30
0.0
 40
0.0630083209528865
 50
96.3293668180226064
 51
221.4911235030670866
  0
ARC
  5
158B
  8
0
 10
44.0399692276962327
 20
5.4209117910976712
 30
0.0
 40
0.0266531725113578
 50
281.2430669317519119
 51
356.4429558287812938
  0
ARC
  5
158C
  8
0
 10
37.6254155310107734
 20
6.3033305018732948
 30
0.0
 40
6.501543536443199
 50
352.1847748667980795
 51
5.8826656843514042
  0
ARC
  5
158D
  8
0
 10
42.8965413422728616
 20
6.7932241238034026
 30
0.0
 40
1.209125351774595
 50
8.3917250825684082
 51
20.8179766984549204
  0
ARC
  5
158E
  8
0
 10
44.5287375402522088
 20
7.4182400150802481
 30
0.0
 40
0.5386582589010792
 50
192.2566007918138098
 51
201.2570986246338975
  0
ARC
  5
158F
  8
0
 10
44.1163523825161192
 20
7.3171466908219189
 30
0.0
 40
0.1147637278028159
 50
131.3514997396648027
 51
186.6341555818162874
  0
ARC
  5
1590
  8
0
 10
44.1162637476791488
 20
7.3113365358585494
 30
0.0
 40
0.1191307053062469
 50
91.7605279494601547
 51
129.4729763557814124
  0
ARC
  5
1591
  8
0
 10
44.1126037933766924
 20
7.4604110070153569
 30
0.0
 40
0.0300000000000003
 50
180.0000000016217996
 51
270.0000000015925821
  0
LINE
  5
1592
  8
0
 10
44.0826037933767125
 20
7.4604110070145193
 30
0.0
 11
44.0826037933751209
 21
7.5117265749145243
 31
0.0
  0
ARC
  5
1593
  8
0
 10
44.1126037933751505
 20
7.5117265749153761
 30
0.0
 40
0.0300000000000038
 50
114.1885881123175039
 51
180.0000000016217996
  0
ARC
  5
1594
  8
0
 10
43.9941795809173612
 20
7.7477895620529633
 30
0.0
 40
0.2341333082690499
 50
296.9554261589403836
 51
357.1016159766526812
  0
LINE
  5
1595
  8
0
 10
43.6310337210576122
 20
4.2180082054466981
 30
0.0
 11
45.7542671857081373
 21
4.21798488602838
 31
0.0
  0
LINE
  5
1596
  8
0
 10
43.6911037937256665
 20
4.3516123188318021
 30
0.0
 11
45.6941037933423573
 21
4.3516123188318021
 31
0.0
  0
LINE
  5
1597
  8
0
 10
44.0418270985099198
 20
5.3943090923953942
 30
0.0
 11
45.3433804888997969
 21
5.3943090923315866
 31
0.0
  0
LINE
  5
1598
  8
0
 10
44.0049643423380772
 20
5.290357322212321
 30
0.0
 11
45.3802507516540174
 21
5.2903642540976872
 31
0.0
  0
LINE
  5
1599
  8
0
 10
44.0980165127226513
 20
7.5379412891645554
 30
0.0
 11
44.4606770659671398
 21
7.5379412884226493
 31
0.0
  0
LINE
  5
159A
  8
0
 10
44.9251703940245619
 20
7.537941287472397
 30
0.0
 11
45.2871910785313929
 21
7.5379412867318134
 31
0.0
  0
LINE
  5
159B
  8
0
 10
43.34260379347743
 20
3.9014865046318099
 30
0.0
 11
46.0426037934774186
 21
3.9014865046318099
 31
0.0
  0
ARC
  5
159C
  8
0
 10
43.8437673342105896
 20
7.7203186333882359
 30
0.0
 40
0.3845638902439483
 50
2.329642160167765
 51
49.2618246433543518
  0
ARC
  5
159D
  8
0
 10
43.6650981441908215
 20
7.626753803482833
 30
0.0
 40
0.5768651584115913
 50
41.8599045173751918
 51
51.2997629851567112
  0
ARC
  5
159E
  8
0
 10
43.948208812677457
 20
7.9604110070317846
 30
0.0
 40
0.1400000000000211
 50
56.3522860983685021
 51
90.0
  0
LINE
  5
159F
  8
0
 10
43.948208812677457
 20
8.1004110070318003
 30
0.0
 11
43.8976045407774009
 21
8.1004110070318003
 31
0.0
  0
ARC
  5
15A0
  8
0
 10
43.8976045407774009
 20
8.1304110070318298
 30
0.0
 40
0.0300000000000218
 50
233.1301023541828954
 51
270.0
  0
ARC
  5
15A1
  8
0
 10
43.8676045407773714
 20
8.0904110070318094
 30
0.0
 40
0.0200000000000048
 50
53.1301023541787671
 51
126.8698976458416041
  0
ARC
  5
15A2
  8
0
 10
43.8376045407773987
 20
8.1304110070318156
 30
0.0
 40
0.0300000000000122
 50
270.0
 51
306.8698976458375114
  0
LINE
  5
15A3
  8
0
 10
43.8376045407773987
 20
8.1004110070318003
 30
0.0
 11
43.7451363316775286
 21
8.1004110070318003
 31
0.0
  0
ARC
  5
15A4
  8
0
 10
43.7451363316775286
 20
8.1304110070318014
 30
0.0
 40
0.0299999999999987
 50
191.3784032708892084
 51
270.0
  0
ARC
  5
15A5
  8
0
 10
43.5430595081414111
 20
8.088671479525777
 30
0.0
 40
0.1763429644935799
 50
11.7201677851041506
 51
73.8647447484851227
  0
ARC
  5
15A6
  8
0
 10
43.4805102435394488
 20
7.8894564218288163
 30
0.0
 40
0.3851223654261786
 50
73.1621726958923801
 51
87.8152163446401346
  0
ARC
  5
15A7
  8
0
 10
43.4924231064237432
 20
8.2243755626245783
 30
0.0
 40
0.0499999989366925
 50
86.8254079965369527
 51
153.1509758199262023
  0
ARC
  5
15A8
  8
0
 10
43.391604540770949
 20
8.2754110070266105
 30
0.0
 40
0.0629999999934158
 50
180.0
 51
333.1509754990951251
  0
LINE
  5
15A9
  8
0
 10
43.3286045407773912
 20
8.2754110070266105
 30
0.0
 11
39.9646713755346212
 21
8.2754148887311967
 31
0.0
  0
ARC
  5
15AA
  8
0
 10
39.9646708735773899
 20
7.8404126371317817
 30
0.0
 40
0.4350022515999987
 50
89.9999338853430828
 51
155.0000000027978047
  0
LINE
  5
15AB
  8
0
 10
39.5704249455662165
 20
8.0242525325365133
 30
0.0
 11
39.53196624489361
 21
7.941777582780138
 31
0.0
  0
ARC
  5
15AC
  8
0
 10
39.5514684828774392
 20
7.9017889581318084
 30
0.0
 40
0.0280000000000001
 50
342.6901145205176817
 51
65.0000000027960994
  0
ARC
  5
15AD
  8
0
 10
39.7597666350679191
 20
7.853409765041623
 30
0.0
 40
0.1859305396208576
 50
167.5614317669592879
 51
230.6225583554740979
  0
ARC
  5
15AE
  8
0
 10
39.6286332513774795
 20
7.6964170995318053
 30
0.0
 40
0.0186999999999998
 50
334.9999999329962179
 51
45.2107355215443576
  0
LINE
  5
15AF
  8
0
 10
39.6455812070555993
 20
7.6885141379849014
 30
0.0
 11
39.6262909812734208
 21
7.6471461154232019
 31
0.0
  0
ARC
  5
15B0
  8
0
 10
39.6093430256774326
 20
7.6550490769317943
 30
0.0
 40
0.0186999999999962
 50
263.3714811086089185
 51
334.9999999329947968
  0
ARC
  5
15B1
  8
0
 10
39.5818229552994367
 20
7.3836840775078416
 30
0.0
 40
0.2540590289448399
 50
84.2708937540379992
 51
109.6258200198814023
  0
ARC
  5
15B2
  8
0
 10
39.7644534796427678
 20
7.016318881285291
 30
0.0
 40
0.6632092308077377
 50
113.8309650673758995
 51
122.7312538809861024
  0
ARC
  5
15B3
  8
0
 10
39.2998606033711297
 20
7.7396410676740617
 30
0.0
 40
0.1964661641564534
 50
280.0427641558384266
 51
302.6505203987086929
  0
LINE
  5
15B4
  8
0
 10
39.3054467964583267
 20
7.5482005854064811
 30
0.0
 11
38.6969433314775273
 21
7.831950411131805
 31
0.0
  0
ARC
  5
15B5
  8
0
 10
58.2022348515579182
 20
35.2448486451080214
 30
0.0
 40
33.6440691187860992
 50
234.5529074110735053
 51
234.5667413761312048
  0
ARC
  5
15B6
  8
0
 10
38.7866703655163221
 20
7.9279757058902813
 30
0.0
 40
0.1327434913995237
 50
193.4044768876981948
 51
223.4645386670580933
  0
ARC
  5
15B7
  8
0
 10
37.9704640381003102
 20
7.8140889940193619
 30
0.0
 40
0.6920877918339357
 50
6.8973612620955667
 51
19.3934956464162482
  0
ARC
  5
15B8
  8
0
 10
38.4213478216436073
 20
7.9565053973942428
 30
0.0
 40
0.2200353636896429
 50
23.4021484926712091
 51
42.6502083815408
  0
ARC
  5
15B9
  8
0
 10
39.4720789434243073
 20
8.924402883279944
 30
0.0
 40
1.2085518522206951
 50
221.7205965362931863
 51
222.6502083815406081
  0
ARC
  5
15BA
  8
0
 10
38.5828588260775192
 20
8.1337065202318168
 30
0.0
 40
0.0186999999999981
 50
154.9999999937141979
 51
226.6285055849135972
  0
LINE
  5
15BB
  8
0
 10
38.5659108704732532
 20
8.1416094817224458
 30
0.0
 11
38.5852010961864806
 21
8.1829775042507773
 31
0.0
  0
ARC
  5
15BC
  8
0
 10
38.6021490517691603
 20
8.1750745427702096
 30
0.0
 40
0.0186999999625216
 50
83.0180021918398978
 51
154.9999999937114978
  0
ARC
  5
15BD
  8
0
 10
38.6336926779925918
 20
8.4704936206386812
 30
0.0
 40
0.2784007468388997
 50
263.9648818697206138
 51
276.4000796892843255
  0
ARC
  5
15BE
  8
0
 10
38.6501669520256286
 20
8.3632617181171192
 30
0.0
 40
0.1700581555265311
 50
274.9112607582309806
 51
313.6041031197013922
  0
ARC
  5
15BF
  8
0
 10
297.6608265715292987
 20
-195.2015063318133059
 30
0.0
 40
329.2632300189450234
 50
141.8342124530697959
 51
141.8392977384935989
  0
ARC
  5
15C0
  8
0
 10
38.809073579918369
 20
8.2479733868110312
 30
0.0
 40
0.027999999907456
 50
65.0000000027997089
 51
147.3098633614004029
  0
LINE
  5
15C1
  8
0
 10
38.8209068912067821
 20
8.2733500047647706
 30
0.0
 11
39.5633017942034684
 21
7.9271655761662929
 31
0.0
  0
ARC
  5
15C2
  8
0
 10
39.9674048101525585
 20
7.8310646900166372
 30
0.0
 40
1.1943494437138471
 50
89.7894446631218983
 51
159.0178282836378969
  0
LINE
  5
15C3
  8
0
 10
39.9717938957987116
 20
9.0254060690313391
 30
0.0
 11
43.3286045407773912
 21
9.0254060690313391
 31
0.0
  0
LINE
  5
15C4
  8
0
 10
38.6038473704607981
 20
8.1936972630929628
 30
0.0
 11
39.6418074254995503
 21
7.7096885402984059
 31
0.0
  0
LINE
  5
15C5
  8
0
 10
39.6071844603071028
 20
7.6364740777247606
 30
0.0
 11
38.5700170504775173
 21
8.1201131837318083
 31
0.0
  0
ARC
  5
15C6
  8
0
 10
43.3916045406968891
 20
9.0254110069189775
 30
0.0
 40
0.0630000001128305
 50
26.8490246533866994
 51
180.0044913824777097
  0
ARC
  5
15C7
  8
0
 10
43.4924231073733694
 20
9.0764464524172066
 30
0.0
 40
0.0500000002584566
 50
206.8490246533870902
 51
240.0118173105146013
  0
ARC
  5
15C8
  8
0
 10
43.4924310189462986
 20
9.0764601621929781
 30
0.0
 40
0.0500158290593877
 50
240.0118173105146013
 51
273.1645273006988077
  0
ARC
  5
15C9
  8
0
 10
43.4806301513859097
 20
9.3852441541853917
 30
0.0
 40
0.3590189926117235
 50
272.3245701665567253
 51
294.5928594462046135
  0
ARC
  5
15CA
  8
0
 10
43.5418842053090671
 20
9.2130573969625882
 30
0.0
 40
0.1776780431243119
 50
299.7467300974211071
 51
348.1691107880330947
  0
ARC
  5
15CB
  8
0
 10
43.7451363316775286
 20
9.1704110070317935
 30
0.0
 40
0.0300000000000041
 50
90.0
 51
168.0374450207665973
  0
LINE
  5
15CC
  8
0
 10
43.3286045407773912
 20
9.0254060683859958
 30
0.0
 11
43.3286045407773912
 21
8.2754110070266105
 31
0.0
  0
LINE
  5
15CD
  8
0
 10
43.4478131220775268
 20
9.0538643967589731
 30
0.0
 11
43.4478131220342192
 21
8.2469576172191292
 31
0.0
  0
LINE
  5
15CE
  8
0
 10
43.7451363316775286
 20
9.2004110070317946
 30
0.0
 11
43.8376045407773987
 21
9.2004110070317946
 31
0.0
  0
LINE
  5
15CF
  8
0
 10
43.8376045407773987
 20
9.2004110070317946
 30
0.0
 11
43.8376045407773987
 21
8.1004110070318003
 31
0.0
  0
ARC
  5
15D0
  8
0
 10
43.8376045407773987
 20
9.1704110070317792
 30
0.0
 40
0.0300000000000154
 50
53.13010235416656
 51
90.0
  0
ARC
  5
15D1
  8
0
 10
43.8676045407773714
 20
9.2104110070318121
 30
0.0
 40
0.020000000000002
 50
233.1301023541707025
 51
306.8698976458211973
  0
ARC
  5
15D2
  8
0
 10
43.8976045407774009
 20
9.1704110070317366
 30
0.0
 40
0.0300000000000621
 50
90.0
 51
126.8698976458171046
  0
LINE
  5
15D3
  8
0
 10
43.8976045407774009
 20
9.2004110070317946
 30
0.0
 11
43.9481369225745624
 21
9.2004110070317946
 31
0.0
  0
ARC
  5
15D4
  8
0
 10
43.9481728739656674
 20
9.3405831418885352
 30
0.0
 40
0.1401721394671036
 50
269.9853047616655886
 51
317.1174803143550207
  0
ARC
  5
15D5
  8
0
 10
44.8113334124911802
 20
8.5043114891026104
 30
0.0
 40
1.0616937363901371
 50
122.3900890056976039
 51
135.7466002993573113
  0
ARC
  5
15D6
  8
0
 10
44.157745994068911
 20
9.5556572329840943
 30
0.0
 40
0.1765593433270831
 50
298.7261195738760762
 51
6.8977996653822817
  0
ARC
  5
15D7
  8
0
 10
44.2326803246685714
 20
9.5661456200540922
 30
0.0
 40
0.1009176409258547
 50
6.0955712505789821
 51
69.7530867113531343
  0
ARC
  5
15D8
  8
0
 10
44.267604541261953
 20
9.7258275585162917
 30
0.0
 40
0.0650000004844884
 50
89.9901071686514342
 51
269.9999995729406237
  0
LINE
  5
15D9
  8
0
 10
44.2676157643232173
 20
9.7908275580317987
 30
0.0
 11
45.1175075513314496
 21
9.7908275580317987
 31
0.0
  0
ARC
  5
15DA
  8
0
 10
44.2918625400534296
 20
9.8176661216116425
 30
0.0
 40
0.0272377360227036
 50
179.1662720903495085
 51
260.1788075707468124
  0
ARC
  5
15DB
  8
0
 10
44.5302840617222131
 20
9.8422322576997257
 30
0.0
 40
0.2667536102775502
 50
160.8247041976104015
 51
185.1985415326296902
  0
ARC
  5
15DC
  8
0
 10
44.4226712148448328
 20
9.8722519584133632
 30
0.0
 40
0.1554084593300868
 50
100.9137060785087954
 51
158.2459204001578996
  0
ARC
  5
15DD
  8
0
 10
44.3921970262140206
 20
10.0512296246994897
 30
0.0
 40
0.02640092403403
 50
272.2807479980600078
 51
7.0012176996389934
  0
LINE
  5
15DE
  8
0
 10
44.4184010933775326
 20
10.0544476448891107
 30
0.0
 11
44.4184010933775326
 21
10.1331947675739293
 31
0.0
  0
ARC
  5
15DF
  8
0
 10
44.4443902713003212
 20
10.13591762002034
 30
0.0
 40
0.0261314235081456
 50
99.4300674856060169
 51
185.9809847701048966
  0
ARC
  5
15E0
  8
0
 10
44.3829734396566522
 20
10.3317499990437103
 30
0.0
 40
0.1793957701655386
 50
288.5714977800424776
 51
311.1256512909549201
  0
ARC
  5
15E1
  8
0
 10
44.4048253806837891
 20
10.2842497207179004
 30
0.0
 40
0.1300854783590057
 50
317.6500531401492253
 51
344.1736103932607875
  0
ARC
  5
15E2
  8
0
 10
44.3776478252429172
 20
10.2836769764626297
 30
0.0
 40
0.156279602194907
 50
347.0942940216449983
 51
22.5066108344559304
  0
ARC
  5
15E3
  8
0
 10
44.417363986821421
 20
10.3012560550278494
 30
0.0
 40
0.1128640774738892
 50
21.9800536250935217
 51
64.7858573568584291
  0
ARC
  5
15E4
  8
0
 10
44.4709647419267498
 20
10.4286367374637692
 30
0.0
 40
0.0258660235888071
 50
172.7289004281045948
 51
257.6770710766086836
  0
ARC
  5
15E5
  8
0
 10
45.1288447573259504
 20
10.4269159305508499
 30
0.0
 40
0.6835562819072943
 50
143.2614348397316064
 51
179.5813548198065916
  0
ARC
  5
15E6
  8
0
 10
44.6048124259178707
 20
10.8160494822235904
 30
0.0
 40
0.0308871914208885
 50
96.4178537210720066
 51
140.2615880646748963
  0
ARC
  5
15E7
  8
0
 10
45.2274631248023766
 20
9.5556573228461499
 30
0.0
 40
0.1765593433270831
 50
173.1022050563578034
 51
241.273890052412213
  0
ARC
  5
15E8
  8
0
 10
45.1525287924406271
 20
9.5661456973263395
 30
0.0
 40
0.1009176409258547
 50
110.2469229149572953
 51
173.9044383757054959
  0
ARC
  5
15E9
  8
0
 10
45.1176045490189281
 20
9.7258276299209054
 30
0.0
 40
0.0650000004844884
 50
270.0000100533683849
 51
90.0855009252542942
  0
ARC
  5
15EA
  8
0
 10
45.093198408574807
 20
9.8177253937914255
 30
0.0
 40
0.0273883579001893
 50
280.8601108804954265
 51
0.7718789610049361
  0
ARC
  5
15EB
  8
0
 10
44.8549250090013985
 20
9.8422322849713364
 30
0.0
 40
0.2667536102775502
 50
354.8083330311304735
 51
11.9986864725064404
  0
ARC
  5
15EC
  8
0
 10
44.9625378508351687
 20
9.8722520037650892
 30
0.0
 40
0.15540845933007
 50
9.4199026750498263
 51
79.0863035478331113
  0
ARC
  5
15ED
  8
0
 10
44.9930120093957129
 20
10.0512296751712196
 30
0.0
 40
0.02640092403403
 50
172.9987919267499876
 51
267.7192616281232063
  0
LINE
  5
15EE
  8
0
 10
44.9668079416917195
 20
10.0544476909582006
 30
0.0
 11
44.9668079284614208
 21
10.1331948136430796
 31
0.0
  0
ARC
  5
15EF
  8
0
 10
44.9408187500809291
 20
10.1359176617230204
 30
0.0
 40
0.0261314235081456
 50
354.019024856212809
 51
80.5699421406865639
  0
ARC
  5
15F0
  8
0
 10
45.0022354691375099
 20
10.3317499121999994
 30
0.0
 40
0.1793956131528243
 50
228.8743483358472872
 51
251.4285218457920905
  0
ARC
  5
15F1
  8
0
 10
44.9803836157762333
 20
10.2842497690679195
 30
0.0
 40
0.1300854783590057
 50
195.8263992330658994
 51
222.3499564861610907
  0
ARC
  5
15F2
  8
0
 10
45.0075611713131565
 20
10.2836770293787705
 30
0.0
 40
0.156279602194907
 50
157.4933987918552987
 51
192.9057156046785053
  0
ARC
  5
15F3
  8
0
 10
44.969430732423497
 20
10.2997574488993902
 30
0.0
 40
0.1148982233363224
 50
115.6111981899178005
 51
157.6229100807512964
  0
ARC
  5
15F4
  8
0
 10
44.9142442302746616
 20
10.42863677470163
 30
0.0
 40
0.0258660235888071
 50
282.3229385497107273
 51
7.271109198211704
  0
ARC
  5
15F5
  8
0
 10
44.2563642151645666
 20
10.4269158572577698
 30
0.0
 40
0.6835562819072943
 50
0.4186548065057098
 51
36.4547914092171013
  0
ARC
  5
15F6
  8
0
 10
44.7803964811938968
 20
10.8160494969736103
 30
0.0
 40
0.0308871914208885
 50
33.4549446341753622
 51
83.5821559048823275
  0
LINE
  5
15F7
  8
0
 10
44.6013598991793074
 20
10.8467431078318306
 30
0.0
 11
44.7838490027757885
 21
10.8467431231618896
 31
0.0
  0
LINE
  5
15F8
  8
0
 10
44.267604541261953
 20
9.6608275580318033
 30
0.0
 11
45.1176045407779966
 21
9.6608275580318033
 31
0.0
  0
ARC
  5
15F9
  8
0
 10
44.6859004627008716
 20
8.6496861399092833
 30
0.0
 40
0.8790859161384768
 50
313.6422472149391751
 51
58.6998187966039708
  0
ARC
  5
15FA
  8
0
 10
45.5648195981792483
 20
7.7077269450190089
 30
0.0
 40
0.4094055497500241
 50
131.6749007219322891
 51
176.1280979855744988
  0
ARC
  5
15FB
  8
0
 10
44.69260454077736
 20
8.6504110070318116
 30
0.0
 40
0.8000000000000007
 50
295.0053396499429823
 51
244.99132997680789
  0
ARC
  5
15FC
  8
0
 10
44.69260454077736
 20
8.6504110070318116
 30
0.0
 40
0.7249573890999983
 50
297.4688044369386262
 51
242.563889301365009
  0
ARC
  5
15FD
  8
0
 10
44.6921034830245318
 20
6.21184633923645
 30
0.0
 40
0.3091814787386807
 50
229.8361064604802948
 51
264.9501705407790269
  0
ARC
  5
15FE
  8
0
 10
44.8176964643923128
 20
6.3201607171981262
 30
0.0
 40
0.4736807156307311
 50
205.7165527243676024
 51
226.6752706999238001
  0
ARC
  5
15FF
  8
0
 10
45.1502254929281293
 20
6.4499642536858106
 30
0.0
 40
0.8300480970607397
 50
189.8434702252689021
 51
203.8287300393469934
  0
ARC
  5
1600
  8
0
 10
45.6188639913033711
 20
6.5024114213999029
 30
0.0
 40
1.301064653822801
 50
178.3235156417377993
 51
188.5908525877582065
  0
ARC
  5
1601
  8
0
 10
46.6613958582425781
 20
6.4180404109816944
 30
0.0
 40
2.3462363256284511
 50
170.7140044718331069
 51
177.0087438592923093
  0
ARC
  5
1602
  8
0
 10
53.3634659949886867
 20
5.262395366082278
 30
0.0
 40
9.1471454988919874
 50
168.5567560639024975
 51
170.3442064257849893
  0
ARC
  5
1603
  8
0
 10
39.3997994851222728
 20
8.0767076675366436
 30
0.0
 40
5.0973128552752573
 50
348.6914491199153758
 51
352.3157979306049015
  0
ARC
  5
1604
  8
0
 10
43.2366657586912666
 20
7.5470300223840123
 30
0.0
 40
1.2241341530053871
 50
352.8719699383481156
 51
2.5083630488227291
  0
ARC
  5
1605
  8
0
 10
43.8462234392139223
 20
7.5869451076237961
 30
0.0
 40
0.6135556276030304
 50
1.275664051223496
 51
26.8428949993291504
  0
ARC
  5
1606
  8
0
 10
44.1573130068582387
 20
7.7561564652416068
 30
0.0
 40
0.2597924977573903
 50
24.5249245222819994
 51
40.6561484097049401
  0
LINE
  5
1607
  8
0
 10
44.3544002209337478
 20
7.9254159463320279
 30
0.0
 11
44.33953586017752
 21
7.9457349976317788
 31
0.0
  0
ARC
  5
1608
  8
0
 10
44.3575588566624575
 20
7.9647357469782971
 30
0.0
 40
0.0261888693536313
 50
151.7536736290186923
 51
226.5127614200916923
  0
ARC
  5
1609
  8
0
 10
44.0381476069916218
 20
8.1742987106362843
 30
0.0
 40
0.3559402376213952
 50
326.3624189328069178
 51
327.4611467838989256
  0
ARC
  5
160A
  8
0
 10
44.5238128683771919
 20
7.8470054990322122
 30
0.0
 40
0.229999999999479
 50
122.6734065464313943
 51
143.7988166503907053
  0
ARC
  5
160B
  8
0
 10
44.5073320455975221
 20
7.8812208031786257
 30
0.0
 40
0.1923566761928118
 50
96.6747278040203213
 51
124.0431668811412038
  0
ARC
  5
160C
  8
0
 10
44.4833852266603884
 20
8.0895782465527528
 30
0.0
 40
0.0173773320078132
 50
197.6257096527351109
 51
275.2454895132236743
  0
ARC
  5
160D
  8
0
 10
44.4998054370562173
 20
8.0926174037039722
 30
0.0
 40
0.0340103326368229
 50
179.5730585294830064
 51
194.1270005780446866
  0
LINE
  5
160E
  8
0
 10
44.4657960486330595
 20
8.0928708305213828
 30
0.0
 11
44.4657854856476789
 21
8.1334571944818101
 31
0.0
  0
ARC
  5
160F
  8
0
 10
44.4829282673098731
 20
8.1357430776788018
 30
0.0
 40
0.0172945143070981
 50
87.8187434581619328
 51
187.5952311029057
  0
ARC
  5
1610
  8
0
 10
44.4800413035895232
 20
8.2061938580175333
 30
0.0
 40
0.0532868605618424
 50
273.814742407125209
 51
346.3434985320781152
  0
ARC
  5
1611
  8
0
 10
44.2983418206531923
 20
8.2616635164524777
 30
0.0
 40
0.2431948613803989
 50
343.750556129720394
 51
359.255369118681017
  0
ARC
  5
1612
  8
0
 10
42.7429681064041702
 20
8.3213182415111984
 30
0.0
 40
1.7996446318793571
 50
357.9997270524676765
 51
359.9946603393041755
  0
ARC
  5
1613
  8
0
 10
44.5247144585265318
 20
8.3229932470078491
 30
0.0
 40
0.017992880972476
 50
354.1218040988409257
 51
66.7656126282469131
  0
ARC
  5
1614
  8
0
 10
44.6946599332730301
 20
8.6503397053073794
 30
0.0
 40
0.3508901346256813
 50
113.8108518991915048
 51
242.3481399215565091
  0
ARC
  5
1615
  8
0
 10
44.5444986060734678
 20
8.9967302797516648
 30
0.0
 40
0.0267534384862491
 50
288.5259013283758236
 51
8.0633765537251474
  0
ARC
  5
1616
  8
0
 10
44.4509164798774705
 20
9.0006129485458981
 30
0.0
 40
0.1200711377171446
 50
359.9379628467995076
 51
38.9685398027382917
  0
ARC
  5
1617
  8
0
 10
44.4586932204653991
 20
8.9973318563207325
 30
0.0
 40
0.1163265268666989
 50
42.6364305429609374
 51
70.4266004033206485
  0
ARC
  5
1618
  8
0
 10
44.5052775573238719
 20
9.1351451287293681
 30
0.0
 40
0.029218216734333
 50
210.1226484878297924
 51
254.8962935223983095
  0
ARC
  5
1619
  8
0
 10
52.4708332019279027
 20
11.4751361586104998
 30
0.0
 40
8.33052995738052
 50
196.370343103390212
 51
196.4186438020412027
  0
ARC
  5
161A
  8
0
 10
44.6126827871677705
 20
9.1401655764913183
 30
0.0
 40
0.135280690806694
 50
182.0773083145157898
 51
185.4916838332802058
  0
LINE
  5
161B
  8
0
 10
44.4774909990499481
 20
9.1352619318587696
 30
0.0
 11
44.4774763549223024
 21
9.1865896321878378
 31
0.0
  0
ARC
  5
161C
  8
0
 10
44.5032018056966621
 20
9.1900424912599785
 30
0.0
 40
0.0259561371028759
 50
116.3158942674804024
 51
187.644528526511607
  0
ARC
  5
161D
  8
0
 10
44.4496067547419571
 20
9.3655434014817498
 30
0.0
 40
0.1579456935675431
 50
285.4544658235196266
 51
314.5466285137588898
  0
ARC
  5
161E
  8
0
 10
48.7706535664253096
 20
4.5169748094500672
 30
0.0
 40
6.3368710132927628
 50
130.869609313318108
 51
131.6367042556796889
  0
ARC
  5
161F
  8
0
 10
44.6954093611497996
 20
9.2283245466478032
 30
0.0
 40
0.1075566374109367
 50
90.4935589635502424
 51
131.4669669959388045
  0
ARC
  5
1620
  8
0
 10
44.6932662474857665
 20
6.331128400236925
 30
0.0
 40
0.4282047985387994
 50
266.2001660500944809
 51
273.8325277379785803
  0
ARC
  5
1621
  8
0
 10
44.6912075439450192
 20
9.2421446129637044
 30
0.0
 40
0.0937897878818018
 50
71.1137351044612558
 51
87.9987195341243336
  0
ARC
  5
1622
  8
0
 10
44.6732867104551374
 20
9.197969215957789
 30
0.0
 40
0.1414126796644183
 50
46.7943749524402222
 51
70.0371959852369343
  0
ARC
  5
1623
  8
0
 10
45.9284404121288929
 20
10.5630601318554795
 30
0.0
 40
1.7130187717855261
 50
227.4527456388474036
 51
230.7245198084580977
  0
ARC
  5
1624
  8
0
 10
44.9187988633119986
 20
9.3320101802629036
 30
0.0
 40
0.1209170998465977
 50
231.7950355688948036
 51
253.8169874815291962
  0
ARC
  5
1625
  8
0
 10
44.88147825293224
 20
9.1899810151005195
 30
0.0
 40
0.0261550004474975
 50
353.2411716624160931
 51
82.0438627809136847
  0
LINE
  5
1626
  8
0
 10
44.9074514848774626
 20
9.1869028223329021
 30
0.0
 11
44.9074661834691682
 21
9.1353842673344499
 31
0.0
  0
ARC
  5
1627
  8
0
 10
44.8813070999463406
 20
9.1326861881219425
 30
0.0
 40
0.0262978569884084
 50
283.7000213858054281
 51
5.8887325924937226
  0
ARC
  5
1628
  8
0
 10
44.9185007735179411
 20
9.0093045263622624
 30
0.0
 40
0.1026155573908284
 50
107.563377328538806
 51
170.2691307949172881
  0
ARC
  5
1629
  8
0
 10
45.0011804806946216
 20
8.9910199661069221
 30
0.0
 40
0.1872399179820564
 50
169.0306649605913094
 51
179.0248055730882015
  0
ARC
  5
162A
  8
0
 10
44.8403066226431193
 20
8.9965567281445882
 30
0.0
 40
0.0264435693955436
 50
185.0985725180372015
 51
251.75273006278141
  0
ARC
  5
162B
  8
0
 10
44.6903557076317171
 20
8.6503304852659308
 30
0.0
 40
0.3509755521141696
 50
297.7046519071232069
 51
66.1935036323054362
  0
ARC
  5
162C
  8
0
 10
44.8606883140060191
 20
8.3230626661234961
 30
0.0
 40
0.0180133260395223
 50
113.4181223688346023
 51
183.8973219155813865
  0
ARC
  5
162D
  8
0
 10
45.3563538812783094
 20
8.2978701343826522
 30
0.0
 40
0.514196154286376
 50
177.3283076605297879
 51
190.9656936993335989
  0
ARC
  5
162E
  8
0
 10
44.9061394374409488
 20
8.2082122210080168
 30
0.0
 40
0.0551985809519021
 50
188.4939427652124095
 51
265.8703216481204095
  0
ARC
  5
162F
  8
0
 10
44.9025400691914811
 20
8.135806535204102
 30
0.0
 40
0.0173544889714028
 50
352.6511362263943852
 51
91.2404939634603807
  0
ARC
  5
1630
  8
0
 10
31.8925513485562888
 20
8.1195922423278173
 30
0.0
 40
13.0272081717004404
 50
359.8600363467243142
 51
0.0615499740648189
  0
ARC
  5
1631
  8
0
 10
44.9014425667497008
 20
8.0905190589995097
 30
0.0
 40
0.0184837993445813
 50
279.2127532464655246
 51
351.443843535966721
  0
ARC
  5
1632
  8
0
 10
44.8665463766999224
 20
7.852963105142952
 30
0.0
 40
0.2225537420435733
 50
43.8648160389311883
 51
80.2066092419146912
  0
ARC
  5
1633
  8
0
 10
44.9489746003168733
 20
7.920787642752634
 30
0.0
 40
0.1164157968389897
 50
27.1963641076605604
 51
47.9135255717433282
  0
ARC
  5
1634
  8
0
 10
45.0282990634083689
 20
7.9647888628520791
 30
0.0
 40
0.0259114233637876
 50
313.3172120260827
 51
20.8101756291192714
  0
ARC
  5
1635
  8
0
 10
45.5677748631544901
 20
7.5411424965711742
 30
0.0
 40
0.6603247110006559
 50
142.191609345296996
 51
153.5358633420966896
  0
ARC
  5
1636
  8
0
 10
45.6545144471629527
 20
7.5649241476192852
 30
0.0
 40
0.7298430122911101
 50
158.2470346899746119
 51
180.0804134209589904
  0
ARC
  5
1637
  8
0
 10
46.671155863613059
 20
7.5844372539280354
 30
0.0
 40
1.74660445863086
 50
180.6737271866745118
 51
188.6194569675481034
  0
ARC
  5
1638
  8
0
 10
58.9611503451810535
 20
9.6851397762853875
 30
0.0
 40
14.2145684350005403
 50
189.5669797461040957
 51
191.3611346853602981
  0
ARC
  5
1639
  8
0
 10
42.2724679922284707
 20
6.3645750474551104
 30
0.0
 40
2.801408740973411
 50
4.4600755115798751
 51
10.7057325736530498
  0
ARC
  5
163A
  8
0
 10
43.9133261723876416
 20
6.4965324903306563
 30
0.0
 40
1.15526465369329
 50
348.8675980619656798
 51
4.2638027076846106
  0
ARC
  5
163B
  8
0
 10
44.4447503354162308
 20
6.3847866140808431
 30
0.0
 40
0.6123048625354083
 50
329.9816375857424759
 51
349.5261398354052744
  0
ARC
  5
163C
  8
0
 10
44.6456612360312093
 20
6.258078860065571
 30
0.0
 40
0.3750669461531038
 50
303.1503682953410248
 51
331.3872783569644866
  0
ARC
  5
163D
  8
0
 10
44.6945160471709997
 20
6.2184605336740102
 30
0.0
 40
0.3157678853236927
 50
274.9727844525609157
 51
299.6574328953514055
  0
LINE
  5
163E
  8
0
 10
44.4774515427906607
 20
9.1867798215596732
 30
0.0
 11
44.9074514849685684
 21
9.1869025035095202
 31
0.0
  0
LINE
  5
163F
  8
0
 10
44.4774910025440491
 20
9.1352618355327788
 30
0.0
 11
44.907466183470703
 21
9.1353842673178072
 31
0.0
  0
LINE
  5
1640
  8
0
 10
44.5529987821730984
 20
8.9713630764919738
 30
0.0
 11
44.8320266504233373
 21
8.9714428988385091
 31
0.0
  0
LINE
  5
1641
  8
0
 10
44.33953586017752
 20
7.9457349976318081
 30
0.0
 11
45.0460527214774373
 21
7.9459556692318118
 31
0.0
  0
CIRCLE
  5
1642
  8
0
 10
44.69260454077736
 20
8.6504110070318116
 30
0.0
 40
0.2339597699882506
  0
LINE
  5
1643
  8
0
 10
44.5237398643502402
 20
8.5452251801600632
 30
0.0
 11
44.7993890822761927
 21
8.8207453805094982
 31
0.0
  0
ARC
  5
1644
  8
0
 10
44.8028843933657086
 20
8.808894291440529
 30
0.0
 40
0.0123557885921254
 50
51.0980836481750416
 51
106.4326781709122969
  0
ARC
  5
1645
  8
0
 10
44.6926039857372501
 20
8.6504105403254581
 30
0.0
 40
0.2054038634839755
 50
35.076600742532591
 51
54.9233826721327318
  0
ARC
  5
1646
  8
0
 10
44.8506861512257586
 20
8.7604800182896607
 30
0.0
 40
0.0128010721503843
 50
350.1150687160283042
 51
38.5075875619264281
  0
ARC
  5
1647
  8
0
 10
44.8577007798925678
 20
8.7598448060423006
 30
0.0
 40
0.0058103944155282
 50
323.0370712026269757
 51
344.4018660147519881
  0
ARC
  5
1648
  8
0
 10
449.9867037430030905
 20
-396.7918922840386244
 30
0.0
 40
573.2321737065681191
 50
134.9700412911797116
 51
135.008927741370087
  0
ARC
  5
1649
  8
0
 10
44.5832674443952186
 20
8.4846570321593386
 30
0.0
 40
0.0051641606328749
 50
280.9493451190962787
 51
319.4699932141776912
  0
ARC
  5
164A
  8
0
 10
44.5825764555598099
 20
8.4899311548164516
 30
0.0
 40
0.0104785082601009
 50
253.7476676218780938
 51
279.1809384223839174
  0
ARC
  5
164B
  8
0
 10
44.5845939242441105
 20
8.4966743642122591
 30
0.0
 40
0.017516944088982
 50
235.0765270049938067
 51
253.5853063920908994
  0
ARC
  5
164C
  8
0
 10
44.6926045402283165
 20
8.650411006457551
 30
0.0
 40
0.2054031402056565
 50
215.0764622674826967
 51
234.923568178458396
  0
ARC
  5
164D
  8
0
 10
44.5352973362283606
 20
8.5407322638864152
 30
0.0
 40
0.013651176830349
 50
178.6449281133274098
 51
217.7638478688762973
  0
ARC
  5
164E
  8
0
 10
44.5270680579923024
 20
8.5409484884608187
 30
0.0
 40
0.0054191295252575
 50
127.8906558838836958
 51
178.8728374324651043
  0
LINE
  5
164F
  8
0
 10
44.5426829375773892
 20
8.3216894490317994
 30
0.0
 11
44.8427210664775018
 21
8.3217750593317898
 31
0.0
  0
LINE
  5
1650
  8
0
 10
45.2726037934774368
 20
7.4304110070318119
 30
0.0
 11
44.9313561480778816
 21
7.4304110070318119
 31
0.0
  0
LINE
  5
1651
  8
0
 10
44.4552323058327801
 20
7.4304110070318119
 30
0.0
 11
44.1126037933766924
 21
7.4304110070318119
 31
0.0
  0
LINE
  5
1652
  8
0
 10
44.4849739184079809
 20
8.0722736885913147
 30
0.0
 11
44.9044018397818121
 21
8.0722736885913147
 31
0.0
  0
LINE
  5
1653
  8
0
 10
43.6515998565858325
 20
4.2620291465744682
 30
0.0
 11
45.7336077303314568
 21
4.2620291465744682
 31
0.0
  0
LINE
  5
1654
  8
0
 10
44.9197419417489314
 20
10.4033558359869307
 30
0.0
 11
44.465467362089079
 21
10.4033558359869307
 31
0.0
  0
LINE
  5
1655
  8
0
 10
44.3931719707065682
 20
10.0248349975317996
 30
0.0
 11
44.9920373295515077
 21
10.0248349975317996
 31
0.0
  0
LINE
  5
1656
  8
0
 10
44.945028250838881
 20
10.1617201495317993
 30
0.0
 11
44.4401808922153094
 21
10.1617201495317993
 31
0.0
  0
ARC
  5
1657
  8
0
 10
39.3235218312403134
 20
7.6003744808125244
 30
0.0
 40
0.0552161411565342
 50
250.8919560128146884
 51
281.0670557197040011
  0
LINE
  5
1658
  8
0
 10
44.9029157767414873
 20
8.1531569568501592
 30
0.0
 11
44.485196555581453
 21
8.1531569568501592
 31
0.0
  0
LINE
  5
1659
  8
0
 10
44.4237573822003569
 20
9.4038837705243452
 30
0.0
 11
44.3929812457274267
 21
9.4037592562318082
 31
0.0
  0
ARC
  5
165A
  8
0
 10
44.3931037984620218
 20
9.3734679570714263
 30
0.0
 40
0.0302915470716943
 50
90.2318063715669751
 51
134.7681937803434948
  0
LINE
  5
165B
  8
0
 10
44.3717712732274165
 20
9.3949737979318098
 30
0.0
 11
44.3499211549356076
 21
9.3732997239641183
 31
0.0
  0
LINE
  5
165C
  8
0
 10
43.9697151913399011
 20
8.9930930586042201
 30
0.0
 11
43.9480412214417697
 21
8.9712429989048754
 31
0.0
  0
ARC
  5
165D
  8
0
 10
43.9695470623586999
 20
8.9499104737273036
 30
0.0
 40
0.0302915470716943
 50
135.2318063715667904
 51
179.7681937803434096
  0
LINE
  5
165E
  8
0
 10
43.9392557631979912
 20
8.9500330263815844
 30
0.0
 11
43.9391312810626218
 21
8.9192567748892184
 31
0.0
  0
LINE
  5
165F
  8
0
 10
43.9391317772848211
 20
8.3815638484548156
 30
0.0
 11
43.9392562915773581
 21
8.3507877119818748
 31
0.0
  0
ARC
  5
1660
  8
0
 10
43.96954759073774
 20
8.3509102647164681
 30
0.0
 40
0.0302915470716943
 50
180.2318063715669041
 51
224.7681937803434096
  0
LINE
  5
1661
  8
0
 10
43.9480417498773619
 20
8.3295777394818753
 30
0.0
 11
43.9697158238450498
 21
8.3077276211900593
 31
0.0
  0
LINE
  5
1662
  8
0
 10
44.3499224892049568
 20
7.9275216575943448
 30
0.0
 11
44.363975383893731
 21
7.9135820152932652
 31
0.0
  0
LINE
  5
1663
  8
0
 10
45.0252458126851209
 20
7.9175610845220126
 30
0.0
 11
45.0352879266191195
 21
7.9275222900995059
 31
0.0
  0
LINE
  5
1664
  8
0
 10
45.4154938902148331
 20
8.3077289554594014
 30
0.0
 11
45.4371678601129574
 21
8.3295790151587479
 31
0.0
  0
ARC
  5
1665
  8
0
 10
45.4156620191960201
 20
8.3509115403363214
 30
0.0
 40
0.0302915470716943
 50
315.2318063715670746
 51
359.7681937803434948
  0
LINE
  5
1666
  8
0
 10
45.4459533183567217
 20
8.3507889876820371
 30
0.0
 11
45.4460778004921124
 21
8.3815652391744049
 31
0.0
  0
LINE
  5
1667
  8
0
 10
45.4460773042698989
 20
8.9192581656088077
 30
0.0
 11
45.4459527899773619
 21
8.9500343020817485
 31
0.0
  0
ARC
  5
1668
  8
0
 10
45.41566149081698
 20
8.9499117493471534
 30
0.0
 40
0.0302915470716943
 50
0.231806371566975
 51
44.7681937803436227
  0
LINE
  5
1669
  8
0
 10
45.4371673316773581
 20
8.971244274581748
 30
0.0
 11
45.4154932577096702
 21
8.993094392873564
 31
0.0
  0
LINE
  5
166A
  8
0
 10
45.0352865923497703
 20
9.3733003564692812
 30
0.0
 11
45.0134365326504309
 21
9.3949743263674126
 31
0.0
  0
ARC
  5
166B
  8
0
 10
44.9921040074728467
 20
9.3734684854504682
 30
0.0
 40
0.0302915470716943
 50
45.2318063715669325
 51
89.7681937803434664
  0
LINE
  5
166C
  8
0
 10
44.9922265601271292
 20
9.4037597846111805
 30
0.0
 11
44.9614503086347597
 21
9.4038842667465552
 31
0.0
  0
ENDSEC
  0
EOF
