  0
SECTION
  2
HEADER
  9
$ACADVER
  1
AC1009
  9
$INSBASE
 10
413.8688115606693145
 20
67.5133628342855019
 30
0.0
  9
$EXTMIN
 10
413.1912680460758907
 20
67.5110595162238667
 30
-0.0015258207003583
  9
$EXTMAX
 10
414.5512192255749255
 20
77.3909411089311163
 30
0.0000000349246037
  9
$LIMMIN
 10
0.0
 20
0.0
  9
$LIMMAX
 10
11.6929133858000007
 20
8.2677165353999982
  9
$ORTHOMODE
 70
     0
  9
$REGENMODE
 70
     1
  9
$FILLMODE
 70
     1
  9
$QTEXTMODE
 70
     0
  9
$MIRRTEXT
 70
     0
  9
$DRAGMODE
 70
     2
  9
$LTSCALE
 40
0.6431102362
  9
$OSMODE
 70
  2047
  9
$ATTMODE
 70
     1
  9
$TEXTSIZE
 40
0.2
  9
$TRACEWID
 40
0.05
  9
$TEXTSTYLE
  7
STANDARD
  9
$CLAYER
  8
0
  9
$CELTYPE
  6
BYLAYER
  9
$CECOLOR
 62
   256
  9
$DIMSCALE
 40
1.0
  9
$DIMASZ
 40
0.1875
  9
$DIMEXO
 40
0.0625
  9
$DIMDLI
 40
0.4443307087
  9
$DIMRND
 40
0.0
  9
$DIMDLE
 40
0.0
  9
$DIMEXE
 40
0.125
  9
$DIMTP
 40
0.01
  9
$DIMTM
 40
0.01
  9
$DIMTXT
 40
1.0
  9
$DIMCEN
 40
0.1052362205
  9
$DIMTSZ
 40
0.0
  9
$DIMTOL
 70
     1
  9
$DIMLIM
 70
     0
  9
$DIMTIH
 70
     0
  9
$DIMTOH
 70
     1
  9
$DIMSE1
 70
     0
  9
$DIMSE2
 70
     0
  9
$DIMTAD
 70
     0
  9
$DIMZIN
 70
     0
  9
$DIMBLK
  1

  9
$DIMASO
 70
     1
  9
$DIMSHO
 70
     1
  9
$DIMPOST
  1
\X
  9
$DIMAPOST
  1

  9
$DIMALT
 70
     1
  9
$DIMALTD
 70
     2
  9
$DIMALTF
 40
25.3999999999999986
  9
$DIMLFAC
 40
1.0
  9
$DIMTOFL
 70
     0
  9
$DIMTVP
 40
0.0
  9
$DIMTIX
 70
     0
  9
$DIMSOXD
 70
     0
  9
$DIMSAH
 70
     0
  9
$DIMBLK1
  1

  9
$DIMBLK2
  1

  9
$DIMSTYLE
  2
STANDARD
  9
$DIMCLRD
 70
     0
  9
$DIMCLRE
 70
     0
  9
$DIMCLRT
 70
     0
  9
$DIMTFAC
 40
1.0
  9
$DIMGAP
 40
0.09
  9
$LUNITS
 70
     2
  9
$LUPREC
 70
     4
  9
$SKETCHINC
 40
0.1
  9
$FILLETRAD
 40
0.0
  9
$AUNITS
 70
     0
  9
$AUPREC
 70
     0
  9
$MENU
  1
.
  9
$ELEVATION
 40
0.0
  9
$PELEVATION
 40
0.0
  9
$THICKNESS
 40
0.0
  9
$LIMCHECK
 70
     0
  9
$BLIPMODE
 70
     0
  9
$CHAMFERA
 40
0.0
  9
$CHAMFERB
 40
0.0
  9
$SKPOLY
 70
     0
  9
$TDCREATE
 40
2458172.5207638889551163
  9
$TDUPDATE
 40
2459048.5109259258024395
  9
$TDINDWG
 40
0.2666522917
  9
$TDUSRTIMER
 40
0.2666522917
  9
$USRTIMER
 70
     1
  9
$ANGBASE
 50
0.0
  9
$ANGDIR
 70
     0
  9
$PDMODE
 70
     0
  9
$PDSIZE
 40
0.3125
  9
$PLINEWID
 40
0.0
  9
$COORDS
 70
     1
  9
$SPLFRAME
 70
     0
  9
$SPLINETYPE
 70
     6
  9
$SPLINESEGS
 70
     8
  9
$ATTDIA
 70
     1
  9
$ATTREQ
 70
     1
  9
$HANDLING
 70
     1
  9
$HANDSEED
  5
DFE6
  9
$SURFTAB1
 70
     6
  9
$SURFTAB2
 70
     6
  9
$SURFTYPE
 70
     6
  9
$SURFU
 70
     6
  9
$SURFV
 70
     6
  9
$UCSNAME
  2

  9
$UCSORG
 10
0.0
 20
0.0
 30
0.0
  9
$UCSXDIR
 10
1.0
 20
0.0
 30
0.0
  9
$UCSYDIR
 10
0.0
 20
1.0
 30
0.0
  9
$PUCSNAME
  2

  9
$PUCSORG
 10
0.0
 20
0.0
 30
0.0
  9
$PUCSXDIR
 10
1.0
 20
0.0
 30
0.0
  9
$PUCSYDIR
 10
0.0
 20
1.0
 30
0.0
  9
$USERI1
 70
     0
  9
$USERI2
 70
     0
  9
$USERI3
 70
     0
  9
$USERI4
 70
     0
  9
$USERI5
 70
     0
  9
$USERR1
 40
0.0
  9
$USERR2
 40
0.0
  9
$USERR3
 40
0.0
  9
$USERR4
 40
0.0
  9
$USERR5
 40
0.0
  9
$WORLDVIEW
 70
     1
  9
$SHADEDGE
 70
     3
  9
$SHADEDIF
 70
    70
  9
$TILEMODE
 70
     1
  9
$MAXACTVP
 70
    64
  9
$PLIMCHECK
 70
     0
  9
$PEXTMIN
 10
1.0000000000000000E+20
 20
1.0000000000000000E+20
 30
1.0000000000000000E+20
  9
$PEXTMAX
 10
-1.0000000000000000E+20
 20
-1.0000000000000000E+20
 30
-1.0000000000000000E+20
  9
$PLIMMIN
 10
0.0
 20
0.0
  9
$PLIMMAX
 10
12.0
 20
9.0
  9
$UNITMODE
 70
     0
  9
$VISRETAIN
 70
     1
  9
$PLINEGEN
 70
     0
  9
$PSLTSCALE
 70
     1
  0
ENDSEC
  0
SECTION
  2
TABLES
  0
TABLE
  2
VPORT
 70
     1
  0
VPORT
  2
*ACTIVE
 70
     0
 10
0.0
 20
0.0
 11
1.0
 21
1.0
 12
-15.7580454722283303
 22
2.748458800358804
 13
0.0
 23
0.0
 14
1.0
 24
1.0
 15
0.0
 25
0.0
 16
0.0
 26
0.0
 36
14.6338572656650907
 17
429.6292891080536833
 27
69.7025415122186871
 37
0.0
 40
9.9620997474315818
 41
2.6486111111111108
 42
50.0
 43
0.0
 44
0.0
 50
0.0
 51
0.0
 71
     0
 72
   100
 73
     1
 74
     1
 75
     0
 76
     0
 77
     0
 78
     0
  0
ENDTAB
  0
TABLE
  2
LTYPE
 70
     2
  0
LTYPE
  2
CONTINUOUS
 70
     0
  3
Solid line
 72
    65
 73
     0
 40
0.0
  0
LTYPE
  2
PHANTOM2
 70
     0
  3
___ _ _ ___ _ _ ___ _ _ ___ _ _
 72
    65
 73
     6
 40
1.25
 49
0.625
 49
-0.125
 49
0.125
 49
-0.125
 49
0.125
 49
-0.125
  0
ENDTAB
  0
TABLE
  2
LAYER
 70
     2
  0
LAYER
  2
0
 70
     0
 62
   255
  6
CONTINUOUS
  0
LAYER
  2
DEFPOINTS
 70
     0
 62
     7
  6
CONTINUOUS
  0
ENDTAB
  0
TABLE
  2
STYLE
 70
     1
  0
STYLE
  2
STANDARD
 70
     0
 40
0.0
 41
0.8
 50
0.0
 71
     0
 42
0.2
  3
txt
  4

  0
ENDTAB
  0
TABLE
  2
VIEW
 70
     0
  0
ENDTAB
  0
TABLE
  2
UCS
 70
     0
  0
ENDTAB
  0
TABLE
  2
APPID
 70
    10
  0
APPID
  2
ACAD
 70
     0
  0
APPID
  2
ACAD_MLEADERVER
 70
     0
  0
APPID
  2
ACAD_EXEMPT_FROM_CAD_STANDARDS
 70
     0
  0
APPID
  2
ACAD_DSTYLE_DIMJAG
 70
     0
  0
APPID
  2
ACAD_DSTYLE_DIMTALN
 70
     0
  0
APPID
  2
ACAD_NAV_VCDISPLAY
 70
     0
  0
APPID
  2
ACAECLAYERSTANDARD
 70
     0
  0
APPID
  2
ACCMTRANSPARENCY
 70
     0
  0
APPID
  2
DCO15
 70
     0
  0
APPID
  2
ACDBATTR
 70
     0
  0
ENDTAB
  0
TABLE
  2
DIMSTYLE
 70
     1
  0
DIMSTYLE
  2
STANDARD
 70
     0
  3

  4

  5

  6

  7

 40
1.0
 41
0.1875
 42
0.0625
 43
0.38
 44
0.125
 45
0.0
 46
0.0
 47
0.01
 48
0.01
140
0.15625
141
0.09
142
0.0
143
25.3999999999999986
144
1.0
145
0.0
146
1.0
147
0.09
 71
     1
 72
     0
 73
     1
 74
     1
 75
     0
 76
     0
 77
     0
 78
     4
170
     0
171
     2
172
     0
173
     0
174
     0
175
     0
176
     0
177
     0
178
     0
  0
ENDTAB
  0
ENDSEC
  0
SECTION
  2
BLOCKS
  0
BLOCK
  8
0
  2
$MODEL_SPACE
 70
     0
 10
0.0
 20
0.0
 30
0.0
  3
$MODEL_SPACE
  1

  0
ENDBLK
  5
21
  8
0
  0
BLOCK
 67
     1
  8
0
  2
$PAPER_SPACE
 70
     0
 10
0.0
 20
0.0
 30
0.0
  3
$PAPER_SPACE
  1

  0
ENDBLK
  5
1D
 67
     1
  8
0
  0
BLOCK
  8
0
  2
_FILLED
 70
     0
 10
0.0
 20
0.0
 30
0.0
  3
_FILLED
  1

  0
SOLID
  5
87E2
  8
0
  6
BYBLOCK
 62
     0
 10
0.0
 20
0.0
 30
0.0
 11
-1.0
 21
0.1666666667
 31
0.0
 12
-1.0
 22
-0.1666666667
 32
0.0
 13
-1.0
 23
-0.1666666667
 33
0.0
  0
ENDBLK
  5
87E3
  8
0
  6
BYBLOCK
 62
     0
  0
ENDSEC
  0
SECTION
  2
ENTITIES
  0
ATTDEF
  5
B1E1
  8
DEFPOINTS
 10
413.8695174326268216
 20
67.5172874317647711
 30
0.0
 40
0.001
  1
K-72776W
  3

  2
MODELNUMBER
 70
     0
1001
ACDBATTR
1070
     0
1070
     1
  0
ATTDEF
  5
B1E2
  8
DEFPOINTS
 10
413.8695174326268216
 20
67.5156207650981059
 30
0.0
 40
0.001
  1
ARTIFACTS
  3

  2
TRADENAME
 70
     0
1001
ACDBATTR
1070
     0
1070
     1
  0
ATTDEF
  5
B1E3
  8
DEFPOINTS
 10
413.8695174326268216
 20
67.5139540984314408
 30
0.0
 40
0.001
  1
HANDSHOWER
  3

  2
PRODUCT
 70
     0
1001
ACDBATTR
1070
     0
1070
     1
  0
LINE
  5
D7FD
  8
0
 10
413.6088259600995229
 20
73.7358202774661891
 30
0.0
 11
413.6088259600995229
 21
73.9114642492661886
 31
0.0
  0
ARC
  5
D7FE
  8
0
 10
413.8688259600995138
 20
73.0790019677661888
 30
0.0
 40
0.356
 50
38.1819286802996771
 51
47.8927707983990416
  0
LINE
  5
D7FF
  8
0
 10
413.8688115606693145
 20
67.5133628342855019
 30
0.0
 11
414.2288114196692845
 21
67.5133628342855019
 31
0.0
  0
LINE
  5
D800
  8
0
 10
414.2288114196692845
 20
67.8433628342855002
 30
0.0
 11
414.2288259600995275
 21
67.788001967766192
 31
0.0
  0
LINE
  5
D801
  8
0
 10
413.8688115606693145
 20
72.6293628342855015
 30
0.0
 11
414.3788114196693186
 21
72.6293628342855015
 31
0.0
  0
LINE
  5
D802
  8
0
 10
414.393811419669305
 20
72.6443628342855021
 30
0.0
 11
414.393811419669305
 21
72.7135780636855031
 31
0.0
  0
LINE
  5
D803
  8
0
 10
414.4116380883692159
 20
72.7700696890855028
 30
0.0
 11
414.4116327425692816
 21
73.0447148842854972
 31
0.0
  0
LINE
  5
D804
  8
0
 10
414.4188114196692823
 20
73.0577925305855018
 30
0.0
 11
414.4188114196692823
 21
72.7569441640854961
 31
0.0
  0
LINE
  5
D805
  8
0
 10
414.3614176113691769
 20
73.1112973788854958
 30
0.0
 11
413.8688115606693145
 21
73.111297357845487
 31
0.0
  0
LINE
  5
D806
  8
0
 10
413.8688115606693145
 20
73.299078041485501
 30
0.0
 11
414.2298114196693177
 21
73.299078041485501
 31
0.0
  0
LINE
  5
D807
  8
0
 10
414.3752660110693
 20
73.0940214705855027
 30
0.0
 11
414.4043496779692077
 21
73.0804595339855041
 31
0.0
  0
ARC
  5
D808
  8
0
 10
414.324621398857289
 20
67.8883628365086054
 30
0.0
 40
0.0250000050826847
 50
269.9725956897838728
 51
358.1064965132426892
  0
ARC
  5
D809
  8
0
 10
414.2488114196693232
 20
67.8433628342855002
 30
0.0
 40
0.02
 50
104.4775121858995988
 51
180.0
  0
ARC
  5
D80A
  8
0
 10
414.048920379869287
 20
73.0424099323855103
 30
0.0
 40
0.32
 50
12.4315522465996899
 51
51.4086057514995503
  0
ARC
  5
D80B
  8
0
 10
414.2298114196693177
 20
73.2690780414854999
 30
0.0
 40
0.03
 50
51.4086057514995503
 51
90.0
  0
ARC
  5
D80C
  8
0
 10
414.3858314676692771
 20
73.1166791652855039
 30
0.0
 40
0.025
 50
192.4315522465996935
 51
245.0000000000003126
  0
ARC
  5
D80D
  8
0
 10
414.3788114196693186
 20
72.6443628342855021
 30
0.0
 40
0.015
 50
270.0
 51
0.0
  0
ARC
  5
D80E
  8
0
 10
521.1042220429709459
 20
64.2442683322020827
 30
0.0
 40
106.8167640271041989
 50
176.377500168141097
 51
178.0453966900265925
  0
ARC
  5
D80F
  8
0
 10
414.6034725366923794
 20
72.6523056934735223
 30
0.0
 40
0.2649144686472044
 50
184.9683123217826051
 51
224.843210072712111
  0
ARC
  5
D810
  8
0
 10
414.0838980747543019
 20
72.1856223277305702
 30
0.0
 40
0.4340283748080163
 50
4.3760663424485662
 51
40.1528168868741488
  0
ARC
  5
D811
  8
0
 10
412.4044913326915776
 20
71.9137479417013026
 30
0.0
 40
2.1340762145747751
 50
357.3004012173090018
 51
8.2165694664797417
  0
ARC
  5
D812
  8
0
 10
391.2333251214491838
 20
72.4070326622979934
 30
0.0
 40
23.3104383305249314
 50
356.5227421340783849
 51
358.5403178252406065
  0
ARC
  5
D813
  8
0
 10
414.392987588299377
 20
73.0572635647271653
 30
0.0
 40
0.0258292483727291
 50
1.173461560424949
 51
63.902984918996701
  0
ARC
  5
D814
  8
0
 10
414.3938112441820749
 20
72.7569474097370801
 30
0.0
 40
0.0250001756978571
 50
300.0075282227195999
 51
359.9925615667744978
  0
ARC
  5
D815
  8
0
 10
414.4201252221440086
 20
72.712889670450835
 30
0.0
 40
0.0263228055230727
 50
121.6466929568521067
 51
178.5014242074115032
  0
LINE
  5
D816
  8
0
 10
413.8688115606693145
 20
72.713578067085507
 30
0.0
 11
414.393811419669305
 21
72.713578067085507
 31
0.0
  0
ARC
  5
D817
  8
0
 10
413.8688151450273267
 20
75.396217597400792
 30
0.0
 40
2.660920950617752
 50
269.9999228204829933
 51
271.4024773792870064
  0
ARC
  5
D818
  8
0
 10
413.8507355420421732
 20
74.1194132475606438
 30
0.0
 40
1.3858196627946899
 50
273.442199937209125
 51
279.9552893676279837
  0
ARC
  5
D819
  8
0
 10
414.2618011726453915
 20
73.4466319582981839
 30
0.0
 40
0.7131005352936849
 50
256.0851541243303018
 51
265.1414343505372244
  0
ARC
  5
D81A
  8
0
 10
414.2474580504318737
 20
74.2122549453120541
 30
0.0
 40
1.4768794454088581
 50
268.2130423445573797
 51
271.7870114054974238
  0
ARC
  5
D81B
  8
0
 10
414.2346675847107917
 20
73.4276763590979442
 30
0.0
 40
0.694081624811961
 50
274.8635059090278787
 51
284.084268340557287
  0
ARC
  5
D81C
  8
0
 10
414.3891759432780191
 20
72.7717874813381229
 30
0.0
 40
0.0225277334040081
 50
309.7189033975245138
 51
355.6268181608994041
  0
ARC
  5
D81D
  8
0
 10
413.8688327438424039
 20
70.4185210791481921
 30
0.0
 40
2.660920950617752
 50
88.5979277630637938
 51
90.0004561226885755
  0
ARC
  5
D81E
  8
0
 10
413.8507441124875186
 20
71.6953253011143232
 30
0.0
 40
1.3858196627946899
 50
80.0451157747184254
 51
86.5582052051398705
  0
ARC
  5
D81F
  8
0
 10
414.2618049857982214
 20
72.368109497032961
 30
0.0
 40
0.7131005352936849
 50
94.8589707918118847
 51
103.9152510180202
  0
ARC
  5
D820
  8
0
 10
414.2474672773570887
 20
71.6024864086170538
 30
0.0
 40
1.4768794454088581
 50
88.2133937368511596
 51
91.7873627977904647
  0
ARC
  5
D821
  8
0
 10
414.2346712638279769
 20
72.3870649043692822
 30
0.0
 40
0.694081624811961
 50
75.9161368017926037
 51
85.1368992333222536
  0
ARC
  5
D822
  8
0
 10
414.3891749845565755
 20
73.0429548746518122
 30
0.0
 40
0.0225277334040081
 50
4.3735869814490762
 51
50.2815017448248298
  0
LINE
  5
D823
  8
0
 10
414.0903150724021202
 20
72.7544579260927833
 30
0.0
 11
414.0903144546309136
 21
73.0602803146417585
 31
0.0
  0
LINE
  5
D824
  8
0
 10
413.9055226224065791
 20
67.5133628342855019
 30
0.0
 11
414.2401606002795802
 21
67.5249766439197714
 31
0.0
  0
LINE
  5
D825
  8
0
 10
413.868825960100196
 20
67.788001967766192
 30
0.0
 11
414.2288114196692845
 21
67.788001967766192
 31
0.0
  0
ARC
  5
D826
  8
0
 10
413.8681432018335045
 20
67.3927103346863845
 30
0.0
 40
0.3952922227185148
 50
66.7939989061820825
 51
89.9010372976971723
  0
LINE
  5
D827
  8
0
 10
414.2779456776996199
 20
67.635015470166195
 30
0.0
 11
414.2327777630994774
 21
67.6114649883062526
 31
0.0
  0
LINE
  5
D828
  8
0
 10
414.277945436399591
 20
67.7064448045661891
 30
0.0
 11
414.2327778176995139
 21
67.6829156676528356
 31
0.0
  0
LINE
  5
D829
  8
0
 10
414.2521038929995143
 20
67.7647240347661892
 30
0.0
 11
414.2327779067995266
 21
67.7543235801661865
 31
0.0
  0
LINE
  5
D82A
  8
0
 10
414.2783307714996113
 20
67.5639428629661865
 30
0.0
 11
414.2785259600996142
 21
67.5761000488661949
 31
0.0
  0
LINE
  5
D82B
  8
0
 10
414.2785259600996142
 20
67.7070491689661935
 30
0.0
 11
414.2779454340994789
 21
67.706446397366193
 31
0.0
  0
LINE
  5
D82C
  8
0
 10
414.2785259600996142
 20
67.6356200351661982
 30
0.0
 11
414.2779456785996217
 21
67.6350149058661856
 31
0.0
  0
LINE
  5
D82D
  8
0
 10
414.2785259600996142
 20
67.7189586730661972
 30
0.0
 11
414.2785259600996142
 21
67.7070495339661846
 31
0.0
  0
LINE
  5
D82E
  8
0
 10
414.2785259600996142
 20
67.6475295046661955
 30
0.0
 11
414.2785259600996142
 21
67.6356201309661884
 31
0.0
  0
LINE
  5
D82F
  8
0
 10
414.2327779067995266
 20
67.7543235801661865
 30
0.0
 11
414.2327778765995276
 21
67.7431141877661958
 31
0.0
  0
LINE
  5
D830
  8
0
 10
414.2327778176995139
 20
67.6829156676528356
 30
0.0
 11
414.2327778176995139
 21
67.6716851163661914
 31
0.0
  0
LINE
  5
D831
  8
0
 10
414.2327777630994774
 20
67.6114649883062526
 30
0.0
 11
414.2327777630994774
 21
67.6002559249661914
 31
0.0
  0
LINE
  5
D832
  8
0
 10
414.0476355211839063
 20
67.6240144930661842
 30
0.0
 11
414.0476355211839063
 21
67.612104958666194
 31
0.0
  0
LINE
  5
D833
  8
0
 10
413.9055376401838089
 20
67.7351292717661977
 30
0.0
 11
413.9055376401838089
 21
67.723239508066186
 31
0.0
  0
LINE
  5
D834
  8
0
 10
413.9055376401838089
 20
67.6637001379661882
 30
0.0
 11
413.9055376401838089
 21
67.6518103741661889
 31
0.0
  0
LINE
  5
D835
  8
0
 10
413.9055376401838089
 20
67.5922710040661912
 30
0.0
 11
413.9055376401838089
 21
67.5803812402661919
 31
0.0
  0
LINE
  5
D836
  8
0
 10
413.9055376401838089
 20
67.5208414016661891
 30
0.0
 11
413.9055226224065791
 21
67.5133628342855019
 31
0.0
  0
LINE
  5
D837
  8
0
 10
414.2785259600996142
 20
67.7189587034661855
 30
0.0
 11
414.2779449877995717
 21
67.7195641928661871
 31
0.0
  0
LINE
  5
D838
  8
0
 10
414.2785259600996142
 20
67.6475273135661865
 30
0.0
 11
414.2779449604994966
 21
67.6481338558661918
 31
0.0
  0
LINE
  5
D839
  8
0
 10
414.2288259600995275
 20
67.788001967766192
 30
0.0
 11
414.2521038929995143
 21
67.7647240347661892
 31
0.0
  0
LINE
  5
D83A
  8
0
 10
414.2327779067995266
 20
67.7431142180084009
 30
0.0
 11
414.2779449877995717
 21
67.7195641349661912
 31
0.0
  0
LINE
  5
D83B
  8
0
 10
414.2327778176995139
 20
67.6716851623246072
 30
0.0
 11
414.277944962299614
 21
67.6481350508661734
 31
0.0
  0
LINE
  5
D83C
  8
0
 10
414.2327777630994774
 20
67.6002559249661914
 30
0.0
 11
414.2785259600996142
 21
67.5761004357661932
 31
0.0
  0
LINE
  5
D83D
  8
0
 10
414.2784283657995275
 20
67.5700214559161907
 30
0.0
 11
414.0337858084143932
 21
67.5562739602485181
 31
0.0
  0
LINE
  5
D83E
  8
0
 10
414.2327777630994774
 20
67.605860456636222
 30
0.0
 11
414.0476355211839063
 21
67.6180597258661891
 31
0.0
  0
LINE
  5
D83F
  8
0
 10
414.2327778176995139
 20
67.6773003920095135
 30
0.0
 11
414.0476355211839063
 21
67.6894888597161923
 31
0.0
  0
LINE
  5
D840
  8
0
 10
414.2327779067995266
 20
67.7485485531661737
 30
0.0
 11
414.0225354795837802
 21
67.7496734072661866
 31
0.0
  0
ARC
  5
D841
  8
0
 10
413.856674141842575
 20
68.606085047508742
 30
0.0
 40
0.8723249858282388
 50
273.211116672611297
 51
280.9607849478052799
  0
ARC
  5
D842
  8
0
 10
413.7836303532183138
 20
66.7229122825932848
 30
0.0
 40
1.0077281104049121
 50
74.8123863158855897
 51
83.0517739726376476
  0
ARC
  5
D843
  8
0
 10
413.8574991907232743
 20
68.5268037940101067
 30
0.0
 40
0.8644394794911626
 50
273.1856701568954122
 51
282.7062910658834198
  0
ARC
  5
D844
  8
0
 10
413.7816433636676265
 20
66.6413252790782735
 30
0.0
 40
1.0180520218280991
 50
74.8542345286483197
 51
83.0099259411674666
  0
ARC
  5
D845
  8
0
 10
413.8501813336387727
 20
68.5078025254462233
 30
0.0
 40
0.9172035146655051
 50
273.4600951007835192
 51
282.4318662010953176
  0
ARC
  5
D846
  8
0
 10
413.7863557206765108
 20
66.593129581542243
 30
0.0
 40
0.9944195128770555
 50
75.5923196514147406
 51
83.1165112664652241
  0
ARC
  5
D847
  8
0
 10
413.7656418211338973
 20
68.1762839081124952
 30
0.0
 40
0.6755098321749643
 50
284.7479537553804221
 51
293.3877785664499811
  0
LINE
  5
D848
  8
0
 10
414.0476355211839063
 20
67.6954436269661954
 30
0.0
 11
414.0476355211839063
 21
67.6835340924661892
 31
0.0
  0
ARC
  5
D849
  8
0
 10
413.8701474687438235
 20
68.2766811152767303
 30
0.0
 40
0.7566677850321245
 50
272.6807636170868818
 51
275.1136960403052854
  0
LINE
  5
D84A
  8
0
 10
414.2785259600996142
 20
67.564190901266187
 30
0.0
 11
414.232776944399518
 21
67.5400351988661924
 31
0.0
  0
LINE
  5
D84B
  8
0
 10
414.232776944399518
 20
67.5400351988661924
 30
0.0
 11
414.2329165383995928
 21
67.5287543054661938
 31
0.0
  0
LINE
  5
D84C
  8
0
 10
414.2329165383995928
 20
67.5287543054661938
 30
0.0
 11
414.24026134389959
 21
67.5247574335161858
 31
0.0
  0
LINE
  5
D84D
  8
0
 10
414.24026134389959
 20
67.5247574335161858
 30
0.0
 11
414.2288114196692845
 21
67.5133628342855019
 31
0.0
  0
LINE
  5
D84E
  8
0
 10
413.362057435099473
 20
74.0541864211161851
 30
0.0
 11
413.362057435099473
 21
77.1237344778161855
 31
0.0
  0
LINE
  5
D84F
  8
0
 10
413.5420605573996227
 20
77.3383154867161977
 30
0.0
 11
413.5420605573996227
 21
73.8396042335161837
 31
0.0
  0
LINE
  5
D850
  8
0
 10
414.2203114113995071
 20
73.8460283173161827
 30
0.0
 11
414.2203114113995071
 21
77.331892581616188
 31
0.0
  0
ARC
  5
D851
  8
0
 10
413.8686332243996162
 20
75.8144595835161965
 30
0.0
 40
2.0269999999999988
 50
261.4594635631989945
 51
262.6359533852128152
  0
ARC
  5
D852
  8
0
 10
413.8686332243996162
 20
75.8144595835161965
 30
0.0
 40
2.0269999999999988
 50
277.3640466147871848
 51
278.6959330901011072
  0
ARC
  5
D853
  8
0
 10
413.4220574350995889
 20
77.1237344778161855
 30
0.0
 40
0.06
 50
108.3148414153996981
 51
180.0
  0
ARC
  5
D854
  8
0
 10
413.3937666177994856
 20
77.2092037357161871
 30
0.0
 40
0.0300297972
 50
288.3148414153997123
 51
354.7218319505993804
  0
ARC
  5
D855
  8
0
 10
414.2255888956019021
 20
77.3614279371877984
 30
0.0
 40
0.0300031509719913
 50
203.4973120989643007
 51
259.8690991058106761
  0
ARC
  5
D856
  8
0
 10
414.1705609636994723
 20
77.3375050435161739
 30
0.0
 40
0.03
 50
23.4958013033005813
 51
81.3040669097012767
  0
ARC
  5
D857
  8
0
 10
413.5720605573995954
 20
77.3383166654161869
 30
0.0
 40
0.03
 50
98.5405364371007835
 51
180.0
  0
ARC
  5
D858
  8
0
 10
413.5179538037514249
 20
77.3246262337740404
 30
0.0
 40
0.0241067536481463
 50
359.9999996248391199
 51
95.7548086472352367
  0
ARC
  5
D859
  8
0
 10
413.8686332243996162
 20
75.3634613154161883
 30
0.0
 40
2.0269999999999988
 50
81.3040669098989781
 51
98.5405364368010481
  0
ARC
  5
D85A
  8
0
 10
413.4220574350995889
 20
74.0541864211161851
 30
0.0
 40
0.06
 50
180.0
 51
251.6851585846002877
  0
ARC
  5
D85B
  8
0
 10
414.1705609636994723
 20
73.8404158554161967
 30
0.0
 40
0.03
 50
278.6959330902988086
 51
336.5041986966994045
  0
ARC
  5
D85C
  8
0
 10
413.5720605573995954
 20
73.8396042335161837
 30
0.0
 40
0.03
 50
180.0
 51
261.4594635630011794
  0
ARC
  5
D85D
  8
0
 10
413.5179538037514249
 20
73.8532946651583444
 30
0.0
 40
0.0241067536481498
 50
264.2451913527581837
 51
0.0000003751592996
  0
ARC
  5
D85E
  8
0
 10
414.2049239317216234
 20
77.2369983712612793
 30
0.0
 40
0.0961336865501471
 50
30.3724929116029401
 51
80.7894268447820991
  0
ARC
  5
D85F
  8
0
 10
412.8861479153712253
 20
76.713436513976589
 30
0.0
 40
1.5139963607737861
 50
8.4094842323182135
 51
22.2048787838885708
  0
ARC
  5
D860
  8
0
 10
409.2192947211354976
 20
75.9707038945850428
 30
0.0
 40
5.2537968299206721
 50
2.4033472304587491
 51
10.5745569766118308
  0
ARC
  5
D861
  8
0
 10
402.5606098129260886
 20
75.6380867814072246
 30
0.0
 40
11.9206908745656808
 50
359.6858654715945249
 51
2.6585643197010151
  0
ARC
  5
D862
  8
0
 10
413.5290601219825248
 20
77.2585838773291727
 30
0.0
 40
0.0910376709419675
 50
98.5428387981498872
 51
157.0247124917698898
  0
ARC
  5
D863
  8
0
 10
413.6892089849642957
 20
77.1875925421242641
 30
0.0
 40
0.2662080267467444
 50
156.4116695422953001
 51
175.9398055716031024
  0
ARC
  5
D864
  8
0
 10
413.3937666177994856
 20
73.9687171632161835
 30
0.0
 40
0.0300297972
 50
5.2781680493997101
 51
71.6851585846002735
  0
ARC
  5
D865
  8
0
 10
414.2255863212994882
 20
73.8164949435161901
 30
0.0
 40
0.03
 50
100.1269816764011011
 51
156.5041986966994045
  0
ARC
  5
D866
  8
0
 10
414.2049239317216234
 20
73.9409225276711197
 30
0.0
 40
0.0961336865501655
 50
279.2105731552211978
 51
329.6275070883853004
  0
ARC
  5
D867
  8
0
 10
412.8861479153712821
 20
74.4644843849557532
 30
0.0
 40
1.5139963607737039
 50
337.7951212161107151
 51
351.5905166214557198
  0
ARC
  5
D868
  8
0
 10
409.2192948884281805
 20
75.2072169913393083
 30
0.0
 40
5.2537966622297194
 50
349.4254430738877772
 51
357.5966528347711915
  0
ARC
  5
D869
  8
0
 10
402.7903930375273944
 20
75.5321496347949335
 30
0.0
 40
11.6907989129840697
 50
357.3268207886897017
 51
0.1988806954522285
  0
ARC
  5
D86A
  8
0
 10
413.5290601219825248
 20
73.9193370216032122
 30
0.0
 40
0.0910376709419675
 50
202.9752875082299965
 51
261.4571612018501128
  0
ARC
  5
D86B
  8
0
 10
413.6892089849642957
 20
73.9903283568081065
 30
0.0
 40
0.2662080267467444
 50
184.0601944283959881
 51
203.5883304577046999
  0
LINE
  5
D86C
  8
0
 10
413.362057435099473
 20
75.6574672552776093
 30
0.0
 11
413.2749545326996099
 21
75.6451650021161868
 31
0.0
  0
ARC
  5
D86D
  8
0
 10
413.2778142485157105
 20
75.632673300592856
 30
0.0
 40
0.0128148578414703
 50
102.894483581245396
 51
169.0267870740304943
  0
ARC
  5
D86E
  8
0
 10
413.3878476488405909
 20
75.6091263317934335
 30
0.0
 40
0.1253374188242361
 50
168.0340387928187056
 51
178.7529687946662875
  0
ARC
  5
D86F
  8
0
 10
413.7238612122234258
 20
75.5889698969305641
 30
0.0
 40
0.4618885404696614
 50
177.1601309074085009
 51
179.998667906983286
  0
LINE
  5
D870
  8
0
 10
413.362057435099473
 20
75.5202772596698111
 30
0.0
 11
413.2746734255443926
 21
75.5330665405188597
 31
0.0
  0
ARC
  5
D871
  8
0
 10
413.277595755399318
 20
75.5455437425175234
 30
0.0
 40
0.0128148578414703
 50
190.685854480637289
 51
256.8181579734223874
  0
ARC
  5
D872
  8
0
 10
413.3877458676697074
 20
75.5685385613590057
 30
0.0
 40
0.1253374188242361
 50
180.9596727600005863
 51
191.6786027618479125
  0
ARC
  5
D873
  8
0
 10
413.7238562962335209
 20
75.5870095238198303
 30
0.0
 40
0.4618885404696614
 50
179.7139736476842131
 51
182.5525106472587993
  0
LINE
  5
D874
  8
0
 10
413.362057435099473
 20
75.8324608052710118
 30
0.0
 11
413.2485883213053057
 21
75.8164346370787143
 31
0.0
  0
ARC
  5
D875
  8
0
 10
413.2514480371214063
 20
75.8039429355553835
 30
0.0
 40
0.0128148578414703
 50
102.894483581245396
 51
169.0267870740304943
  0
ARC
  5
D876
  8
0
 10
413.3614814374464004
 20
75.780395966755961
 30
0.0
 40
0.1253374188242361
 50
168.0340387928187056
 51
178.7529687946662875
  0
ARC
  5
D877
  8
0
 10
413.6974950008291785
 20
75.7602395318930917
 30
0.0
 40
0.4618885404696614
 50
177.1601309074085009
 51
179.998667906983286
  0
LINE
  5
D878
  8
0
 10
413.362057435099473
 20
75.687688009189074
 30
0.0
 11
413.2483072141500884
 21
75.7043361754813873
 31
0.0
  0
ARC
  5
D879
  8
0
 10
413.2512295440051844
 20
75.7168133774800509
 30
0.0
 40
0.0128148578414703
 50
190.685854480637289
 51
256.8181579734223874
  0
ARC
  5
D87A
  8
0
 10
413.3613796562754032
 20
75.7398081963215333
 30
0.0
 40
0.1253374188242361
 50
180.9596727600005863
 51
191.6786027618479125
  0
ARC
  5
D87B
  8
0
 10
413.6974900848392735
 20
75.7582791587823436
 30
0.0
 40
0.4618885404696614
 50
179.7139736476842131
 51
182.5525106472587993
  0
LINE
  5
D87C
  8
0
 10
413.362057435099473
 20
75.8152838967533853
 30
0.0
 11
413.3159367488178191
 21
75.8087698961519862
 31
0.0
  0
ARC
  5
D87D
  8
0
 10
413.3187964646339765
 20
75.7962781946286555
 30
0.0
 40
0.0128148578414703
 50
102.894483581245396
 51
169.0267870740304943
  0
ARC
  5
D87E
  8
0
 10
413.4288298649588
 20
75.7727312258292329
 30
0.0
 40
0.1253374188242361
 50
168.0340387928187056
 51
178.7529687946662875
  0
ARC
  5
D87F
  8
0
 10
413.7648434283415781
 20
75.7525747909663352
 30
0.0
 40
0.4618885404696614
 50
177.1601309074085009
 51
179.998667906983286
  0
ARC
  5
D880
  8
0
 10
413.3243237301284125
 20
75.7121039555741504
 30
0.0
 40
0.0190976809192002
 50
196.2106797518466976
 51
249.8748029180939909
  0
ARC
  5
D881
  8
0
 10
413.4287280837879166
 20
75.7321434553948194
 30
0.0
 40
0.1253374188242361
 50
180.9596727600005863
 51
191.6786027618479125
  0
ARC
  5
D882
  8
0
 10
413.7648385123516732
 20
75.7506144178556298
 30
0.0
 40
0.4618885404696614
 50
179.7139736476842131
 51
182.5525106472587993
  0
LINE
  5
D883
  8
0
 10
413.362057435099473
 20
75.9805439100725408
 30
0.0
 11
413.2770823421233786
 21
75.9706933296724003
 31
0.0
  0
ARC
  5
D884
  8
0
 10
413.279630134408194
 20
75.9581342956342951
 30
0.0
 40
0.0128148578414703
 50
101.4677008610220952
 51
167.600004353807492
  0
ARC
  5
D885
  8
0
 10
413.3890431126187082
 20
75.9318548526067758
 30
0.0
 40
0.125337418824236
 50
166.607256072596698
 51
177.3261860744435978
  0
ARC
  5
D886
  8
0
 10
413.7244506134974813
 20
75.9033381031807153
 30
0.0
 40
0.4618885404696613
 50
175.7333481871856122
 51
178.5718851867601131
  0
LINE
  5
D887
  8
0
 10
413.362057435099473
 20
75.8435020803601674
 30
0.0
 11
413.2740101284309731
 21
75.8586366225248838
 31
0.0
  0
ARC
  5
D888
  8
0
 10
413.2772422281202012
 20
75.8710371915882718
 30
0.0
 40
0.0128148578414703
 50
189.2590717604147983
 51
255.3913752532006924
  0
ARC
  5
D889
  8
0
 10
413.3879307485210006
 20
75.8912822003104566
 30
0.0
 40
0.125337418824236
 50
179.5328900397780956
 51
190.2518200416259049
  0
ARC
  5
D88A
  8
0
 10
413.724396886755585
 20
75.9013784602700383
 30
0.0
 40
0.4618885404696613
 50
178.2871909274618076
 51
181.1257279270361948
  0
LINE
  5
D88B
  8
0
 10
413.362057435099473
 20
76.1301107066573337
 30
0.0
 11
413.3197418510097236
 21
76.1252053508800799
 31
0.0
  0
LINE
  5
D88C
  8
0
 10
413.3197418510097236
 20
76.1252053508800799
 30
0.0
 11
413.320004860677102
 21
76.1251700860419334
 31
0.0
  0
ARC
  5
D88D
  8
0
 10
413.3222896432945959
 20
76.1126463168419747
 30
0.0
 40
0.0128148578414703
 50
101.4677008610220952
 51
167.600004353807492
  0
ARC
  5
D88E
  8
0
 10
413.4317026215049964
 20
76.0863668738144412
 30
0.0
 40
0.125337418824236
 50
166.607256072596698
 51
177.3261860744435978
  0
ARC
  5
D88F
  8
0
 10
413.7671101223838832
 20
76.0578501243883949
 30
0.0
 40
0.4618885404696613
 50
175.7333481871856122
 51
178.5718851867601131
  0
LINE
  5
D890
  8
0
 10
413.362057435099473
 20
76.0053468884570123
 30
0.0
 11
413.3166696373173181
 21
76.0131486437325492
 31
0.0
  0
ARC
  5
D891
  8
0
 10
413.3199017370064894
 20
76.0255492127959513
 30
0.0
 40
0.0128148578414703
 50
189.2590717604147983
 51
255.3913752532006924
  0
ARC
  5
D892
  8
0
 10
413.4305902574074025
 20
76.045794221518122
 30
0.0
 40
0.125337418824236
 50
179.5328900397780956
 51
190.2518200416259049
  0
ARC
  5
D893
  8
0
 10
413.7670563956419869
 20
76.0558904814777037
 30
0.0
 40
0.4618885404696613
 50
178.2871909274618076
 51
181.1257279270361948
  0
LINE
  5
D894
  8
0
 10
413.3052395549023004
 20
76.0640286278606084
 30
0.0
 11
413.2525830334836883
 21
76.0579245180602044
 31
0.0
  0
ARC
  5
D895
  8
0
 10
413.2551308257686173
 20
76.0453654840220992
 30
0.0
 40
0.0128148578414703
 50
101.4677008610220952
 51
167.600004353807492
  0
ARC
  5
D896
  8
0
 10
413.3645438039789042
 20
76.0190860409945799
 30
0.0
 40
0.125337418824236
 50
166.607256072596698
 51
177.3261860744435978
  0
ARC
  5
D897
  8
0
 10
413.699951304857791
 20
75.9905692915685052
 30
0.0
 40
0.4618885404696613
 50
175.7333481871856122
 51
178.5718851867601131
  0
LINE
  5
D898
  8
0
 10
413.2642327632220258
 20
75.9433372409040146
 30
0.0
 11
413.2495108197912828
 21
75.9458678109126879
 31
0.0
  0
ARC
  5
D899
  8
0
 10
413.2527429194805109
 20
75.9582683799760758
 30
0.0
 40
0.0128148578414703
 50
189.2590717604147983
 51
255.3913752532006924
  0
ARC
  5
D89A
  8
0
 10
413.363431439881424
 20
75.9785133886982607
 30
0.0
 40
0.125337418824236
 50
179.5328900397780956
 51
190.2518200416259049
  0
ARC
  5
D89B
  8
0
 10
413.6998975781158947
 20
75.988609648657814
 30
0.0
 40
0.4618885404696613
 50
178.2871909274618076
 51
181.1257279270361948
  0
LINE
  5
D89C
  8
0
 10
413.362057435099473
 20
76.2548356587673055
 30
0.0
 11
413.2766500738084119
 21
76.2466016168105938
 31
0.0
  0
ARC
  5
D89D
  8
0
 10
413.278955067313575
 20
76.2339957615664048
 30
0.0
 40
0.0128148578414703
 50
100.3621197045530948
 51
166.4944231973404101
  0
ARC
  5
D89E
  8
0
 10
413.3878406194269814
 20
76.205610105546711
 30
0.0
 40
0.125337418824236
 50
165.5016749161289056
 51
176.2206049179762033
  0
ARC
  5
D89F
  8
0
 10
413.7226354540173929
 20
76.1706270328511152
 30
0.0
 40
0.4618885404696613
 50
174.6277670307179903
 51
177.4663040302924912
  0
ARC
  5
D8A0
  8
0
 10
413.4059150785478209
 20
76.1236583622232672
 30
0.0
 40
0.0862386680125677
 50
178.8658948970216045
 51
178.9791973511468086
  0
LINE
  5
D8A1
  8
0
 10
413.3202280063779881
 20
76.1252617075414832
 30
0.0
 11
413.2714163164940828
 21
76.1346250482880151
 31
0.0
  0
ARC
  5
D8A2
  8
0
 10
413.2748870814074849
 20
76.1469609460020962
 30
0.0
 40
0.0128148578414703
 50
188.153490603946608
 51
254.2857940967313084
  0
ARC
  5
D8A3
  8
0
 10
413.3859456198226212
 20
76.1650664692428165
 30
0.0
 40
0.125337418824236
 50
178.4273088833107863
 51
189.146238885157203
  0
ARC
  5
D8A4
  8
0
 10
413.7225439262928717
 20
76.1686687914012737
 30
0.0
 40
0.4618885404696613
 50
177.1816097709942994
 51
180.0201467705688003
  0
LINE
  5
D8A5
  8
0
 10
413.362057435099473
 20
76.4128822478011216
 30
0.0
 11
413.3238269859481875
 21
76.4108387392609814
 31
0.0
  0
LINE
  5
D8A6
  8
0
 10
413.3238269859481875
 20
76.4108387392609814
 30
0.0
 11
413.3240873049202264
 21
76.4107872443415346
 31
0.0
  0
ARC
  5
D8A7
  8
0
 10
413.3255916394751921
 20
76.3981459625975816
 30
0.0
 40
0.0128148578414703
 50
97.9149918154600982
 51
164.0472953082467882
  0
ARC
  5
D8A8
  8
0
 10
413.4331658979101007
 20
76.3651370569982078
 30
0.0
 40
0.125337418824236
 50
163.0545470270365911
 51
173.7734770288834056
  0
ARC
  5
D8A9
  8
0
 10
413.766161727465601
 20
76.3158909998737158
 30
0.0
 40
0.4618885404696613
 50
172.1806391416253916
 51
175.0191761411994946
  0
LINE
  5
D8AA
  8
0
 10
413.362057435099473
 20
76.2877788164915813
 30
0.0
 11
413.3138168870970048
 21
76.2991877561273384
 31
0.0
  0
ARC
  5
D8AB
  8
0
 10
413.3178111982740006
 20
76.3113642112649444
 30
0.0
 40
0.0128148578414703
 50
185.7063627148540945
 51
251.8386662076397045
  0
ARC
  5
D8AC
  8
0
 10
413.4295415163761049
 20
76.3247113062106308
 30
0.0
 40
0.125337418824236
 50
175.9801809942181023
 51
186.699110996065599
  0
ARC
  5
D8AD
  8
0
 10
413.7659866712842813
 20
76.3139384522472568
 30
0.0
 40
0.4618885404696613
 50
174.7344818819013028
 51
177.5730188814764858
  0
LINE
  5
D8AE
  8
0
 10
413.362057435099473
 20
76.4371739484301855
 30
0.0
 11
413.279821164902728
 21
76.4325352866058125
 31
0.0
  0
ARC
  5
D8AF
  8
0
 10
413.2816231941253022
 20
76.4198477623328216
 30
0.0
 40
0.0128148578414703
 50
98.0837422236365484
 51
164.2160457164214051
  0
ARC
  5
D8B0
  8
0
 10
413.3892942053307138
 20
76.3871558325532618
 30
0.0
 40
0.125337418824236
 50
163.2232974352104122
 51
173.9422274370577099
  0
ARC
  5
D8B1
  8
0
 10
413.7224336323528746
 20
76.3388907436489461
 30
0.0
 40
0.4618885404696613
 50
172.3493895497994117
 51
175.1879265493739979
  0
LINE
  5
D8B2
  8
0
 10
413.3047740910786843
 20
76.3127715347660569
 30
0.0
 11
413.2701399490767926
 21
76.3208553055266066
 31
0.0
  0
LINE
  5
D8B3
  8
0
 10
413.2701399490767926
 20
76.3208553055266066
 30
0.0
 11
413.2704052624342808
 21
76.3208604549173799
 31
0.0
  0
ARC
  5
D8B4
  8
0
 10
413.2740983802739265
 20
76.3330434720808597
 30
0.0
 40
0.0128148578414703
 50
185.8751131230281999
 51
252.007416615813213
  0
ARC
  5
D8B5
  8
0
 10
413.3857889032964863
 20
76.3467195824069762
 30
0.0
 40
0.125337418824236
 50
176.1489314023928046
 51
186.8678614042395054
  0
ARC
  5
D8B6
  8
0
 10
413.7222643276638223
 20
76.3369376889076534
 30
0.0
 40
0.4618885404696613
 50
174.9032322900758913
 51
177.7417692896499943
  0
LINE
  5
D8B7
  8
0
 10
413.362057435099473
 20
76.5011457184935324
 30
0.0
 11
413.2802065121655914
 21
76.4972445083006676
 31
0.0
  0
LINE
  5
D8B8
  8
0
 10
413.2802065121655914
 20
76.4972445083006676
 30
0.0
 11
413.2804665294036113
 21
76.4971915108493761
 31
0.0
  0
ARC
  5
D8B9
  8
0
 10
413.2818978331122821
 20
76.4845417521055708
 30
0.0
 40
0.0128148578414703
 50
97.5840961662352271
 51
163.7163996590217039
  0
ARC
  5
D8BA
  8
0
 10
413.3892796649976162
 20
76.4509121355798129
 30
0.0
 40
0.125337418824236
 50
162.7236513778100004
 51
173.4425813796576961
  0
ARC
  5
D8BB
  8
0
 10
413.7219855361764758
 20
76.3997437867038656
 30
0.0
 40
0.4618885404696613
 50
171.8497434923997957
 51
174.6882804919744103
  0
ARC
  5
D8BC
  8
0
 10
413.3763136379491812
 20
76.4107736997506919
 30
0.0
 40
0.1162360492791018
 50
175.4392886774002989
 51
183.0696778598394019
  0
ARC
  5
D8BD
  8
0
 10
413.7217992065877752
 20
76.3977922826212108
 30
0.0
 40
0.4618885404696613
 50
174.4035862326761901
 51
177.2421232322508899
  0
LINE
  5
D8BE
  8
0
 10
413.2602443699485093
 20
76.4045492176203282
 30
0.0
 11
413.2610367262794853
 21
76.3981204130293037
 31
0.0
  0
LINE
  5
D8BF
  8
0
 10
413.2610367262794853
 20
76.3981204130293037
 30
0.0
 11
413.2622224286042183
 21
76.3963450136271405
 31
0.0
  0
LINE
  5
D8C0
  8
0
 10
413.2622224286042183
 20
76.3963450136271405
 30
0.0
 11
413.2642974658089088
 21
76.3976468218159823
 31
0.0
  0
LINE
  5
D8C1
  8
0
 10
413.362057435099473
 20
76.643288148033605
 30
0.0
 11
413.3253896645035184
 21
76.6426917811369748
 31
0.0
  0
LINE
  5
D8C2
  8
0
 10
413.3253896645035184
 20
76.6426917811369748
 30
0.0
 11
413.3256478919403776
 21
76.6426306559804829
 31
0.0
  0
ARC
  5
D8C3
  8
0
 10
413.3266818133565721
 20
76.6299422347592127
 30
0.0
 40
0.0128148578414703
 50
95.787087713824576
 51
161.9193912066114081
  0
ARC
  5
D8C4
  8
0
 10
413.4329562579870867
 20
76.5929618163570751
 30
0.0
 40
0.125337418824236
 50
160.9266429254005004
 51
171.6455729272477981
  0
ARC
  5
D8C5
  8
0
 10
413.7638939377217753
 20
76.5313854509607268
 30
0.0
 40
0.4618885404696613
 50
170.0527350399896136
 51
172.8912720395640861
  0
LINE
  5
D8C6
  8
0
 10
413.362057435099473
 20
76.5174598595538527
 30
0.0
 11
413.3112408231403947
 21
76.53148946820329
 31
0.0
  0
LINE
  5
D8C7
  8
0
 10
413.3112408231403947
 20
76.53148946820329
 30
0.0
 11
413.3115061297352781
 21
76.5314839814362529
 31
0.0
  0
ARC
  5
D8C8
  8
0
 10
413.3156844965542973
 20
76.5435092164572239
 30
0.0
 40
0.0128148578414703
 50
183.5784586132180891
 51
249.7107621060031875
  0
ARC
  5
D8C9
  8
0
 10
413.4278333515977124
 20
76.5526985167112599
 30
0.0
 40
0.125337418824236
 50
173.8522768925824948
 51
184.5712068944295936
  0
ARC
  5
D8CA
  8
0
 10
413.7636465033880881
 20
76.529440749659571
 30
0.0
 40
0.4618885404696613
 50
172.60657778026561
 51
175.4451147798405941
  0
LINE
  5
D8CB
  8
0
 10
413.362057435099473
 20
76.8068449973172136
 30
0.0
 11
413.326426263843473
 21
76.8066529460516563
 31
0.0
  0
ARC
  5
D8CC
  8
0
 10
413.3275797170416013
 20
76.7938901043924886
 30
0.0
 40
0.0128148578414703
 50
95.1641278111784459
 51
161.2964313039641979
  0
ARC
  5
D8CD
  8
0
 10
413.4334458109580055
 20
76.7557564042628115
 30
0.0
 40
0.125337418824236
 50
160.3036830227524092
 51
171.0226130245999059
  0
ARC
  5
D8CE
  8
0
 10
413.7636944416373126
 20
76.6905855627916537
 30
0.0
 40
0.4618885404696613
 50
169.4297751373416077
 51
172.2683121369157107
  0
LINE
  5
D8CF
  8
0
 10
413.362057435099473
 20
76.6809355961893004
 30
0.0
 11
413.3110692130563848
 21
76.6956110390757431
 31
0.0
  0
ARC
  5
D8D0
  8
0
 10
413.3156433083759111
 20
76.7075817630933443
 30
0.0
 40
0.0128148578414703
 50
182.9554987105703958
 51
249.0878022033562047
  0
ARC
  5
D8D1
  8
0
 10
413.4278854451598022
 20
76.7155511832034165
 30
0.0
 40
0.125337418824236
 50
173.229316989934091
 51
183.9482469917807919
  0
ARC
  5
D8D2
  8
0
 10
413.7634258781886842
 20
76.6886436666630402
 30
0.0
 40
0.4618885404696613
 50
171.9836178776174052
 51
174.822154877192304
  0
LINE
  5
D8D3
  8
0
 10
413.362057435099473
 20
76.8913852302077601
 30
0.0
 11
413.3270403885841802
 21
76.891412601694725
 31
0.0
  0
ARC
  5
D8D4
  8
0
 10
413.3281150533096024
 20
76.8786428845003229
 30
0.0
 40
0.0128148578414703
 50
94.8105218402102707
 51
160.9428253329961933
  0
ARC
  5
D8D5
  8
0
 10
413.4337437870826761
 20
76.8398565527814554
 30
0.0
 40
0.125337418824236
 50
159.9500770517846036
 51
170.6690070536317876
  0
ARC
  5
D8D6
  8
0
 10
413.763583923384715
 20
76.7726488067405626
 30
0.0
 40
0.4618885404696613
 50
169.0761691663743136
 51
171.9147061659485018
  0
ARC
  5
D8D7
  8
0
 10
413.3156462006915035
 20
76.7924098421767383
 30
0.0
 40
0.0128148422743619
 50
182.6018474256603952
 51
247.4204324425109007
  0
ARC
  5
D8D8
  8
0
 10
413.4279353986744923
 20
76.7996864134694874
 30
0.0
 40
0.125337418824236
 50
172.875711018966598
 51
183.5946410208136115
  0
ARC
  5
D8D9
  8
0
 10
413.7633033805431069
 20
76.7707086050463516
 30
0.0
 40
0.4618885404696613
 50
171.63001190665031
 51
174.4685489062246972
  0
LINE
  5
D8DA
  8
0
 10
413.362057435099473
 20
75.345460093661373
 30
0.0
 11
413.2485883213053057
 21
75.3614862618536563
 31
0.0
  0
ARC
  5
D8DB
  8
0
 10
413.2514480371214063
 20
75.3739779633770013
 30
0.0
 40
0.0128148578414703
 50
190.9732129259710973
 51
257.1055164187578157
  0
ARC
  5
D8DC
  8
0
 10
413.3614814374464004
 20
75.3975249321764238
 30
0.0
 40
0.1253374188242361
 50
181.2470312053353041
 51
191.9659612071820902
  0
ARC
  5
D8DD
  8
0
 10
413.6974950008291785
 20
75.4176813670393074
 30
0.0
 40
0.4618885404696614
 50
180.0013320930183056
 51
182.8398690925930907
  0
LINE
  5
D8DE
  8
0
 10
413.362057435099473
 20
75.4902328897433108
 30
0.0
 11
413.2483072141500884
 21
75.4735847234509833
 31
0.0
  0
ARC
  5
D8DF
  8
0
 10
413.2512295440051844
 20
75.4611075214523339
 30
0.0
 40
0.0128148578414703
 50
103.1818420265775984
 51
169.3141455193643026
  0
ARC
  5
D8E0
  8
0
 10
413.3613796562754032
 20
75.4381127026108231
 30
0.0
 40
0.1253374188242361
 50
168.3213972381537076
 51
179.0403272400000958
  0
ARC
  5
D8E1
  8
0
 10
413.6974900848392735
 20
75.419641740150027
 30
0.0
 40
0.4618885404696614
 50
177.4474893527427923
 51
180.2860263523164974
  0
LINE
  5
D8E2
  8
0
 10
413.362057435099473
 20
75.3626370021789995
 30
0.0
 11
413.3159367488178191
 21
75.3691510027803986
 31
0.0
  0
ARC
  5
D8E3
  8
0
 10
413.3187964646339765
 20
75.3816427043037294
 30
0.0
 40
0.0128148578414703
 50
190.9732129259710973
 51
257.1055164187578157
  0
ARC
  5
D8E4
  8
0
 10
413.4288298649588
 20
75.4051896731031519
 30
0.0
 40
0.1253374188242361
 50
181.2470312053353041
 51
191.9659612071820902
  0
ARC
  5
D8E5
  8
0
 10
413.7648434283415781
 20
75.4253461079660354
 30
0.0
 40
0.4618885404696614
 50
180.0013320930183056
 51
182.8398690925930907
  0
ARC
  5
D8E6
  8
0
 10
413.3246128006387039
 20
75.4656682605409799
 30
0.0
 40
0.0194168654791841
 50
111.7912304847556015
 51
163.6061575017745042
  0
ARC
  5
D8E7
  8
0
 10
413.4287280837879166
 20
75.4457774435375654
 30
0.0
 40
0.1253374188242361
 50
168.3213972381537076
 51
179.0403272400000958
  0
ARC
  5
D8E8
  8
0
 10
413.7648385123516732
 20
75.4273064810767693
 30
0.0
 40
0.4618885404696614
 50
177.4474893527427923
 51
180.2860263523164974
  0
LINE
  5
D8E9
  8
0
 10
413.362057435099473
 20
75.197376988859844
 30
0.0
 11
413.2770823421233786
 21
75.2072275692599703
 31
0.0
  0
ARC
  5
D8EA
  8
0
 10
413.279630134408194
 20
75.2197866032980755
 30
0.0
 40
0.0128148578414703
 50
192.399995646193986
 51
258.5322991389811023
  0
ARC
  5
D8EB
  8
0
 10
413.3890431126187082
 20
75.246066046325609
 30
0.0
 40
0.125337418824236
 50
182.673813925557198
 51
193.3927439274048936
  0
ARC
  5
D8EC
  8
0
 10
413.7244506134974813
 20
75.2745827957516696
 30
0.0
 40
0.4618885404696613
 50
181.4281148132415069
 51
184.266651812815212
  0
LINE
  5
D8ED
  8
0
 10
413.362057435099473
 20
75.3344188185722032
 30
0.0
 11
413.2740101284309731
 21
75.319284276407501
 31
0.0
  0
ARC
  5
D8EE
  8
0
 10
413.2772422281202012
 20
75.3068837073440847
 30
0.0
 40
0.0128148578414703
 50
104.6086247467992933
 51
170.7409282395867081
  0
ARC
  5
D8EF
  8
0
 10
413.3879307485210006
 20
75.286638698621914
 30
0.0
 40
0.125337418824236
 50
169.7481799583756867
 51
180.4671099602227002
  0
ARC
  5
D8F0
  8
0
 10
413.724396886755585
 20
75.2765424386623607
 30
0.0
 40
0.4618885404696613
 50
178.8742720729653115
 51
181.7128090725398124
  0
LINE
  5
D8F1
  8
0
 10
413.362057435099473
 20
75.0478101922750227
 30
0.0
 11
413.3197418510097236
 21
75.0527155480523049
 31
0.0
  0
ARC
  5
D8F2
  8
0
 10
413.3222896432945959
 20
75.0652745820904101
 30
0.0
 40
0.0128148578414703
 50
192.399995646193986
 51
258.5322991389811023
  0
ARC
  5
D8F3
  8
0
 10
413.4317026215049964
 20
75.0915540251179436
 30
0.0
 40
0.125337418824236
 50
182.673813925557198
 51
193.3927439274048936
  0
ARC
  5
D8F4
  8
0
 10
413.7671101223838832
 20
75.1200707745440042
 30
0.0
 40
0.4618885404696613
 50
181.4281148132415069
 51
184.266651812815212
  0
LINE
  5
D8F5
  8
0
 10
413.362057435099473
 20
75.1725740104753726
 30
0.0
 11
413.3166696373173181
 21
75.1647722551998356
 31
0.0
  0
ARC
  5
D8F6
  8
0
 10
413.3199017370064894
 20
75.1523716861364335
 30
0.0
 40
0.0128148578414703
 50
104.6086247467992933
 51
170.7409282395867081
  0
ARC
  5
D8F7
  8
0
 10
413.4305902574074025
 20
75.1321266774142487
 30
0.0
 40
0.125337418824236
 50
169.7481799583756867
 51
180.4671099602227002
  0
ARC
  5
D8F8
  8
0
 10
413.7670563956419869
 20
75.1220304174546953
 30
0.0
 40
0.4618885404696613
 50
178.8742720729653115
 51
181.7128090725398124
  0
LINE
  5
D8F9
  8
0
 10
413.3052395549024141
 20
75.1138922710717623
 30
0.0
 11
413.2525830334836883
 21
75.1199963808721662
 31
0.0
  0
ARC
  5
D8FA
  8
0
 10
413.2551308257686173
 20
75.1325554149102715
 30
0.0
 40
0.0128148578414703
 50
192.399995646193986
 51
258.5322991389811023
  0
ARC
  5
D8FB
  8
0
 10
413.3645438039790179
 20
75.1588348579378049
 30
0.0
 40
0.125337418824236
 50
182.673813925557198
 51
193.3927439274048936
  0
ARC
  5
D8FC
  8
0
 10
413.699951304857791
 20
75.1873516073638655
 30
0.0
 40
0.4618885404696613
 50
181.4281148132415069
 51
184.266651812815212
  0
LINE
  5
D8FD
  8
0
 10
413.2642327632220258
 20
75.234583658028356
 30
0.0
 11
413.2495108197912828
 21
75.2320530880196969
 31
0.0
  0
ARC
  5
D8FE
  8
0
 10
413.2527429194805109
 20
75.2196525189562948
 30
0.0
 40
0.0128148578414703
 50
104.6086247467992933
 51
170.7409282395867081
  0
ARC
  5
D8FF
  8
0
 10
413.363431439881424
 20
75.1994075102341242
 30
0.0
 40
0.125337418824236
 50
169.7481799583756867
 51
180.4671099602227002
  0
ARC
  5
D900
  8
0
 10
413.6998975781158947
 20
75.1893112502745566
 30
0.0
 40
0.4618885404696613
 50
178.8742720729653115
 51
181.7128090725398124
  0
LINE
  5
D901
  8
0
 10
413.362057435099473
 20
74.9230852401650651
 30
0.0
 11
413.2766500738084119
 21
74.9313192821217768
 31
0.0
  0
ARC
  5
D902
  8
0
 10
413.278955067313575
 20
74.94392513736598
 30
0.0
 40
0.0128148578414703
 50
193.5055768026618068
 51
259.6378802954467915
  0
ARC
  5
D903
  8
0
 10
413.3878406194269814
 20
74.9723107933856738
 30
0.0
 40
0.125337418824236
 50
183.7793950820253031
 51
194.4983250838726008
  0
ARC
  5
D904
  8
0
 10
413.7226354540173929
 20
75.0072938660812838
 30
0.0
 40
0.4618885404696613
 50
182.5336959697091004
 51
185.3722329692836013
  0
LINE
  5
D905
  8
0
 10
413.3202280063781018
 20
75.0526591913909016
 30
0.0
 11
413.2714163164940828
 21
75.0432958506443555
 31
0.0
  0
ARC
  5
D906
  8
0
 10
413.2748870814075985
 20
75.0309599529302886
 30
0.0
 40
0.0128148578414703
 50
105.7142059032687058
 51
171.8465093960541878
  0
ARC
  5
D907
  8
0
 10
413.3859456198226212
 20
75.0128544296895541
 30
0.0
 40
0.125337418824236
 50
170.8537611148435076
 51
181.5726911166908053
  0
ARC
  5
D908
  8
0
 10
413.7213369752645917
 20
75.0092375825905009
 30
0.0
 40
0.4606815948658425
 50
179.9779939541371903
 51
182.782343015763189
  0
LINE
  5
D909
  8
0
 10
413.3620574350995867
 20
74.765038651131249
 30
0.0
 11
413.3238269859481875
 21
74.7670821596714035
 31
0.0
  0
ARC
  5
D90A
  8
0
 10
413.3255916394751921
 20
74.7797749363348032
 30
0.0
 40
0.0128148578414703
 50
195.9527046917540076
 51
262.0850081845399018
  0
ARC
  5
D90B
  8
0
 10
413.4331658979101007
 20
74.8127838419341771
 30
0.0
 40
0.125337418824236
 50
186.2265229711173049
 51
196.9454529729648868
  0
ARC
  5
D90C
  8
0
 10
413.766161727465601
 20
74.8620298990586832
 30
0.0
 40
0.4618885404696613
 50
184.9808238588011875
 51
187.8193608583762
  0
ARC
  5
D90D
  8
0
 10
413.44772474313271
 20
74.8954325825903311
 30
0.0
 40
0.0862386680125677
 50
173.4009474097287864
 51
183.5812329920721027
  0
LINE
  5
D90E
  8
0
 10
413.362057435099473
 20
74.8901420824408035
 30
0.0
 11
413.3138168870970048
 21
74.8787331428050322
 31
0.0
  0
ARC
  5
D90F
  8
0
 10
413.3178111982740006
 20
74.8665566876674404
 30
0.0
 40
0.0128148578414703
 50
108.161333792360594
 51
174.2936372851474118
  0
ARC
  5
D910
  8
0
 10
413.4295415163761049
 20
74.853209592721754
 30
0.0
 40
0.125337418824236
 50
173.3008890039359926
 51
184.0198190057826935
  0
ARC
  5
D911
  8
0
 10
413.7659866712842813
 20
74.863982446685128
 30
0.0
 40
0.4618885404696613
 50
182.4269811185251058
 51
185.2655181180994077
  0
LINE
  5
D912
  8
0
 10
413.362057435099473
 20
74.7407469505021851
 30
0.0
 11
413.279821164902728
 21
74.7453856123265723
 31
0.0
  0
ARC
  5
D913
  8
0
 10
413.2816231941253022
 20
74.7580731365995632
 30
0.0
 40
0.0128148578414703
 50
195.7839542835801865
 51
261.9162577763667059
  0
ARC
  5
D914
  8
0
 10
413.3892942053307138
 20
74.790765066379123
 30
0.0
 40
0.125337418824236
 50
186.0577725629439101
 51
196.7767025647912078
  0
ARC
  5
D915
  8
0
 10
413.7224336323528746
 20
74.8390301552834387
 30
0.0
 40
0.4618885404696613
 50
184.8120734506275937
 51
187.6506104502014125
  0
LINE
  5
D916
  8
0
 10
413.3047740910786843
 20
74.8651493641663137
 30
0.0
 11
413.2701399490767926
 21
74.857065593405764
 31
0.0
  0
ARC
  5
D917
  8
0
 10
413.2740983802739834
 20
74.8448774268515251
 30
0.0
 40
0.0128148578414703
 50
107.9925833841870002
 51
174.1248868769725107
  0
ARC
  5
D918
  8
0
 10
413.3857889032966
 20
74.8312013165253944
 30
0.0
 40
0.125337418824236
 50
173.1321385957620862
 51
183.8510685976087018
  0
ARC
  5
D919
  8
0
 10
413.7222643276638792
 20
74.8409832100247314
 30
0.0
 40
0.4618885404696613
 50
182.2582307103506878
 51
185.0967677099257003
  0
LINE
  5
D91A
  8
0
 10
413.362057435099473
 20
74.6767751804388524
 30
0.0
 11
413.2802065121655914
 21
74.680676390631703
 31
0.0
  0
ARC
  5
D91B
  8
0
 10
413.2818978331122821
 20
74.693379146826814
 30
0.0
 40
0.0128148578414703
 50
196.2836003409798025
 51
262.4159038337647871
  0
ARC
  5
D91C
  8
0
 10
413.3892796649976162
 20
74.7270087633525577
 30
0.0
 40
0.125337418824236
 50
186.5574186203438103
 51
197.2763486221907101
  0
ARC
  5
D91D
  8
0
 10
413.7207886615084931
 20
74.778020802381576
 30
0.0
 40
0.4606815948739563
 50
185.3477667213010136
 51
188.1521157828786954
  0
ARC
  5
D91E
  8
0
 10
413.3763136379492948
 20
74.7671471991816929
 30
0.0
 40
0.1162360492791018
 50
176.9303221401613939
 51
184.5607113226012927
  0
ARC
  5
D91F
  8
0
 10
413.7217992065878889
 20
74.780128616311174
 30
0.0
 40
0.4618885404696613
 50
182.7578767677507017
 51
185.5964137673254015
  0
LINE
  5
D920
  8
0
 10
413.260244369948623
 20
74.7733716813120566
 30
0.0
 11
413.2610367262794853
 21
74.7798004859030812
 31
0.0
  0
LINE
  5
D921
  8
0
 10
413.2610367262794853
 20
74.7798004859030812
 30
0.0
 11
413.2622224286042183
 21
74.7815758853052444
 31
0.0
  0
LINE
  5
D922
  8
0
 10
413.2622224286042183
 20
74.7815758853052444
 30
0.0
 11
413.2642974658089088
 21
74.7802740771164025
 31
0.0
  0
LINE
  5
D923
  8
0
 10
413.3620574350995867
 20
74.5346327508987656
 30
0.0
 11
413.3253896645035184
 21
74.53522911779541
 31
0.0
  0
ARC
  5
D924
  8
0
 10
413.3266818133565721
 20
74.5479786641731437
 30
0.0
 40
0.0128148578414703
 50
198.0806087933900983
 51
264.212912286175424
  0
ARC
  5
D925
  8
0
 10
413.4329562579870867
 20
74.5849590825753097
 30
0.0
 40
0.125337418824236
 50
188.3544270727537082
 51
199.0733570746002101
  0
ARC
  5
D926
  8
0
 10
413.7638939377217753
 20
74.6465354479716723
 30
0.0
 40
0.4618885404696613
 50
187.1087279604373919
 51
189.9472649600118928
  0
LINE
  5
D927
  8
0
 10
413.3620574350995867
 20
74.6604610393785322
 30
0.0
 11
413.3112408231403947
 21
74.6464314307290948
 31
0.0
  0
ARC
  5
D928
  8
0
 10
413.3156844965542973
 20
74.6344116824751609
 30
0.0
 40
0.0128148578414703
 50
110.2892378939970968
 51
176.4215413867835025
  0
ARC
  5
D929
  8
0
 10
413.4278333515977124
 20
74.6252223822211249
 30
0.0
 40
0.125337418824236
 50
175.428793105571998
 51
186.1477231074190968
  0
ARC
  5
D92A
  8
0
 10
413.7636465033880881
 20
74.6484801492728138
 30
0.0
 40
0.4618885404696613
 50
184.5548852201611965
 51
187.39342221973601
  0
LINE
  5
D92B
  8
0
 10
413.3620574350995867
 20
74.371075901615157
 30
0.0
 11
413.326426263843473
 21
74.3712679528807143
 31
0.0
  0
ARC
  5
D92C
  8
0
 10
413.3275797170416013
 20
74.384030794539882
 30
0.0
 40
0.0128148578414703
 50
198.7035686960383032
 51
264.8358721888247942
  0
ARC
  5
D92D
  8
0
 10
413.4334458109580055
 20
74.4221644946695733
 30
0.0
 40
0.125337418824236
 50
188.9773869754016005
 51
199.6963169772490971
  0
ARC
  5
D92E
  8
0
 10
413.7636944416374263
 20
74.4873353361407453
 30
0.0
 40
0.4618885404696613
 50
187.7316878630849999
 51
190.5702248626600124
  0
LINE
  5
D92F
  8
0
 10
413.3620574350995867
 20
74.4969853027430844
 30
0.0
 11
413.3110692130563848
 21
74.4823098598566276
 31
0.0
  0
ARC
  5
D930
  8
0
 10
413.3156433083759111
 20
74.4703391358390405
 30
0.0
 40
0.0128148578414703
 50
110.9121977966436958
 51
177.0445012894313095
  0
ARC
  5
D931
  8
0
 10
413.4278854451598022
 20
74.4623697157289541
 30
0.0
 40
0.125337418824236
 50
176.0517530082200039
 51
186.7706830100673869
  0
ARC
  5
D932
  8
0
 10
413.7634258781886842
 20
74.4892772322693446
 30
0.0
 40
0.4618885404696613
 50
185.1778451228092877
 51
188.0163821223833054
  0
LINE
  5
D933
  8
0
 10
413.3620574350995867
 20
74.2865356687246248
 30
0.0
 11
413.3270403885842939
 21
74.2865082972376456
 31
0.0
  0
ARC
  5
D934
  8
0
 10
413.3281150533097161
 20
74.2992780144320477
 30
0.0
 40
0.0128148578414703
 50
199.057174667005313
 51
265.1894781597928841
  0
ARC
  5
D935
  8
0
 10
413.4337437870826761
 20
74.3380643461509152
 30
0.0
 40
0.125337418824236
 50
189.3309929463696903
 51
200.049922948216107
  0
ARC
  5
D936
  8
0
 10
413.7635839233847719
 20
74.4052720921918223
 30
0.0
 40
0.4618885404696613
 50
188.0852938340530045
 51
190.9238308336279033
  0
ARC
  5
D937
  8
0
 10
413.3156462006915035
 20
74.3855110567556466
 30
0.0
 40
0.0128148422743619
 50
112.5795675574923962
 51
177.3981525743404006
  0
ARC
  5
D938
  8
0
 10
413.4279353986744923
 20
74.3782344854628832
 30
0.0
 40
0.125337418824236
 50
176.4053589791878949
 51
187.1242889810349936
  0
ARC
  5
D939
  8
0
 10
413.7633033805431069
 20
74.4072122938860332
 30
0.0
 40
0.4618885404696613
 50
185.5314510937768091
 51
188.3699880933511963
  0
ARC
  5
D93A
  8
0
 10
413.812824694062499
 20
74.1794541189010488
 30
0.0
 40
0.8816003222045132
 50
273.6410843448853143
 51
288.9075629429624996
  0
ARC
  5
D93B
  8
0
 10
414.1005082101194716
 20
73.3344714523417593
 30
0.0
 40
0.0111337311194257
 50
50.9178367371254978
 51
100.3888610317955994
  0
ARC
  5
D93C
  8
0
 10
413.6788296132011737
 20
73.7358211394766556
 30
0.0
 40
0.0700036531023736
 50
180.0002600359862868
 51
206.5529410746833889
  0
ARC
  5
D93D
  8
0
 10
413.3007503097563244
 20
73.5536305575900542
 30
0.0
 40
0.3497189849398341
 50
357.3688075877890924
 51
25.5596186441217696
  0
ARC
  5
D93E
  8
0
 10
409.6292288183748269
 20
73.4006552300056399
 30
0.0
 40
4.0232023512749144
 50
359.1504619151024826
 51
1.9503123597418881
  0
ARC
  5
D93F
  8
0
 10
413.8814138737757276
 20
73.8782685565714843
 30
0.0
 40
0.2746017565417094
 50
92.6304021733182736
 51
173.0567222646461119
  0
LINE
  5
D940
  8
0
 10
414.1284404886994821
 20
73.7358202774661891
 30
0.0
 11
414.1284404886994821
 21
73.9114642492661886
 31
0.0
  0
ARC
  5
D941
  8
0
 10
414.0584368355978881
 20
73.7358211394766556
 30
0.0
 40
0.0700036531023736
 50
333.4470589253165258
 51
359.9997399640129174
  0
ARC
  5
D942
  8
0
 10
414.4365161390426806
 20
73.5536305575900542
 30
0.0
 40
0.3497189849398341
 50
154.4403813558782019
 51
182.6311924122109076
  0
ARC
  5
D943
  8
0
 10
418.1080376304242918
 20
73.4006552300056399
 30
0.0
 40
4.0232023512749144
 50
178.0496876402580995
 51
180.8495380848974889
  0
ARC
  5
D944
  8
0
 10
413.8440249336217107
 20
73.8655517313026735
 30
0.0
 40
0.2880974961293076
 50
9.1700123796674866
 51
85.0644242247600744
  0
ARC
  5
DB9F
  8
0
 10
413.8687971612390015
 20
73.0790019677661888
 30
0.0
 40
0.356
 50
132.107229201601001
 51
141.8180713197002945
  0
LINE
  5
DBA0
  8
0
 10
413.8688115606693145
 20
67.5133628342855019
 30
0.0
 11
413.508811701669174
 21
67.5133628342855019
 31
0.0
  0
LINE
  5
DBA1
  8
0
 10
414.3246094414679987
 20
67.8633628342854962
 30
0.0
 11
413.4130136798693229
 21
67.8633628342854962
 31
0.0
  0
LINE
  5
DBA2
  8
0
 10
413.3880153681691922
 20
67.8875367899855036
 30
0.0
 11
414.3496077531586934
 21
67.8875367899855036
 31
0.0
  0
LINE
  5
DBA3
  8
0
 10
413.508811701669174
 20
67.8433628342855002
 30
0.0
 11
413.5087971612389879
 21
67.788001967766192
 31
0.0
  0
LINE
  5
DBA4
  8
0
 10
413.8688115606693145
 20
72.6293628342855015
 30
0.0
 11
413.3588117016691967
 21
72.6293628342855015
 31
0.0
  0
LINE
  5
DBA5
  8
0
 10
413.3438117016693241
 20
72.6443628342855021
 30
0.0
 11
413.3438117016693241
 21
72.7135780636855031
 31
0.0
  0
LINE
  5
DBA6
  8
0
 10
413.3259850329691858
 20
72.7700696890855028
 30
0.0
 11
413.3259903787692906
 21
73.0447148842854972
 31
0.0
  0
LINE
  5
DBA7
  8
0
 10
413.3188117016691763
 20
73.0577925305855018
 30
0.0
 11
413.3188117016691763
 21
72.7569441640854961
 31
0.0
  0
LINE
  5
DBA8
  8
0
 10
413.3762055099692816
 20
73.1112973788854958
 30
0.0
 11
413.8688115606693145
 21
73.111297357845487
 31
0.0
  0
LINE
  5
DBA9
  8
0
 10
413.8688115606693145
 20
73.299078041485501
 30
0.0
 11
413.5078117016693113
 21
73.299078041485501
 31
0.0
  0
LINE
  5
DBAA
  8
0
 10
413.3623571102692722
 20
73.0940214705855027
 30
0.0
 11
413.333273443369194
 21
73.0804595339855041
 31
0.0
  0
ARC
  5
DBAB
  8
0
 10
413.4130017224812264
 20
67.8883628365086054
 30
0.0
 40
0.0250000050826847
 50
181.8935034867571972
 51
270.0274043102161272
  0
ARC
  5
DBAC
  8
0
 10
413.4888117016693059
 20
67.8433628342855002
 30
0.0
 40
0.02
 50
0.0
 51
75.5224878141003444
  0
ARC
  5
DBAD
  8
0
 10
413.6887027414692852
 20
73.0424099323855103
 30
0.0
 40
0.32
 50
128.5913942485003929
 51
167.5684477534003065
  0
ARC
  5
DBAE
  8
0
 10
413.5078117016693113
 20
73.2690780414854999
 30
0.0
 40
0.03
 50
90.0
 51
128.5913942485003929
  0
ARC
  5
DBAF
  8
0
 10
413.3517916536692951
 20
73.1166791652855039
 30
0.0
 40
0.025
 50
294.9999999999997158
 51
347.5684477534002781
  0
ARC
  5
DBB0
  8
0
 10
413.3588117016691967
 20
72.6443628342855021
 30
0.0
 40
0.015
 50
180.0
 51
270.0
  0
ARC
  5
DBB1
  8
0
 10
306.6334010783676263
 20
64.2442683322020827
 30
0.0
 40
106.8167640271041989
 50
1.9546033099733719
 51
3.6224998318588821
  0
ARC
  5
DBB2
  8
0
 10
413.1341505846460791
 20
72.6523056934735223
 30
0.0
 40
0.2649144686472044
 50
315.156789927287889
 51
355.0316876782173949
  0
ARC
  5
DBB3
  8
0
 10
413.6537250465843272
 20
72.1856223277305702
 30
0.0
 40
0.4340283748080163
 50
139.8471831131257943
 51
175.6239336575513903
  0
ARC
  5
DBB4
  8
0
 10
415.333131788646881
 20
71.9137479417013026
 30
0.0
 40
2.1340762145747751
 50
171.7834305335202032
 51
182.6995987826911119
  0
ARC
  5
DBB5
  8
0
 10
436.5042979998893884
 20
72.4070326622979934
 30
0.0
 40
23.3104383305249314
 50
181.4596821747593083
 51
183.4772578659215867
  0
ARC
  5
DBB6
  8
0
 10
413.3446355330390816
 20
73.0572635647271653
 30
0.0
 40
0.0258292483727291
 50
116.0970150810033061
 51
178.8265384395749891
  0
ARC
  5
DBB7
  8
0
 10
413.3438118771563836
 20
72.7569474097370801
 30
0.0
 40
0.0250001756978571
 50
180.0074384332253885
 51
239.9924717772804001
  0
ARC
  5
DBB8
  8
0
 10
413.3174978991945068
 20
72.712889670450835
 30
0.0
 40
0.0263228055230727
 50
1.498575792588476
 51
58.353307043147808
  0
LINE
  5
DBB9
  8
0
 10
413.8688115606693145
 20
72.713578067085507
 30
0.0
 11
413.3438117016693241
 21
72.713578067085507
 31
0.0
  0
ARC
  5
DBBA
  8
0
 10
413.8688079763111887
 20
75.396217597400792
 30
0.0
 40
2.660920950617752
 50
268.5975226207129936
 51
270.0000771795137098
  0
ARC
  5
DBBB
  8
0
 10
413.8868875792962854
 20
74.1194132475606438
 30
0.0
 40
1.3858196627946899
 50
260.0447106323720163
 51
266.557800062790875
  0
ARC
  5
DBBC
  8
0
 10
413.4758219486931239
 20
73.4466319582981839
 30
0.0
 40
0.7131005352936849
 50
274.8585656494627756
 51
283.9148458756698119
  0
ARC
  5
DBBD
  8
0
 10
413.4901650709066985
 20
74.2122549453120541
 30
0.0
 40
1.4768794454088581
 50
268.212988594499393
 51
271.7869576554426203
  0
ARC
  5
DBBE
  8
0
 10
413.5029555366277236
 20
73.4276763590979442
 30
0.0
 40
0.694081624811961
 50
255.915731659442713
 51
265.1364940909721213
  0
ARC
  5
DBBF
  8
0
 10
413.3484471780604963
 20
72.7717874813381229
 30
0.0
 40
0.0225277334040081
 50
184.3731818391005959
 51
230.2810966024754862
  0
ARC
  5
DBC0
  8
0
 10
413.8687903774961114
 20
70.4185210791481921
 30
0.0
 40
2.660920950617752
 50
89.9995438773114245
 51
91.4020722369362062
  0
ARC
  5
DBC1
  8
0
 10
413.8868790088511105
 20
71.6953253011143232
 30
0.0
 40
1.3858196627946899
 50
93.4417947948601437
 51
99.9548842252815888
  0
ARC
  5
DBC2
  8
0
 10
413.4758181355404076
 20
72.368109497032961
 30
0.0
 40
0.7131005352936849
 50
76.0847489819797431
 51
85.1410292081881153
  0
ARC
  5
DBC3
  8
0
 10
413.4901558439814266
 20
71.6024864086170538
 30
0.0
 40
1.4768794454088581
 50
88.2126372022095353
 51
91.7866062631488546
  0
ARC
  5
DBC4
  8
0
 10
413.5029518575104817
 20
72.3870649043692822
 30
0.0
 40
0.694081624811961
 50
94.8631007666810007
 51
104.0838631982073963
  0
ARC
  5
DBC5
  8
0
 10
413.3484481367819967
 20
73.0429548746518122
 30
0.0
 40
0.0225277334040081
 50
129.7184982551752057
 51
175.6264130185508918
  0
LINE
  5
DBC6
  8
0
 10
413.6473080489365088
 20
72.7544579260927833
 30
0.0
 11
413.6473086667076018
 21
73.0602803146417585
 31
0.0
  0
LINE
  5
DBC7
  8
0
 10
413.8321004989319931
 20
67.5133628342855019
 30
0.0
 11
413.4974625210588783
 21
67.5249766439197714
 31
0.0
  0
LINE
  5
DBC8
  8
0
 10
413.8688259601003097
 20
67.788001967766192
 30
0.0
 11
413.508811701669174
 21
67.788001967766192
 31
0.0
  0
ARC
  5
DBC9
  8
0
 10
413.8694795558459987
 20
67.3927114965617449
 30
0.0
 40
0.3952910115502575
 50
90.0947360140074238
 51
113.2060190071554047
  0
LINE
  5
DBCA
  8
0
 10
413.4596774436388955
 20
67.635015470166195
 30
0.0
 11
413.5048453582389811
 21
67.6114649883062526
 31
0.0
  0
LINE
  5
DBCB
  8
0
 10
413.4596776849389812
 20
67.7064448045661891
 30
0.0
 11
413.5048453036390015
 21
67.6829156676528356
 31
0.0
  0
LINE
  5
DBCC
  8
0
 10
413.4855192283390011
 20
67.7647240347661892
 30
0.0
 11
413.5048452145389888
 21
67.7543235801661865
 31
0.0
  0
LINE
  5
DBCD
  8
0
 10
413.4592923498390178
 20
67.5639428629661865
 30
0.0
 11
413.4590971612389012
 21
67.5761000488661949
 31
0.0
  0
LINE
  5
DBCE
  8
0
 10
413.4590971612389012
 20
67.7070491689661935
 30
0.0
 11
413.4596776872389796
 21
67.706446397366193
 31
0.0
  0
LINE
  5
DBCF
  8
0
 10
413.4590971612389012
 20
67.6356200351661982
 30
0.0
 11
413.4596774427388937
 21
67.6350149058661856
 31
0.0
  0
LINE
  5
DBD0
  8
0
 10
413.4590971612389012
 20
67.7189586730661972
 30
0.0
 11
413.4590971612389012
 21
67.7070495339661846
 31
0.0
  0
LINE
  5
DBD1
  8
0
 10
413.4590971612389012
 20
67.6475295046661955
 30
0.0
 11
413.4590971612389012
 21
67.6356201309661884
 31
0.0
  0
LINE
  5
DBD2
  8
0
 10
413.5048452145389888
 20
67.7543235801661865
 30
0.0
 11
413.5048452447389877
 21
67.7431141877661958
 31
0.0
  0
LINE
  5
DBD3
  8
0
 10
413.5048453036390015
 20
67.6829156676528356
 30
0.0
 11
413.5048453036390015
 21
67.6716851163661914
 31
0.0
  0
LINE
  5
DBD4
  8
0
 10
413.5048453582389811
 20
67.6114649883062526
 30
0.0
 11
413.5048453582389811
 21
67.6002559249661914
 31
0.0
  0
LINE
  5
DBD5
  8
0
 10
413.6899876001547227
 20
67.6240144930661842
 30
0.0
 11
413.6899876001547227
 21
67.612104958666194
 31
0.0
  0
LINE
  5
DBD6
  8
0
 10
413.8320854811547065
 20
67.7351292717661977
 30
0.0
 11
413.8320854811547065
 21
67.723239508066186
 31
0.0
  0
LINE
  5
DBD7
  8
0
 10
413.8320854811547065
 20
67.6637001379661882
 30
0.0
 11
413.8320854811547065
 21
67.6518103741661889
 31
0.0
  0
LINE
  5
DBD8
  8
0
 10
413.8320854811547065
 20
67.5922710040661912
 30
0.0
 11
413.8320854811547065
 21
67.5803812402661919
 31
0.0
  0
LINE
  5
DBD9
  8
0
 10
413.8320854811547065
 20
67.5208414016661891
 30
0.0
 11
413.8321004989319931
 21
67.5133628342855019
 31
0.0
  0
LINE
  5
DBDA
  8
0
 10
413.4590971612389012
 20
67.7189587034661855
 30
0.0
 11
413.4596781335390006
 21
67.7195641928661871
 31
0.0
  0
LINE
  5
DBDB
  8
0
 10
413.4590971612389012
 20
67.6475273135661865
 30
0.0
 11
413.4596781608390188
 21
67.6481338558661918
 31
0.0
  0
LINE
  5
DBDC
  8
0
 10
413.5087971612389879
 20
67.788001967766192
 30
0.0
 11
413.4855192283390011
 21
67.7647240347661892
 31
0.0
  0
LINE
  5
DBDD
  8
0
 10
413.5048452145389888
 20
67.7431142180084009
 30
0.0
 11
413.4596781335390006
 21
67.7195641349661912
 31
0.0
  0
LINE
  5
DBDE
  8
0
 10
413.5048453036390015
 20
67.6716851623246072
 30
0.0
 11
413.4596781590389014
 21
67.6481350508661734
 31
0.0
  0
LINE
  5
DBDF
  8
0
 10
413.5048453582389811
 20
67.6002559249661914
 30
0.0
 11
413.4590971612389012
 21
67.5761004357661932
 31
0.0
  0
LINE
  5
DBE0
  8
0
 10
413.4591947555389879
 20
67.5700214559161907
 30
0.0
 11
413.7038373129241222
 21
67.5562739602485181
 31
0.0
  0
LINE
  5
DBE1
  8
0
 10
413.5048453582389811
 20
67.605860456636222
 30
0.0
 11
413.6899876001547227
 21
67.6180597258661891
 31
0.0
  0
LINE
  5
DBE2
  8
0
 10
413.5048453036390015
 20
67.6773003920095135
 30
0.0
 11
413.6899876001547227
 21
67.6894888597161923
 31
0.0
  0
LINE
  5
DBE3
  8
0
 10
413.5048452145389888
 20
67.7485485531661737
 30
0.0
 11
413.7150876417546783
 21
67.7496734072661866
 31
0.0
  0
ARC
  5
DBE4
  8
0
 10
413.8809489794959973
 20
68.606085047508742
 30
0.0
 40
0.8723249858282388
 50
259.0392150521947201
 51
266.788883327388703
  0
ARC
  5
DBE5
  8
0
 10
413.9539927681203153
 20
66.7229122825932848
 30
0.0
 40
1.0077281104049121
 50
96.9482260273623808
 51
105.1876136841143961
  0
ARC
  5
DBE6
  8
0
 10
413.8801239306151842
 20
68.5268037940101067
 30
0.0
 40
0.8644394794911626
 50
257.2937089341165802
 51
266.8143298431047015
  0
ARC
  5
DBE7
  8
0
 10
413.9559797576708888
 20
66.6413252790782735
 30
0.0
 40
1.0180520218280991
 50
96.9900740588325334
 51
105.1457654713516945
  0
ARC
  5
DBE8
  8
0
 10
413.8874417876997995
 20
68.5078025254462233
 30
0.0
 40
0.9172035146655051
 50
257.5681337989046824
 51
266.5399048992164808
  0
ARC
  5
DBE9
  8
0
 10
413.9512674006621182
 20
66.593129581542243
 30
0.0
 40
0.9944195128770555
 50
96.8834887335347616
 51
104.4076803485852025
  0
ARC
  5
DBEA
  8
0
 10
413.9719813002046749
 20
68.1762839081124952
 30
0.0
 40
0.6755098321749643
 50
246.6122214335499905
 51
255.2520462446196063
  0
LINE
  5
DBEB
  8
0
 10
413.6899876001547227
 20
67.6954436269661954
 30
0.0
 11
413.6899876001547227
 21
67.6835340924661892
 31
0.0
  0
ARC
  5
DBEC
  8
0
 10
413.8674756525946918
 20
68.2766811152767303
 30
0.0
 40
0.7566677850321245
 50
264.8863039596947146
 51
267.3192363829131182
  0
LINE
  5
DBED
  8
0
 10
413.4590971612389012
 20
67.564190901266187
 30
0.0
 11
413.504846176939111
 21
67.5400351988661924
 31
0.0
  0
LINE
  5
DBEE
  8
0
 10
413.504846176939111
 20
67.5400351988661924
 30
0.0
 11
413.5047065829389794
 21
67.5287543054661938
 31
0.0
  0
LINE
  5
DBEF
  8
0
 10
413.5047065829389794
 20
67.5287543054661938
 30
0.0
 11
413.4973617774389822
 21
67.5247574335161858
 31
0.0
  0
LINE
  5
DBF0
  8
0
 10
413.4973617774389822
 20
67.5247574335161858
 30
0.0
 11
413.508811701669174
 21
67.5133628342855019
 31
0.0
  0
ARC
  5
DBF1
  8
0
 10
413.9247984272760732
 20
74.1794541189010488
 30
0.0
 40
0.8816003222045132
 50
251.0924370570375004
 51
266.3589156551146857
  0
ARC
  5
DBF2
  8
0
 10
413.6371149112191006
 20
73.3344714523417593
 30
0.0
 40
0.0111337311194257
 50
79.6111389682044006
 51
129.0821632628745022
  0
ARC
  5
DBF3
  8
0
 10
409.6295854909142804
 20
73.4006552300056399
 30
0.0
 40
4.0232023512749144
 50
359.1504619151024826
 51
1.9503123597418881
  0
ENDSEC
  0
EOF
