  0
SECTION
  2
HEADER
  9
$ACADVER
  1
AC1009
  9
$INSBASE
 10
3470.5330171439941296
 20
201.3007371321525056
 30
0.0
  9
$EXTMIN
 10
3469.183703940560008
 20
201.2959616777905012
 30
0.0
  9
$EXTMAX
 10
3471.8823303474300701
 20
206.058845460141697
 30
0.0
  9
$LIMMIN
 10
0.0
 20
0.0
  9
$LIMMAX
 10
11.6929133858000007
 20
8.2677165353999982
  9
$ORTHOMODE
 70
     0
  9
$REGENMODE
 70
     1
  9
$FILLMODE
 70
     1
  9
$QTEXTMODE
 70
     0
  9
$MIRRTEXT
 70
     0
  9
$DRAGMODE
 70
     2
  9
$LTSCALE
 40
0.6431102362
  9
$OSMODE
 70
  3839
  9
$ATTMODE
 70
     1
  9
$TEXTSIZE
 40
0.2
  9
$TRACEWID
 40
0.05
  9
$TEXTSTYLE
  7
STANDARD
  9
$CLAYER
  8
0
  9
$CELTYPE
  6
BYLAYER
  9
$CECOLOR
 62
   256
  9
$DIMSCALE
 40
1.0
  9
$DIMASZ
 40
0.1875
  9
$DIMEXO
 40
0.0625
  9
$DIMDLI
 40
0.4443307087
  9
$DIMRND
 40
0.0
  9
$DIMDLE
 40
0.0
  9
$DIMEXE
 40
0.125
  9
$DIMTP
 40
0.01
  9
$DIMTM
 40
0.01
  9
$DIMTXT
 40
2.0
  9
$DIMCEN
 40
0.1052362205
  9
$DIMTSZ
 40
0.0
  9
$DIMTOL
 70
     1
  9
$DIMLIM
 70
     0
  9
$DIMTIH
 70
     1
  9
$DIMTOH
 70
     1
  9
$DIMSE1
 70
     0
  9
$DIMSE2
 70
     0
  9
$DIMTAD
 70
     0
  9
$DIMZIN
 70
     0
  9
$DIMBLK
  1

  9
$DIMASO
 70
     1
  9
$DIMSHO
 70
     1
  9
$DIMPOST
  1
\X
  9
$DIMAPOST
  1

  9
$DIMALT
 70
     1
  9
$DIMALTD
 70
     2
  9
$DIMALTF
 40
25.3999999999999986
  9
$DIMLFAC
 40
1.0
  9
$DIMTOFL
 70
     0
  9
$DIMTVP
 40
0.0
  9
$DIMTIX
 70
     0
  9
$DIMSOXD
 70
     0
  9
$DIMSAH
 70
     0
  9
$DIMBLK1
  1

  9
$DIMBLK2
  1

  9
$DIMSTYLE
  2
STANDARD
  9
$DIMCLRD
 70
     0
  9
$DIMCLRE
 70
     0
  9
$DIMCLRT
 70
     0
  9
$DIMTFAC
 40
1.0
  9
$DIMGAP
 40
0.09
  9
$LUNITS
 70
     2
  9
$LUPREC
 70
     4
  9
$SKETCHINC
 40
0.1
  9
$FILLETRAD
 40
0.0
  9
$AUNITS
 70
     0
  9
$AUPREC
 70
     0
  9
$MENU
  1
.
  9
$ELEVATION
 40
0.0
  9
$PELEVATION
 40
0.0
  9
$THICKNESS
 40
0.0
  9
$LIMCHECK
 70
     0
  9
$BLIPMODE
 70
     0
  9
$CHAMFERA
 40
0.0
  9
$CHAMFERB
 40
0.0
  9
$SKPOLY
 70
     0
  9
$TDCREATE
 40
2458060.468368056230247
  9
$TDUPDATE
 40
2459031.8238078709691763
  9
$TDINDWG
 40
0.524821875
  9
$TDUSRTIMER
 40
0.524821875
  9
$USRTIMER
 70
     1
  9
$ANGBASE
 50
0.0
  9
$ANGDIR
 70
     0
  9
$PDMODE
 70
     0
  9
$PDSIZE
 40
0.3125
  9
$PLINEWID
 40
0.0
  9
$COORDS
 70
     1
  9
$SPLFRAME
 70
     0
  9
$SPLINETYPE
 70
     6
  9
$SPLINESEGS
 70
     8
  9
$ATTDIA
 70
     1
  9
$ATTREQ
 70
     1
  9
$HANDLING
 70
     1
  9
$HANDSEED
  5
8EC7
  9
$SURFTAB1
 70
     6
  9
$SURFTAB2
 70
     6
  9
$SURFTYPE
 70
     6
  9
$SURFU
 70
     6
  9
$SURFV
 70
     6
  9
$UCSNAME
  2

  9
$UCSORG
 10
0.0
 20
0.0
 30
0.0
  9
$UCSXDIR
 10
1.0
 20
0.0
 30
0.0
  9
$UCSYDIR
 10
0.0
 20
1.0
 30
0.0
  9
$PUCSNAME
  2

  9
$PUCSORG
 10
0.0
 20
0.0
 30
0.0
  9
$PUCSXDIR
 10
1.0
 20
0.0
 30
0.0
  9
$PUCSYDIR
 10
0.0
 20
1.0
 30
0.0
  9
$USERI1
 70
     0
  9
$USERI2
 70
     0
  9
$USERI3
 70
     0
  9
$USERI4
 70
     0
  9
$USERI5
 70
     0
  9
$USERR1
 40
0.0
  9
$USERR2
 40
0.0
  9
$USERR3
 40
0.0
  9
$USERR4
 40
0.0
  9
$USERR5
 40
0.0
  9
$WORLDVIEW
 70
     1
  9
$SHADEDGE
 70
     3
  9
$SHADEDIF
 70
    70
  9
$TILEMODE
 70
     1
  9
$MAXACTVP
 70
    64
  9
$PLIMCHECK
 70
     0
  9
$PEXTMIN
 10
1.0000000000000000E+20
 20
1.0000000000000000E+20
 30
1.0000000000000000E+20
  9
$PEXTMAX
 10
-1.0000000000000000E+20
 20
-1.0000000000000000E+20
 30
-1.0000000000000000E+20
  9
$PLIMMIN
 10
0.0
 20
0.0
  9
$PLIMMAX
 10
12.0
 20
9.0
  9
$UNITMODE
 70
     0
  9
$VISRETAIN
 70
     1
  9
$PLINEGEN
 70
     0
  9
$PSLTSCALE
 70
     1
  0
ENDSEC
  0
SECTION
  2
TABLES
  0
TABLE
  2
VPORT
 70
     1
  0
VPORT
  2
*ACTIVE
 70
     0
 10
0.0
 20
0.0
 11
1.0
 21
1.0
 12
0.000058159619357
 22
0.0000037847583627
 13
0.0
 23
0.0
 14
1.0
 24
1.0
 15
0.0
 25
0.0
 16
0.0
 26
0.0
 36
22.7268842158051605
 17
3470.532958984375
 27
203.6773997842078074
 37
0.0
 40
4.8189177092024718
 41
3.314341846758349
 42
50.0
 43
0.0
 44
0.0
 50
0.0
 51
0.0
 71
     0
 72
   100
 73
     1
 74
     1
 75
     0
 76
     0
 77
     0
 78
     0
  0
ENDTAB
  0
TABLE
  2
LTYPE
 70
     3
  0
LTYPE
  2
CONTINUOUS
 70
     0
  3
Solid line
 72
    65
 73
     0
 40
0.0
  0
LTYPE
  2
PHANTOM2
 70
     0
  3
___ _ _ ___ _ _ ___ _ _ ___ _ _
 72
    65
 73
     6
 40
1.25
 49
0.625
 49
-0.125
 49
0.125
 49
-0.125
 49
0.125
 49
-0.125
  0
ENDTAB
  0
TABLE
  2
LAYER
 70
     2
  0
LAYER
  2
0
 70
     0
 62
   255
  6
CONTINUOUS
  0
LAYER
  2
DEFPOINTS
 70
     0
 62
     7
  6
CONTINUOUS
  0
ENDTAB
  0
TABLE
  2
STYLE
 70
     1
  0
STYLE
  2
STANDARD
 70
     0
 40
0.0
 41
0.8
 50
0.0
 71
     0
 42
0.2
  3
txt
  4

  0
ENDTAB
  0
TABLE
  2
VIEW
 70
     0
  0
ENDTAB
  0
TABLE
  2
UCS
 70
     0
  0
ENDTAB
  0
TABLE
  2
APPID
 70
     9
  0
APPID
  2
ACAD
 70
     0
  0
APPID
  2
ACAD_MLEADERVER
 70
     0
  0
APPID
  2
ACAD_EXEMPT_FROM_CAD_STANDARDS
 70
     0
  0
APPID
  2
ACAD_NAV_VCDISPLAY
 70
     0
  0
APPID
  2
ACAECLAYERSTANDARD
 70
     0
  0
APPID
  2
ACCMTRANSPARENCY
 70
     0
  0
APPID
  2
ACAD_DSTYLE_DIMJAG
 70
     0
  0
APPID
  2
ACAD_DSTYLE_DIMTALN
 70
     0
  0
APPID
  2
ACDBATTR
 70
     0
  0
ENDTAB
  0
TABLE
  2
DIMSTYLE
 70
     2
  0
DIMSTYLE
  2
STANDARD
 70
     0
  3

  4

  5

  6

  7

 40
1.0
 41
0.1875
 42
0.0625
 43
0.38
 44
0.125
 45
0.0
 46
0.0
 47
0.01
 48
0.01
140
0.15625
141
0.09
142
0.0
143
25.3999999999999986
144
1.0
145
0.0
146
1.0
147
0.09
 71
     1
 72
     0
 73
     1
 74
     1
 75
     0
 76
     0
 77
     0
 78
     4
170
     0
171
     2
172
     0
173
     0
174
     0
175
     0
176
     0
177
     0
178
     0
  0
ENDTAB
  0
ENDSEC
  0
SECTION
  2
BLOCKS
  0
BLOCK
  8
0
  2
$MODEL_SPACE
 70
     0
 10
0.0
 20
0.0
 30
0.0
  3
$MODEL_SPACE
  1

  0
ENDBLK
  5
21
  8
0
  0
BLOCK
 67
     1
  8
0
  2
$PAPER_SPACE
 70
     0
 10
0.0
 20
0.0
 30
0.0
  3
$PAPER_SPACE
  1

  0
ENDBLK
  5
1D
 67
     1
  8
0
  0
BLOCK
  8
0
  2
_FILLED
 70
     0
 10
0.0
 20
0.0
 30
0.0
  3
_FILLED
  1

  0
SOLID
  5
6F59
  8
0
  6
BYBLOCK
 62
     0
 10
0.0
 20
0.0
 30
0.0
 11
-1.0
 21
0.1666666667
 31
0.0
 12
-1.0
 22
-0.1666666667
 32
0.0
 13
-1.0
 23
-0.1666666667
 33
0.0
  0
ENDBLK
  5
6F5A
  8
0
  6
BYBLOCK
 62
     0
  0
BLOCK
  8
0
  2
_CLOSED
 70
     0
 10
0.0
 20
0.0
 30
0.0
  3
_CLOSED
  1

  0
LINE
  5
8A02
  8
0
  6
BYBLOCK
 62
     0
 10
0.0
 20
0.0
 30
0.0
 11
-1.0
 21
0.1666666667
 31
0.0
  0
LINE
  5
8A03
  8
0
  6
BYBLOCK
 62
     0
 10
-1.0
 20
0.1666666667
 30
0.0
 11
-1.0
 21
-0.1666666667
 31
0.0
  0
LINE
  5
8A04
  8
0
  6
BYBLOCK
 62
     0
 10
-1.0
 20
-0.1666666667
 30
0.0
 11
0.0
 21
0.0
 31
0.0
  0
LINE
  5
8A05
  8
0
  6
BYBLOCK
 62
     0
 10
-1.0
 20
0.0
 30
0.0
 11
0.0
 21
0.0
 31
0.0
  0
ENDBLK
  5
8A06
  8
0
  6
BYBLOCK
 62
     0
  0
ENDSEC
  0
SECTION
  2
ENTITIES
  0
ATTDEF
  5
3930
  8
DEFPOINTS
 10
3470.5333777370037751
 20
201.2992950111238031
 30
0.0
 40
0.001
  1
K-72777T
  3

  2
MODELNUMBER
 70
     0
1001
ACDBATTR
1070
     0
1070
     1
  0
ATTDEF
  5
3931
  8
DEFPOINTS
 10
3470.5333777370037751
 20
201.2976283444571095
 30
0.0
 40
0.001
  1
ARTIFACTS
  3

  2
TRADENAME
 70
     0
1001
ACDBATTR
1070
     0
1070
     1
  0
ATTDEF
  5
3932
  8
DEFPOINTS
 10
3470.5333777370037751
 20
201.2959616777905012
 30
0.0
 40
0.001
  1
BATH SPOUT
  3

  2
PRODUCT
 70
     0
1001
ACDBATTR
1070
     0
1070
     1
  0
LINE
  5
8A96
  8
0
 10
3469.183703940560008
 20
201.3007371321525056
 30
0.0
 11
3471.8823303474300701
 21
201.3007371321525056
 31
0.0
  0
ARC
  5
8A97
  8
0
 10
3469.4877403428740763
 20
201.2984210587954124
 30
0.0
 40
0.304045223819881
 50
113.5702332252230065
 51
179.5635435079555862
  0
ARC
  5
8A98
  8
0
 10
3469.6195636057182128
 20
201.0133967479295052
 30
0.0
 40
0.6180406598430852
 50
102.8374962593912016
 51
114.205448550596202
  0
ARC
  5
8A99
  8
0
 10
3469.4746320231020036
 20
201.6468258802138109
 30
0.0
 40
0.0317623401915775
 50
283.8647179375084875
 51
357.230019081767125
  0
ARC
  5
8A9A
  8
0
 10
3469.5374102663331541
 20
201.7688469388259023
 30
0.0
 40
0.0310830871173576
 50
138.3868999433975091
 51
177.4794383196334877
  0
ARC
  5
8A9B
  8
0
 10
3444.0931814734972249
 20
223.2340855490269007
 30
0.0
 40
33.2580430847009794
 50
319.8497458861227756
 51
320.2416186430849052
  0
ARC
  5
8A9C
  8
0
 10
3471.5605586960227811
 20
203.3558732697015898
 30
0.0
 40
1.928627209730319
 50
170.5020511807861112
 51
194.6768512368537074
  0
ARC
  5
8A9D
  8
0
 10
3470.8933017855438266
 20
203.4926295713553941
 30
0.0
 40
1.2481968314511249
 50
141.9070314693161947
 51
171.6394138976021111
  0
ARC
  5
8A9E
  8
0
 10
3469.974062401710853
 20
204.4880833534514863
 30
0.0
 40
0.2340594671004807
 50
224.7002445331974059
 51
254.3588996073065971
  0
ARC
  5
8A9F
  8
0
 10
3469.8860601004948876
 20
204.3970575001063992
 30
0.0
 40
0.107516834420129
 50
144.7522870214939132
 51
223.2078285288903032
  0
ARC
  5
8AA0
  8
0
 10
3469.4766336251491339
 20
204.663870338662889
 30
0.0
 40
0.3812720144671722
 50
327.5167089597505878
 51
355.8328643246475735
  0
ARC
  5
8AA1
  8
0
 10
3479.0817975923250742
 20
204.426237465501714
 30
0.0
 40
9.2272882193787371
 50
175.0711824921399966
 51
178.6963681638943058
  0
ARC
  5
8AA2
  8
0
 10
3470.2522927834170332
 20
205.1885993913836046
 30
0.0
 40
0.3649336199172485
 50
134.999628256372489
 51
175.2170656477971136
  0
ARC
  5
8AA3
  8
0
 10
3470.5373694375139166
 20
204.9539560154697995
 30
0.0
 40
0.7332987239874241
 50
90.3400653864044756
 51
137.7873171226569013
  0
ARC
  5
8AA4
  8
0
 10
3469.5567418240589177
 20
204.9847746734531029
 30
0.0
 40
0.859051345361413
 50
44.5828060657481871
 51
55.2379906936307705
  0
ARC
  5
8AA5
  8
0
 10
3470.341107929626105
 20
206.1149277163816009
 30
0.0
 40
0.5166216128678661
 50
220.8762849416455083
 51
235.2379807739939963
  0
ARC
  5
8AA6
  8
0
 10
3470.0615148760170996
 20
205.8729391029550868
 30
0.0
 40
0.1468503800028636
 50
184.0260001651427046
 51
220.8762849416455083
  0
ARC
  5
8AA7
  8
0
 10
3470.0450637099838787
 20
205.8378576792549097
 30
0.0
 40
0.1323751817584475
 50
118.2950220880880039
 51
169.2147397906080073
  0
ARC
  5
8AA8
  8
0
 10
3470.5330647390719605
 20
204.5543338343233017
 30
0.0
 40
1.504511626571285
 50
90.001812546365386
 51
111.4731134147477007
  0
ARC
  5
8AA9
  8
0
 10
3470.0312614192089313
 20
204.5732863715263079
 30
0.0
 40
0.566672611059813
 50
105.4193095500706931
 51
112.9158828911633066
  0
ARC
  5
8AAA
  8
0
 10
3469.8217976219339107
 20
205.068773402127789
 30
0.0
 40
0.0287297889466231
 50
112.9158828911633066
 51
179.1261038835305897
  0
ARC
  5
8AAB
  8
0
 10
3601.4419723148748744
 20
204.9427028238031028
 30
0.0
 40
131.6489619248210943
 50
179.9449413125184094
 51
180.0183529518394039
  0
ARC
  5
8AAC
  8
0
 10
3469.8235240169278768
 20
204.9009788930275988
 30
0.0
 40
0.0305101299223034
 50
180.83719038082819
 51
261.8284237748907231
  0
ARC
  5
8AAD
  8
0
 10
3469.8731225347542022
 20
205.24639373811209
 30
0.0
 40
0.3794677608391035
 50
261.8286658361677723
 51
268.7799770712874761
  0
ARC
  5
8AAE
  8
0
 10
3469.8638043561700215
 20
204.8338847780468939
 30
0.0
 40
0.0331503710704779
 50
87.8587133739521136
 51
133.6337165146350117
  0
ARC
  5
8AAF
  8
0
 10
3469.8609031975051948
 20
204.8369277073205126
 30
0.0
 40
0.0289460708718265
 50
133.6337167260273873
 51
180.4724611414393109
  0
ARC
  5
8AB0
  8
0
 10
5243.5367795547554124
 20
204.7925412068026105
 30
0.0
 40
1773.7048219934349618
 50
179.9985738983297097
 51
180.0014261016702903
  0
ARC
  5
8AB1
  8
0
 10
3469.8607625695708521
 20
204.748155865929192
 30
0.0
 40
0.028805438156365
 50
179.5275388585590122
 51
224.0249800764055124
  0
ARC
  5
8AB2
  8
0
 10
3469.5127680320561012
 20
204.4242526675267868
 30
0.0
 40
0.4466087442715288
 50
39.2191229472923766
 51
42.8769457394407567
  0
ARC
  5
8AB3
  8
0
 10
3470.568517804055773
 20
207.0032807216466892
 30
0.0
 40
2.7841703781625071
 50
262.3793047505777167
 51
269.269407817529725
  0
ARC
  5
8AB4
  8
0
 10
3470.2556690454389354
 20
204.673183929818407
 30
0.0
 40
0.4331667857191112
 50
243.7232199435592861
 51
262.5223142243660277
  0
ARC
  5
8AB5
  8
0
 10
3470.0651133801638935
 20
204.3090843935326859
 30
0.0
 40
0.0195537670391226
 50
137.5296846237237958
 51
186.299690568743614
  0
ARC
  5
8AB6
  8
0
 10
3470.081088721931792
 20
204.3174863482346097
 30
0.0
 40
0.0369485123042684
 50
196.5867459079798891
 51
242.2811064265461027
  0
ARC
  5
8AB7
  8
0
 10
3470.1176110058340782
 20
204.2587042011489018
 30
0.0
 40
0.0923104946928389
 50
107.1057868520220069
 51
136.4651608490684112
  0
ARC
  5
8AB8
  8
0
 10
3470.4071908659630026
 20
203.3177483221747934
 30
0.0
 40
1.076817712324597
 50
92.0281474788891671
 51
107.1057868520220069
  0
ARC
  5
8AB9
  8
0
 10
3470.5313741146151187
 20
201.8809774575155132
 30
0.0
 40
2.5181492517549322
 50
89.9626159348255641
 51
93.6952195914492449
  0
ARC
  5
8ABA
  8
0
 10
3470.2673042266537777
 20
205.4614121909496873
 30
0.0
 40
1.250565837026437
 50
253.444234866725111
 51
264.665893203552514
  0
ARC
  5
8ABB
  8
0
 10
3470.5632255460750457
 20
208.6308332047703118
 30
0.0
 40
4.4337716095355866
 50
264.665893203552514
 51
269.609626410964097
  0
ARC
  5
8ABC
  8
0
 10
3469.9236822567390846
 20
204.3558795649852868
 30
0.0
 40
0.1624434843730978
 50
109.147368812106194
 51
140.5454706811835877
  0
ARC
  5
8ABD
  8
0
 10
3470.5427847836281217
 20
201.8493005354937111
 30
0.0
 40
2.7437001676214741
 50
90.203974805817964
 51
104.1856524046686019
  0
ARC
  5
8ABE
  8
0
 10
3469.0972977627320688
 20
202.3564289463899115
 30
0.0
 40
0.6863116111869954
 50
325.1098573244112799
 51
9.3333636008916834
  0
ARC
  5
8ABF
  8
0
 10
3461.8839950936730929
 20
201.1019831375095066
 30
0.0
 40
8.0078533488816248
 50
9.8198813078343434
 51
12.7347911044597897
  0
ARC
  5
8AC0
  8
0
 10
3471.5782939451150924
 20
201.2984210587954124
 30
0.0
 40
0.304045223819881
 50
0.4364564920444069
 51
66.429766774777022
  0
ARC
  5
8AC1
  8
0
 10
3471.4464706822700464
 20
201.0133967479295052
 30
0.0
 40
0.6180406598430852
 50
65.7945514494038122
 51
77.1625037406087557
  0
ARC
  5
8AC2
  8
0
 10
3496.9728528144928532
 20
223.2340855490269007
 30
0.0
 40
33.2580430847009794
 50
219.7583813569150948
 51
220.150254113877196
  0
ARC
  5
8AC3
  8
0
 10
3469.5054755919659328
 20
203.3558732697015898
 30
0.0
 40
1.928627209730319
 50
345.323148763146321
 51
9.4979488192138817
  0
ARC
  5
8AC4
  8
0
 10
3470.1727325024439779
 20
203.4926295713553941
 30
0.0
 40
1.2481968314511249
 50
8.3605861023978605
 51
38.0929685306837413
  0
ARC
  5
8AC5
  8
0
 10
3471.0919718862778609
 20
204.4880833534514863
 30
0.0
 40
0.2340594671004807
 50
285.6411003926933176
 51
315.2997554668025941
  0
ARC
  5
8AC6
  8
0
 10
3471.1799741874938263
 20
204.3970575001063992
 30
0.0
 40
0.107516834420129
 50
316.7921714711097252
 51
35.2477129785060868
  0
ARC
  5
8AC7
  8
0
 10
3471.5894006628400348
 20
204.663870338662889
 30
0.0
 40
0.3812720144671722
 50
184.1671356753523128
 51
212.4832910402494122
  0
ARC
  5
8AC8
  8
0
 10
3461.9842366956640944
 20
204.426237465501714
 30
0.0
 40
9.2272882193787371
 50
1.303631836105648
 51
4.9288175078599661
  0
ARC
  5
8AC9
  8
0
 10
3470.813741504571226
 20
205.1885993913836046
 30
0.0
 40
0.3649336199172485
 50
4.7829343522028731
 51
45.0003717436275323
  0
ARC
  5
8ACA
  8
0
 10
3470.5286648504747973
 20
204.9539560154697995
 30
0.0
 40
0.7332987239874208
 50
42.21268287734312
 51
89.6599346135955386
  0
ARC
  5
8ACB
  8
0
 10
3471.5092924639297962
 20
204.9847746734531029
 30
0.0
 40
0.859051345361413
 50
124.762009306369194
 51
135.4171939342517987
  0
ARC
  5
8ACC
  8
0
 10
3470.7249263583630636
 20
206.1149277163816009
 30
0.0
 40
0.5166216128678661
 50
304.7620192260059753
 51
319.1237150583544917
  0
ARC
  5
8ACD
  8
0
 10
3471.0045194119720691
 20
205.8729391029550868
 30
0.0
 40
0.1468503800028636
 50
319.1237150583544917
 51
355.9739998348572954
  0
ARC
  5
8ACE
  8
0
 10
3471.0209705780048353
 20
205.8378576792549097
 30
0.0
 40
0.1323751817584475
 50
10.7852602093919607
 51
61.7049779119120174
  0
ARC
  5
8ACF
  8
0
 10
3470.5329695489172082
 20
204.5543338343233017
 30
0.0
 40
1.504511626571285
 50
68.526886585252285
 51
89.998187453634614
  0
ARC
  5
8AD0
  8
0
 10
3471.0347728687797826
 20
204.5732863715263079
 30
0.0
 40
0.566672611059813
 50
67.0841171088366934
 51
74.5806904499292358
  0
ARC
  5
8AD1
  8
0
 10
3471.2442366660548032
 20
205.068773402127789
 30
0.0
 40
0.0287297889466231
 50
0.8738961164693778
 51
67.0841171088366934
  0
ARC
  5
8AD2
  8
0
 10
3339.6240619731138395
 20
204.9427028238031028
 30
0.0
 40
131.6489619248210943
 50
359.9816470481605961
 51
0.0550586874815218
  0
ARC
  5
8AD3
  8
0
 10
3471.2425102710608371
 20
204.9009788930275988
 30
0.0
 40
0.0305101299223034
 50
278.1715762251092201
 51
359.16280961917181
  0
ARC
  5
8AD4
  8
0
 10
3471.1929176758239919
 20
205.2463412143372921
 30
0.0
 40
0.3794149285174861
 50
271.2192977528454207
 51
278.1715762251092201
  0
ARC
  5
8AD5
  8
0
 10
3471.2022292609408396
 20
204.8338837122940959
 30
0.0
 40
0.0331516053636668
 50
46.3667153159045711
 51
92.1400523212641644
  0
ARC
  5
8AD6
  8
0
 10
3471.2051310904839738
 20
204.8369277073205126
 30
0.0
 40
0.0289460708718265
 50
359.5275388585607175
 51
46.3662832739725701
  0
ARC
  5
8AD7
  8
0
 10
1697.5292547332330741
 20
204.7925412068026105
 30
0.0
 40
1773.7048219934349618
 50
359.9985738983297097
 51
0.0014261016703076
  0
ARC
  5
8AD8
  8
0
 10
3471.2052717184178618
 20
204.748155865929192
 30
0.0
 40
0.028805438156365
 50
315.9750199235945161
 51
0.4724611414409308
  0
ARC
  5
8AD9
  8
0
 10
3471.5532662559330674
 20
204.4242526675267868
 30
0.0
 40
0.4466087442715288
 50
137.1230542605592007
 51
140.7808770527076092
  0
ARC
  5
8ADA
  8
0
 10
3470.4975164839329409
 20
207.0032807216466892
 30
0.0
 40
2.7841703781625071
 50
270.730592182470275
 51
277.620695249422397
  0
ARC
  5
8ADB
  8
0
 10
3470.8103652425497785
 20
204.673183929818407
 30
0.0
 40
0.4331667857191112
 50
277.4776857756339723
 51
296.2767800564407139
  0
ARC
  5
8ADC
  8
0
 10
3471.0009209078248205
 20
204.3090843935326859
 30
0.0
 40
0.0195537670391226
 50
353.7003094312563007
 51
42.4703153762761829
  0
ARC
  5
8ADD
  8
0
 10
3470.984945566056922
 20
204.3174863482346097
 30
0.0
 40
0.0369485123042684
 50
297.7188935734540109
 51
343.4132540920199972
  0
ARC
  5
8ADE
  8
0
 10
3470.9484232821559999
 20
204.2587042011489018
 30
0.0
 40
0.0923104946928389
 50
43.5348391509315604
 51
72.8942131479780073
  0
ARC
  5
8ADF
  8
0
 10
3470.6588434220248018
 20
203.3177483221747934
 30
0.0
 40
1.076817712324597
 50
72.8942131479780073
 51
87.9718525211108471
  0
ARC
  5
8AE0
  8
0
 10
3470.5346601733731404
 20
201.8809774575155132
 30
0.0
 40
2.5181492517549322
 50
86.3047804085507551
 51
90.0373840651744501
  0
ARC
  5
8AE1
  8
0
 10
3470.7987300613349362
 20
205.4614121909496873
 30
0.0
 40
1.250565837026437
 50
275.3341067964475997
 51
286.5557651332748037
  0
ARC
  5
8AE2
  8
0
 10
3470.5028087419141229
 20
208.6308332047703118
 30
0.0
 40
4.4337716095355866
 50
270.3903735890357893
 51
275.3341067964475997
  0
ARC
  5
8AE3
  8
0
 10
3471.1423520312500841
 20
204.3558795649852868
 30
0.0
 40
0.1624434843730978
 50
39.4545293188164194
 51
70.852631187893806
  0
ARC
  5
8AE4
  8
0
 10
3470.523249504361047
 20
201.8493005354937111
 30
0.0
 40
2.7437001676214741
 50
75.8143475953313839
 51
89.796025194182036
  0
ARC
  5
8AE5
  8
0
 10
3471.9687365252580094
 20
202.3564289463899115
 30
0.0
 40
0.6863116111869954
 50
170.6666363991083131
 51
214.8901426755886916
  0
ARC
  5
8AE6
  8
0
 10
3479.1820391943160757
 20
201.1019831375095066
 30
0.0
 40
8.0078533488816248
 50
167.2652088955402121
 51
170.1801186921655926
  0
LINE
  5
8AE7
  8
0
 10
3469.4822432403439052
 20
201.615988960352496
 30
0.0
 11
3471.5837910476448087
 21
201.615988960352496
 31
0.0
  0
LINE
  5
8AE8
  8
0
 10
3469.5063572519898116
 20
201.7702139080963093
 30
0.0
 11
3471.5596770359989023
 21
201.7702139080963093
 31
0.0
  0
ARC
  5
8AE9
  8
0
 10
3470.556269389776844
 20
206.1797455002214861
 30
0.0
 40
1.9221758852117179
 50
259.9354086760721998
 51
269.3068854680089999
  0
ARC
  5
8AEA
  8
0
 10
3470.261110135589206
 20
204.4774980129687094
 30
0.0
 40
0.1946632133086515
 50
237.2714419952708909
 51
257.9144912415587783
  0
ARC
  5
8AEB
  8
0
 10
3470.1655083836021731
 20
204.3287461199766994
 30
0.0
 40
0.0178389484245855
 50
129.7021933722483027
 51
237.2714419952708909
  0
ARC
  5
8AEC
  8
0
 10
3470.2644676104591781
 20
204.1756846837114949
 30
0.0
 40
0.1999895555620394
 50
101.7045379376430958
 51
123.4907469311064006
  0
ARC
  5
8AED
  8
0
 10
3470.4572504931197727
 20
203.3261689305909101
 30
0.0
 40
1.071076119872324
 50
93.3741402104290046
 51
102.5838697795552008
  0
LINE
  5
8AEE
  8
0
 10
3470.4642902949749441
 20
204.3982329898873047
 30
0.0
 11
3470.4622821244438455
 21
204.3500143531526021
 31
0.0
  0
ARC
  5
8AEF
  8
0
 10
3470.4556752623798275
 20
204.3502895103655135
 30
0.0
 40
0.0066125893440567
 50
277.909904443169296
 51
357.6151701987673164
  0
LINE
  5
8AF0
  8
0
 10
3470.4565852589448696
 20
204.3437398352525918
 30
0.0
 11
3470.2728795885441286
 21
204.3098459370525006
 31
0.0
  0
ARC
  5
8AF1
  8
0
 10
3470.3025146686900371
 20
204.3054571251614959
 30
0.0
 40
0.0299582984333189
 50
171.576001880490395
 51
210.0481375611051078
  0
LINE
  5
8AF2
  8
0
 10
3470.2765826152131012
 20
204.2904561836066932
 30
0.0
 11
3470.2444840519438003
 21
204.2963498735526002
 31
0.0
  0
LINE
  5
8AF3
  8
0
 10
3470.2444840519438003
 20
204.2963498735526002
 30
0.0
 11
3470.2425786685498679
 21
204.3578635406232991
 31
0.0
  0
LINE
  5
8AF4
  8
0
 10
3470.4630961563311757
 20
204.3982008831426924
 30
0.0
 11
3470.4622814553449643
 21
204.3789709796525074
 31
0.0
  0
ARC
  5
8AF5
  8
0
 10
3470.4543054848481916
 20
204.3805969408618068
 30
0.0
 40
0.0081400156766951
 50
256.5227143680257882
 51
348.4777096275900021
  0
LINE
  5
8AF6
  8
0
 10
3470.4524083739438538
 20
204.3726810817524893
 30
0.0
 11
3470.3489027653999983
 21
204.391750848820891
 31
0.0
  0
LINE
  5
8AF7
  8
0
 10
3470.4302881787148181
 20
204.3767564838148019
 30
0.0
 11
3470.4297586301449883
 21
204.3645156146525039
 31
0.0
  0
ARC
  5
8AF8
  8
0
 10
3470.4227478155248718
 20
204.3650105132952035
 30
0.0
 40
0.0070282605460274
 50
263.6857652860974213
 51
355.9621461694266031
  0
LINE
  5
8AF9
  8
0
 10
3470.4219748386440187
 20
204.3580248885525066
 30
0.0
 11
3470.1818444531281784
 21
204.3578089166038012
 31
0.0
  0
LINE
  5
8AFA
  8
0
 10
3470.5204676890971314
 20
204.3991030905997945
 30
0.0
 11
3470.5252352993447857
 21
204.2961850535525912
 31
0.0
  0
ARC
  5
8AFB
  8
0
 10
3470.531753208354985
 20
204.2964869913924986
 30
0.0
 40
0.0065248987988806
 50
182.6522930903792883
 51
269.7821622752937856
  0
LINE
  5
8AFC
  8
0
 10
3470.5317284008451679
 20
204.2899621397525038
 30
0.0
 11
3470.5330171346799943
 21
204.2899572399815042
 31
0.0
  0
ARC
  5
8AFD
  8
0
 10
3470.5328677659940695
 20
204.3353290504969948
 30
0.0
 40
0.002810144269278
 50
87.0486355309325575
 51
113.9191545440369993
  0
ARC
  5
8AFE
  8
0
 10
3470.531682886928138
 20
204.3443442676145025
 30
0.0
 40
0.0064465730320064
 50
183.126932822311602
 51
270.4045214397282848
  0
LINE
  5
8AFF
  8
0
 10
3470.5252459119437844
 20
204.3439926187525941
 30
0.0
 11
3470.5227009071309112
 21
204.399111772754793
 31
0.0
  0
LINE
  5
8B00
  8
0
 10
3470.5252351053441089
 20
204.3849485866525129
 30
0.0
 11
3470.5245680391390124
 21
204.3991175114938983
 31
0.0
  0
ARC
  5
8B01
  8
0
 10
3470.5097648982118699
 20
206.1797455002214861
 30
0.0
 40
1.9221758852117179
 50
270.6931145319911138
 51
280.0645913239278002
  0
ARC
  5
8B02
  8
0
 10
3470.8049241523999626
 20
204.4774980129687094
 30
0.0
 40
0.1946632133086515
 50
282.0855087584412217
 51
302.7285580047291091
  0
ARC
  5
8B03
  8
0
 10
3470.9005259043869955
 20
204.3287461199766994
 30
0.0
 40
0.0178389484245855
 50
302.7285580047291091
 51
50.2978066277516618
  0
ARC
  5
8B04
  8
0
 10
3470.8015666775290811
 20
204.1756846837114949
 30
0.0
 40
0.1999895555620394
 50
56.5092530688935284
 51
78.2954620623568758
  0
ARC
  5
8B05
  8
0
 10
3470.6087837948689412
 20
203.3261689305909101
 30
0.0
 40
1.071076119872312
 50
77.4161302204447423
 51
86.6258597895709812
  0
LINE
  5
8B06
  8
0
 10
3470.6017439930142245
 20
204.3982329898873047
 30
0.0
 11
3470.6037521635439589
 21
204.3500143531526021
 31
0.0
  0
ARC
  5
8B07
  8
0
 10
3470.6103590256088864
 20
204.3502895103655135
 30
0.0
 40
0.0066125893440567
 50
182.384829801232712
 51
262.090095556830704
  0
LINE
  5
8B08
  8
0
 10
3470.6094490290452086
 20
204.3437398352525918
 30
0.0
 11
3470.79315469944504
 21
204.3098459370525006
 31
0.0
  0
ARC
  5
8B09
  8
0
 10
3470.7635196192991316
 20
204.3054571251614959
 30
0.0
 40
0.0299582984333189
 50
329.9518624388948069
 51
8.4239981195095446
  0
LINE
  5
8B0A
  8
0
 10
3470.7894516727751579
 20
204.2904561836066932
 30
0.0
 11
3470.8215502360449136
 21
204.2963498735526002
 31
0.0
  0
LINE
  5
8B0B
  8
0
 10
3470.8215502360449136
 20
204.2963498735526002
 30
0.0
 11
3470.8234556194379365
 21
204.3578635406232991
 31
0.0
  0
LINE
  5
8B0C
  8
0
 10
3470.6029381316579929
 20
204.3982008831426924
 30
0.0
 11
3470.6037528326442043
 21
204.3789709796525074
 31
0.0
  0
ARC
  5
8B0D
  8
0
 10
3470.6117288031409771
 20
204.3805969408618068
 30
0.0
 40
0.0081400156766951
 50
191.5222903724099979
 51
283.4772856319740981
  0
LINE
  5
8B0E
  8
0
 10
3470.6136259140439506
 20
204.3726810817524893
 30
0.0
 11
3470.7171315225891703
 21
204.391750848820891
 31
0.0
  0
LINE
  5
8B0F
  8
0
 10
3470.6357461092729864
 20
204.3767564838148019
 30
0.0
 11
3470.6362756578441804
 21
204.3645156146525039
 31
0.0
  0
ARC
  5
8B10
  8
0
 10
3470.6432864724652063
 20
204.3650105132952035
 30
0.0
 40
0.0070282605460274
 50
184.0378538305733116
 51
276.3142347139025787
  0
LINE
  5
8B11
  8
0
 10
3470.6440594493451499
 20
204.3580248885525066
 30
0.0
 11
3470.8841898348600807
 21
204.3578089166038012
 31
0.0
  0
LINE
  5
8B12
  8
0
 10
3470.5455665988920373
 20
204.3991030905997945
 30
0.0
 11
3470.5407989886448377
 21
204.2961850535525912
 31
0.0
  0
ARC
  5
8B13
  8
0
 10
3470.5342810796328195
 20
204.2964869913924986
 30
0.0
 40
0.0065248987988806
 50
270.2178377247062144
 51
357.3477069096206264
  0
LINE
  5
8B14
  8
0
 10
3470.5343058871440007
 20
204.2899621397525038
 30
0.0
 11
3470.5330171533091743
 21
204.2899572399815042
 31
0.0
  0
ARC
  5
8B15
  8
0
 10
3470.5331665219960087
 20
204.3353290504969948
 30
0.0
 40
0.002810144269278
 50
66.0808454559630434
 51
92.9513644690674568
  0
ARC
  5
8B16
  8
0
 10
3470.5343514010619401
 20
204.3443442676145025
 30
0.0
 40
0.0064465730320064
 50
269.5954785602717152
 51
356.8730671776884265
  0
LINE
  5
8B17
  8
0
 10
3470.5407883760449295
 20
204.3439926187525941
 30
0.0
 11
3470.5433333808578027
 21
204.399111772754793
 31
0.0
  0
LINE
  5
8B18
  8
0
 10
3470.5407991826441503
 20
204.3849485866525129
 30
0.0
 11
3470.5414662488501563
 21
204.3991175114938983
 31
0.0
  0
ARC
  5
8B19
  8
0
 10
3470.5330171439941296
 20
204.3873551678406955
 30
0.0
 40
0.008145658878534
 50
197.1841277233878884
 51
342.8158722766120263
  0
LINE
  5
8B1A
  8
0
 10
3469.5063572519911759
 20
201.6452909188525098
 30
0.0
 11
3469.5063572519898116
 21
201.7702139080963093
 31
0.0
  0
ARC
  5
8B1B
  8
0
 10
3471.5914022648880746
 20
201.6468258802138109
 30
0.0
 40
0.0317623401915775
 50
182.7699809182329034
 51
256.1352820624915125
  0
ARC
  5
8B1C
  8
0
 10
3471.528624021656924
 20
201.7688469388259023
 30
0.0
 40
0.0310830871173576
 50
2.5205616803665412
 51
41.613100056602498
  0
LINE
  5
8B1D
  8
0
 10
3471.5596770359979928
 20
201.6452909188525098
 30
0.0
 11
3471.5596770359989023
 21
201.7702139080963093
 31
0.0
  0
ENDSEC
  0
EOF
