  0
SECTION
  2
HEADER
  9
$ACADVER
  1
AC1009
  9
$INSBASE
 10
3977.8270441524928174
 20
78.1758330323912674
 30
0.0
  9
$EXTMIN
 10
3952.3572947952338836
 20
72.6084761228761693
 30
0.0
  9
$EXTMAX
 10
3984.5671563831638196
 20
87.3706531513584679
 30
0.0
  9
$LIMMIN
 10
0.0
 20
0.0
  9
$LIMMAX
 10
11.6929133858000007
 20
8.2677165353999982
  9
$ORTHOMODE
 70
     0
  9
$REGENMODE
 70
     1
  9
$FILLMODE
 70
     1
  9
$QTEXTMODE
 70
     0
  9
$MIRRTEXT
 70
     0
  9
$DRAGMODE
 70
     2
  9
$LTSCALE
 40
0.6431102362
  9
$OSMODE
 70
  4095
  9
$ATTMODE
 70
     1
  9
$TEXTSIZE
 40
0.2
  9
$TRACEWID
 40
0.05
  9
$TEXTSTYLE
  7
STANDARD
  9
$CLAYER
  8
0
  9
$CELTYPE
  6
BYLAYER
  9
$CECOLOR
 62
   256
  9
$DIMSCALE
 40
1.0
  9
$DIMASZ
 40
0.1875
  9
$DIMEXO
 40
0.0625
  9
$DIMDLI
 40
0.4443307087
  9
$DIMRND
 40
0.0
  9
$DIMDLE
 40
0.0
  9
$DIMEXE
 40
0.125
  9
$DIMTP
 40
0.01
  9
$DIMTM
 40
0.01
  9
$DIMTXT
 40
2.0
  9
$DIMCEN
 40
0.1052362205
  9
$DIMTSZ
 40
0.0
  9
$DIMTOL
 70
     1
  9
$DIMLIM
 70
     0
  9
$DIMTIH
 70
     1
  9
$DIMTOH
 70
     1
  9
$DIMSE1
 70
     0
  9
$DIMSE2
 70
     0
  9
$DIMTAD
 70
     0
  9
$DIMZIN
 70
     0
  9
$DIMBLK
  1

  9
$DIMASO
 70
     1
  9
$DIMSHO
 70
     1
  9
$DIMPOST
  1
\X
  9
$DIMAPOST
  1

  9
$DIMALT
 70
     1
  9
$DIMALTD
 70
     2
  9
$DIMALTF
 40
25.3999999999999986
  9
$DIMLFAC
 40
1.0
  9
$DIMTOFL
 70
     0
  9
$DIMTVP
 40
0.0
  9
$DIMTIX
 70
     0
  9
$DIMSOXD
 70
     0
  9
$DIMSAH
 70
     0
  9
$DIMBLK1
  1

  9
$DIMBLK2
  1

  9
$DIMSTYLE
  2
STANDARD
  9
$DIMCLRD
 70
     0
  9
$DIMCLRE
 70
     0
  9
$DIMCLRT
 70
     0
  9
$DIMTFAC
 40
1.0
  9
$DIMGAP
 40
0.09
  9
$LUNITS
 70
     2
  9
$LUPREC
 70
     4
  9
$SKETCHINC
 40
0.1
  9
$FILLETRAD
 40
0.0
  9
$AUNITS
 70
     0
  9
$AUPREC
 70
     0
  9
$MENU
  1
.
  9
$ELEVATION
 40
0.0
  9
$PELEVATION
 40
0.0
  9
$THICKNESS
 40
0.0
  9
$LIMCHECK
 70
     0
  9
$BLIPMODE
 70
     0
  9
$CHAMFERA
 40
0.0
  9
$CHAMFERB
 40
0.0
  9
$SKPOLY
 70
     0
  9
$TDCREATE
 40
2458060.468368056230247
  9
$TDUPDATE
 40
2459101.6604050919413567
  9
$TDINDWG
 40
0.4128542824
  9
$TDUSRTIMER
 40
0.4128542824
  9
$USRTIMER
 70
     1
  9
$ANGBASE
 50
0.0
  9
$ANGDIR
 70
     0
  9
$PDMODE
 70
     0
  9
$PDSIZE
 40
0.3125
  9
$PLINEWID
 40
0.0
  9
$COORDS
 70
     1
  9
$SPLFRAME
 70
     0
  9
$SPLINETYPE
 70
     6
  9
$SPLINESEGS
 70
     8
  9
$ATTDIA
 70
     1
  9
$ATTREQ
 70
     1
  9
$HANDLING
 70
     1
  9
$HANDSEED
  5
89C8
  9
$SURFTAB1
 70
     6
  9
$SURFTAB2
 70
     6
  9
$SURFTYPE
 70
     6
  9
$SURFU
 70
     6
  9
$SURFV
 70
     6
  9
$UCSNAME
  2

  9
$UCSORG
 10
0.0
 20
0.0
 30
0.0
  9
$UCSXDIR
 10
1.0
 20
0.0
 30
0.0
  9
$UCSYDIR
 10
0.0
 20
1.0
 30
0.0
  9
$PUCSNAME
  2

  9
$PUCSORG
 10
0.0
 20
0.0
 30
0.0
  9
$PUCSXDIR
 10
1.0
 20
0.0
 30
0.0
  9
$PUCSYDIR
 10
0.0
 20
1.0
 30
0.0
  9
$USERI1
 70
     0
  9
$USERI2
 70
     0
  9
$USERI3
 70
     0
  9
$USERI4
 70
     0
  9
$USERI5
 70
     0
  9
$USERR1
 40
0.0
  9
$USERR2
 40
0.0
  9
$USERR3
 40
0.0
  9
$USERR4
 40
0.0
  9
$USERR5
 40
0.0
  9
$WORLDVIEW
 70
     1
  9
$SHADEDGE
 70
     3
  9
$SHADEDIF
 70
    70
  9
$TILEMODE
 70
     1
  9
$MAXACTVP
 70
    64
  9
$PLIMCHECK
 70
     0
  9
$PEXTMIN
 10
1.0000000000000000E+20
 20
1.0000000000000000E+20
 30
1.0000000000000000E+20
  9
$PEXTMAX
 10
-1.0000000000000000E+20
 20
-1.0000000000000000E+20
 30
-1.0000000000000000E+20
  9
$PLIMMIN
 10
0.0
 20
0.0
  9
$PLIMMAX
 10
12.0
 20
9.0
  9
$UNITMODE
 70
     0
  9
$VISRETAIN
 70
     1
  9
$PLINEGEN
 70
     0
  9
$PSLTSCALE
 70
     1
  0
ENDSEC
  0
SECTION
  2
TABLES
  0
TABLE
  2
VPORT
 70
     1
  0
VPORT
  2
*ACTIVE
 70
     0
 10
0.0
 20
0.0
 11
1.0
 21
1.0
 12
191.4701392442649137
 22
-42.1582491782666011
 13
0.0
 23
0.0
 14
1.0
 24
1.0
 15
0.0
 25
0.0
 16
0.0
 26
0.0
 36
5.1040778033513332
 17
3792.35791015625
 27
120.1806564331053977
 37
0.0
 40
34.734319971596392
 41
2.005224660397074
 42
50.0
 43
0.0
 44
0.0
 50
0.0
 51
0.0
 71
     0
 72
   100
 73
     1
 74
     1
 75
     0
 76
     0
 77
     0
 78
     0
  0
ENDTAB
  0
TABLE
  2
LTYPE
 70
     2
  0
LTYPE
  2
CONTINUOUS
 70
     0
  3
Solid line
 72
    65
 73
     0
 40
0.0
  0
LTYPE
  2
PHANTOM2
 70
     0
  3
___ _ _ ___ _ _ ___ _ _ ___ _ _
 72
    65
 73
     6
 40
1.25
 49
0.625
 49
-0.125
 49
0.125
 49
-0.125
 49
0.125
 49
-0.125
  0
ENDTAB
  0
TABLE
  2
LAYER
 70
     2
  0
LAYER
  2
0
 70
     0
 62
   255
  6
CONTINUOUS
  0
LAYER
  2
DEFPOINTS
 70
     0
 62
     7
  6
CONTINUOUS
  0
ENDTAB
  0
TABLE
  2
STYLE
 70
     1
  0
STYLE
  2
STANDARD
 70
     0
 40
0.0
 41
0.8
 50
0.0
 71
     0
 42
0.2
  3
txt
  4

  0
ENDTAB
  0
TABLE
  2
VIEW
 70
     0
  0
ENDTAB
  0
TABLE
  2
UCS
 70
     0
  0
ENDTAB
  0
TABLE
  2
APPID
 70
     9
  0
APPID
  2
ACAD
 70
     0
  0
APPID
  2
ACAD_MLEADERVER
 70
     0
  0
APPID
  2
ACAD_EXEMPT_FROM_CAD_STANDARDS
 70
     0
  0
APPID
  2
ACAD_NAV_VCDISPLAY
 70
     0
  0
APPID
  2
ACAECLAYERSTANDARD
 70
     0
  0
APPID
  2
ACCMTRANSPARENCY
 70
     0
  0
APPID
  2
ACAD_DSTYLE_DIMJAG
 70
     0
  0
APPID
  2
ACAD_DSTYLE_DIMTALN
 70
     0
  0
APPID
  2
ACDBATTR
 70
     0
  0
ENDTAB
  0
TABLE
  2
DIMSTYLE
 70
     1
  0
DIMSTYLE
  2
STANDARD
 70
     0
  3

  4

  5

  6

  7

 40
1.0
 41
0.1875
 42
0.0625
 43
0.38
 44
0.125
 45
0.0
 46
0.0
 47
0.01
 48
0.01
140
0.15625
141
0.09
142
0.0
143
25.3999999999999986
144
1.0
145
0.0
146
1.0
147
0.09
 71
     1
 72
     0
 73
     1
 74
     1
 75
     0
 76
     0
 77
     0
 78
     4
170
     0
171
     2
172
     0
173
     0
174
     0
175
     0
176
     0
177
     0
178
     0
  0
ENDTAB
  0
ENDSEC
  0
SECTION
  2
BLOCKS
  0
BLOCK
  8
0
  2
$MODEL_SPACE
 70
     0
 10
0.0
 20
0.0
 30
0.0
  3
$MODEL_SPACE
  1

  0
ENDBLK
  5
21
  8
0
  0
BLOCK
 67
     1
  8
0
  2
$PAPER_SPACE
 70
     0
 10
0.0
 20
0.0
 30
0.0
  3
$PAPER_SPACE
  1

  0
ENDBLK
  5
1D
 67
     1
  8
0
  0
BLOCK
  8
0
  2
_FILLED
 70
     0
 10
0.0
 20
0.0
 30
0.0
  3
_FILLED
  1

  0
SOLID
  5
69B4
  8
0
  6
BYBLOCK
 62
     0
 10
0.0
 20
0.0
 30
0.0
 11
-1.0
 21
0.1666666667
 31
0.0
 12
-1.0
 22
-0.1666666667
 32
0.0
 13
-1.0
 23
-0.1666666667
 33
0.0
  0
ENDBLK
  5
69B5
  8
0
  6
BYBLOCK
 62
     0
  0
BLOCK
  8
0
  2
A$CDFAF6206
 70
     0
 10
0.0
 20
0.0
 30
0.0
  3
A$CDFAF6206
  1

  0
LINE
  5
6A0E
  8
0
 10
7.4646650085734834
 20
10.9287685970688493
 30
0.0
 11
7.4646650085734896
 21
10.8905784766688498
 31
0.0
  0
ARC
  5
6A0F
  8
0
 10
7.7269027075262349
 20
10.8926811525838598
 30
0.0
 40
0.2622461286616791
 50
180.4593995232625048
 51
217.0214027758331099
  0
LINE
  5
6A10
  8
0
 10
9.767814609867095
 20
10.9287685970688493
 30
0.0
 11
9.767814609867095
 21
10.8905433757650094
 31
0.0
  0
ARC
  5
6A11
  8
0
 10
9.5068669568548287
 20
10.8922438613003703
 30
0.0
 40
0.2609531936261092
 50
322.8847083717149076
 51
359.6266329125650145
  0
LINE
  5
6A12
  8
0
 10
7.517522606271406
 20
10.7347792678688396
 30
0.0
 11
9.7149570120691777
 21
10.7347792678688396
 31
0.0
  0
LINE
  5
6A13
  8
0
 10
7.4646650085734834
 20
10.9287685970688493
 30
0.0
 11
9.7678146123202936
 21
10.9287685970688493
 31
0.0
  0
ARC
  5
6A14
  8
0
 10
4.0826771419203629
 20
8.527951346868889
 30
0.0
 40
4.0826771653999172
 50
13.3117747050523896
 51
32.7200330051415591
  0
ARC
  5
6A15
  8
0
 10
4.0826771460567306
 20
8.5279513475907933
 30
0.0
 40
4.0826771612084691
 50
359.6656501984817851
 51
13.3117747085593798
  0
ARC
  5
6A16
  8
0
 10
13.1498041284835097
 20
8.5279508235212234
 30
0.0
 40
4.0826788382043553
 50
147.2799733478981068
 51
166.6882233021349862
  0
ARC
  5
6A17
  8
0
 10
13.1498064934207992
 20
8.5279506557033251
 30
0.0
 40
4.0826811782395342
 50
166.688228652086309
 51
180.3343397625230011
  0
LINE
  5
6A18
  8
0
 10
8.1652847935202928
 20
8.504127000268852
 30
0.0
 11
9.0671948248202892
 21
8.5041270002687881
 31
0.0
  0
LINE
  5
6A19
  8
0
 10
8.1652847935202786
 20
8.5041270002667204
 30
0.0
 11
8.1652847935202928
 21
8.3607006934688481
 31
0.0
  0
ARC
  5
6A1A
  8
0
 10
5.6196779630382627
 20
8.3631022096452732
 30
0.0
 40
2.545607963272567
 50
342.0511668832173768
 51
359.945947387132378
  0
LINE
  5
6A1B
  8
0
 10
9.0671948248202892
 20
8.5041270002687881
 30
0.0
 11
9.0671948248202892
 21
8.2885990108688503
 31
0.0
  0
ARC
  5
6A1C
  8
0
 10
9.4521885297801163
 20
7.9614488056228501
 30
0.0
 40
0.5052201595850959
 50
139.6436242991769916
 51
174.6757930071850069
  0
ARC
  5
6A1D
  8
0
 10
9.9238413395551746
 20
8.1492417579399508
 30
0.0
 40
0.9848265662939324
 50
188.2263441834095943
 51
209.5593615864376034
  0
ARC
  5
6A1E
  8
0
 10
8.0788764238271256
 20
7.5665710856463297
 30
0.0
 40
0.0393715937169877
 50
162.1669117288323037
 51
227.2023190037006088
  0
ARC
  5
6A1F
  8
0
 10
8.7223682141740682
 20
8.2079667397440517
 30
0.0
 40
0.947895137885075
 50
225.0018610752970858
 51
261.4598823366255829
  0
ARC
  5
6A20
  8
0
 10
8.6645157662702701
 20
8.1695128573935332
 30
0.0
 40
0.9027466462812931
 50
264.7303071214498118
 51
281.8608311947915013
  0
ARC
  5
6A21
  8
0
 10
8.6645157662698935
 20
8.1695128573999671
 30
0.0
 40
0.9027466462876658
 50
299.1741886792128753
 51
299.1743179154552195
  0
ARC
  5
6A22
  8
0
 10
9.0843330931590316
 20
7.4150554710086141
 30
0.0
 40
0.0393703053609601
 50
251.9700352025496954
 51
252.4698971938937859
  0
ARC
  5
6A23
  8
0
 10
9.0843330931590316
 20
7.4150554710086141
 30
0.0
 40
0.0393703053609601
 50
297.2453716727138726
 51
6.8376113572703074
  0
LINE
  5
6A24
  8
0
 10
9.0671948248202892
 20
7.663402160468852
 30
0.0
 11
9.1234233799329516
 21
7.419742732911689
 31
0.0
  0
ARC
  5
6A25
  8
0
 10
8.8843741880892395
 20
9.8961379890094676
 30
0.0
 40
2.5255097382132701
 50
263.792800240752797
 51
274.9514951129821156
  0
ARC
  5
6A26
  8
0
 10
8.8258167405968848
 20
9.2763025889666508
 30
0.0
 40
1.9029970832759311
 50
246.0108363320686067
 51
263.5276935074397215
  0
ARC
  5
6A27
  8
0
 10
8.607491361665744
 20
8.3225444804829642
 30
0.0
 40
1.064510137163637
 50
283.1717405874071005
 51
297.7022170607311864
  0
LINE
  5
6A28
  8
0
 10
9.0671948248202892
 20
8.2885990108688503
 30
0.0
 11
26.2014378595979593
 21
8.2885990108689942
 31
0.0
  0
LINE
  5
6A29
  8
0
 10
26.2014378595979913
 20
7.6634021604689053
 30
0.0
 11
9.0671948248202892
 21
7.6634021604688618
 31
0.0
  0
LINE
  5
6A2A
  8
0
 10
27.8039676758446994
 20
10.9287685970690802
 30
0.0
 11
27.8039676758446888
 21
10.8905784766690807
 31
0.0
  0
ARC
  5
6A2B
  8
0
 10
27.5417299768919399
 20
10.8926811525840801
 30
0.0
 40
0.2622461286616791
 50
322.9785972241680838
 51
359.5406004767386889
  0
LINE
  5
6A2C
  8
0
 10
25.5008180745510913
 20
10.9287685970690305
 30
0.0
 11
25.5008180745510913
 21
10.8905433757651799
 31
0.0
  0
ARC
  5
6A2D
  8
0
 10
25.7617657275633505
 20
10.8922438613005497
 30
0.0
 40
0.2609531936261092
 50
180.3733670874362929
 51
217.1152916282862861
  0
LINE
  5
6A2E
  8
0
 10
27.7511100781467803
 20
10.7347792678690706
 30
0.0
 11
25.5536756723490015
 21
10.7347792678690208
 31
0.0
  0
LINE
  5
6A2F
  8
0
 10
27.8039676758446888
 20
10.9287685970686006
 30
0.0
 11
25.5008180745510806
 21
10.9287685970686006
 31
0.0
  0
ARC
  5
6A30
  8
0
 10
31.1859555424978616
 20
8.5279513468691981
 30
0.0
 40
4.0826771653999172
 50
147.2799669948597057
 51
166.6882252949490066
  0
ARC
  5
6A31
  8
0
 10
31.185955538361501
 20
8.5279513475911024
 30
0.0
 40
4.0826771612084691
 50
166.6882252914419098
 51
180.3343498015194086
  0
ARC
  5
6A32
  8
0
 10
22.1188285559344706
 20
8.5279508235212251
 30
0.0
 40
4.0826788382046102
 50
13.3117766978667795
 51
32.7200266521023977
  0
ARC
  5
6A33
  8
0
 10
22.1188261909974315
 20
8.5279506557034264
 30
0.0
 40
4.0826811782395342
 50
359.665660237478221
 51
13.31177134791497
  0
LINE
  5
6A34
  8
0
 10
27.1033478908979397
 20
8.5041270002690652
 30
0.0
 11
26.2014378595979416
 21
8.5041270002689835
 31
0.0
  0
LINE
  5
6A35
  8
0
 10
27.1033478908979504
 20
8.5041270002669354
 30
0.0
 11
27.1033478908979397
 21
8.3607006934690649
 31
0.0
  0
ARC
  5
6A36
  8
0
 10
29.6489547213799689
 20
8.3631022096455467
 30
0.0
 40
2.545607963272567
 50
180.0540526128687873
 51
197.9488331167837032
  0
LINE
  5
6A37
  8
0
 10
26.2014378595979416
 20
8.5041270002689835
 30
0.0
 11
26.2014378595979487
 21
8.2885990108690457
 31
0.0
  0
ARC
  5
6A38
  8
0
 10
25.8164441546381305
 20
7.9614488056230366
 30
0.0
 40
0.5052201595850959
 50
5.324206992816312
 51
40.3563757008241879
  0
ARC
  5
6A39
  8
0
 10
25.3447913448601803
 20
8.149241757940846
 30
0.0
 40
0.9848265662968968
 50
330.4406384136033807
 51
351.7736558165743759
  0
ARC
  5
6A3A
  8
0
 10
27.1897562605911212
 20
7.5665710856465473
 30
0.0
 40
0.0393715937169877
 50
312.7976809963004143
 51
17.8330882711689185
  0
ARC
  5
6A3B
  8
0
 10
26.5462644702441715
 20
8.2079667397442542
 30
0.0
 40
0.947895137885075
 50
278.5401176633754972
 51
314.9981389247041079
  0
ARC
  5
6A3C
  8
0
 10
26.6041169181479695
 20
8.1695128573937392
 30
0.0
 40
0.9027466462812931
 50
258.139168805210204
 51
275.2696928785518935
  0
ARC
  5
6A3D
  8
0
 10
26.6041169181483497
 20
8.1695128574001732
 30
0.0
 40
0.9027466462876658
 50
240.8256820845460027
 51
240.8258113207880058
  0
ARC
  5
6A3E
  8
0
 10
26.1842995912592293
 20
7.4150554710088086
 30
0.0
 40
0.0393703053609601
 50
287.5301028061073794
 51
288.0299647974517825
  0
ARC
  5
6A3F
  8
0
 10
26.1842995912592293
 20
7.4150554710088086
 30
0.0
 40
0.0393703053609601
 50
173.1623886427310026
 51
242.7546283272870085
  0
LINE
  5
6A40
  8
0
 10
26.2014378595981192
 20
7.6634021604690448
 30
0.0
 11
26.1452093044853093
 21
7.4197427329118826
 31
0.0
  0
ARC
  5
6A41
  8
0
 10
26.384258496328961
 20
9.8961379890096666
 30
0.0
 40
2.5255097382132701
 50
265.0485048870193054
 51
276.2071997592482262
  0
ARC
  5
6A42
  8
0
 10
26.4428159438213299
 20
9.2763025889668516
 30
0.0
 40
1.9029970832759311
 50
276.4723064925619838
 51
293.9891636679327007
  0
ARC
  5
6A43
  8
0
 10
26.6611413227524885
 20
8.3225444804831703
 30
0.0
 40
1.064510137163637
 50
242.2977829392704052
 51
256.8282594125943774
  0
LINE
  5
6A44
  8
0
 62
     4
 10
17.9031473532159602
 20
10.9287685970686006
 30
0.0
 11
24.6329820359843588
 21
20.0952817181593808
 31
0.0
  0
LINE
  5
6A45
  8
0
 62
     4
 10
17.9031473532159602
 20
-0.0000000300842942
 30
0.0
 11
22.3963351323106608
 21
4.993614497796286
 31
0.0
  0
ENDBLK
  5
6A49
  8
0
  0
ENDSEC
  0
SECTION
  2
ENTITIES
  0
ATTDEF
  5
3930
  8
DEFPOINTS
 10
3977.8281438696608348
 20
78.1803023648076021
 30
0.0
 40
0.001
  1
K-72781T-4
  3

  2
MODELNUMBER
 70
     0
1001
ACDBATTR
1070
     0
1070
     1
  0
ATTDEF
  5
3931
  8
DEFPOINTS
 10
3977.8280829159862151
 20
78.1791346307202275
 30
0.0
 40
0.001
  1
ELLISTON
  3

  2
TRADENAME
 70
     0
1001
ACDBATTR
1070
     0
1070
     1
  0
ATTDEF
  5
3932
  8
DEFPOINTS
 10
3977.8281438696608348
 20
78.1769690314742718
 30
0.0
 40
0.001
  1
BATHROOM SINK FAUCET
  3

  2
PRODUCT
 70
     0
1001
ACDBATTR
1070
     0
1070
     1
  0
CIRCLE
  5
8904
  8
0
 10
3977.8270441524928174
 20
78.1758330323912674
 30
0.0
 40
0.3204543425999988
  0
CIRCLE
  5
8905
  8
0
 10
3977.8270441524928174
 20
78.1758330323912674
 30
0.0
 40
0.4118518463000003
  0
ARC
  5
8906
  8
0
 10
3977.8296434206968115
 20
78.1964293281362472
 30
0.0
 40
0.6773457257050695
 50
90.2122449191052169
 51
187.1405989777389891
  0
ARC
  5
8907
  8
0
 10
3980.0221268678787965
 20
78.2215300242168894
 30
0.0
 40
2.866660123570862
 50
182.1850604672474105
 51
192.0053437134993999
  0
ARC
  5
8908
  8
0
 10
3971.5161296038868386
 20
76.5866726633789341
 30
0.0
 40
5.7958495706145934
 50
4.0501717566343443
 51
10.3228384659916106
  0
ARC
  5
8909
  8
0
 10
3955.372625394933948
 20
76.0700073989171131
 30
0.0
 40
21.9444263823903789
 50
0.6948399623675838
 51
2.4185248212778698
  0
ARC
  5
890A
  8
0
 10
3934.2086244027659632
 20
76.2826243109082753
 30
0.0
 40
43.1068469121084021
 50
356.4606802131966106
 51
0.0711125946368372
  0
ARC
  5
890B
  8
0
 10
3977.7480368952301433
 20
73.2773239607856084
 30
0.0
 40
0.6192348612519259
 50
146.2349588649780117
 51
178.7340496177758951
  0
ARC
  5
890C
  8
0
 10
3978.0044154374718346
 20
73.3483226314722856
 30
0.0
 40
0.8773365908467152
 50
183.745891909218301
 51
215.6115034279465874
  0
ARC
  5
890D
  8
0
 10
3977.8242442435262092
 20
73.3434976663027953
 30
0.0
 40
0.7350215434266261
 50
223.5086608554580891
 51
270.2252845578620963
  0
ARC
  5
890E
  8
0
 10
3977.8271419177708594
 20
78.1758330323912674
 30
0.0
 40
1.0891545165269441
 50
300.4350141282452
 51
239.5641091118014003
  0
ARC
  5
890F
  8
0
 10
3977.8246347315789535
 20
78.1964293764675347
 30
0.0
 40
0.6773456419489488
 50
352.8589096638277169
 51
89.788565536461391
  0
ARC
  5
8910
  8
0
 10
3975.6321514105470669
 20
78.2215487258792308
 30
0.0
 40
2.8666601235708611
 50
347.9941681168834862
 51
357.8144513631337986
  0
ARC
  5
8911
  8
0
 10
3984.138134744972831
 20
76.5866188925821518
 30
0.0
 40
5.7958495706145916
 50
169.6766733643883924
 51
175.9493400737474076
  0
ARC
  5
8912
  8
0
 10
4000.2816345512651424
 20
76.0698160827848824
 30
0.0
 40
21.9444263823903789
 50
177.5809870091036942
 51
179.3046718680143101
  0
ARC
  5
8913
  8
0
 10
4021.4456373541961511
 20
76.2822526739423523
 30
0.0
 40
43.1068469121084021
 50
179.9283992357451893
 51
183.5388316171849965
  0
ARC
  5
8914
  8
0
 10
3977.9057000887059985
 20
73.277083700785937
 30
0.0
 40
0.6197829971119178
 50
1.2864968363013649
 51
33.757318784075288
  0
ARC
  5
8915
  8
0
 10
3977.6493125653450988
 20
73.3485906267951151
 30
0.0
 40
0.877905373758913
 50
324.3932033063834979
 51
356.2386213086825819
  0
ARC
  5
8916
  8
0
 10
3977.8299930040179788
 20
73.3434968783460732
 30
0.0
 40
0.7350206327952603
 50
269.7771606094127037
 51
316.4908656486962855
  0
ARC
  5
8917
  8
0
 10
3981.827133941692864
 20
78.1758018700912629
 30
0.0
 40
1.055196664493216
 50
10.2622620452017603
 51
350.2292096017002905
  0
CIRCLE
  5
8918
  8
0
 10
3981.8271347073928155
 20
78.1756372447912611
 30
0.0
 40
0.2813626521002843
  0
CIRCLE
  5
8919
  8
0
 10
3981.8271347073928155
 20
78.1757195574912629
 30
0.0
 40
0.3745017367000001
  0
ARC
  5
891A
  8
0
 10
3981.8271347073928155
 20
78.1756372447912611
 30
0.0
 40
0.5061395072214927
 50
10.3208185511915502
 51
339.2997380266760956
  0
ARC
  5
891B
  8
0
 10
3981.827133941692864
 20
78.1758018700912629
 30
0.0
 40
0.5567250207924174
 50
11.9557314072447696
 51
341.2368508500765074
  0
ARC
  5
891C
  8
0
 10
3984.4874388351349808
 20
78.4907087453512418
 30
0.0
 40
0.0510802011532507
 50
10.9698935696116795
 51
101.3439253577251975
  0
ARC
  5
891D
  8
0
 10
3982.8291108245548457
 20
86.1231521186753213
 30
0.0
 40
7.7594476888880219
 50
267.4087144879333096
 51
282.2643500461678059
  0
ARC
  5
891E
  8
0
 10
3983.1165758196698334
 20
78.2090271832718145
 30
0.0
 40
1.450580563493548
 50
352.6133862850600167
 51
11.5887927482132298
  0
ARC
  5
891F
  8
0
 10
3984.5254060535748977
 20
78.0267352325720651
 30
0.0
 40
0.030007717585537
 50
269.9894912543225018
 51
351.9535624770094273
  0
ARC
  5
8920
  8
0
 10
3982.8561694145350884
 20
108.3826490978090931
 30
0.0
 40
30.3374308221912301
 50
269.2863653721054789
 51
273.001745372841981
  0
ARC
  5
8921
  8
0
 10
3982.4744242446108728
 20
77.3024651879443638
 30
0.0
 40
0.7451164132237242
 50
89.7005746914167048
 51
93.6094790717086909
  0
ARC
  5
8922
  8
0
 10
3982.2831800876688249
 20
78.6146184250679738
 30
0.0
 40
0.5865507137476644
 50
272.7666308552624059
 51
284.2453127660839982
  0
ARC
  5
8923
  8
0
 10
3982.2508503111289428
 20
79.0278088398431748
 30
0.0
 40
1.0008993001029201
 50
270.738835875071004
 51
273.4734487925497888
  0
ARC
  5
8924
  8
0
 10
3982.3617674264878588
 20
77.7310577000394858
 30
0.0
 40
0.3117415243961211
 50
108.3252639376545972
 51
118.9452868729756005
  0
ARC
  5
8925
  8
0
 10
3982.1951385203137761
 20
77.9269902439693993
 30
0.0
 40
0.0697601160568651
 50
91.4669159804495848
 51
143.3485394709452123
  0
ARC
  5
8926
  8
0
 10
3982.1945067839437797
 20
78.0190282419199264
 30
0.0
 40
0.0223305875892359
 50
267.0374852419316198
 51
317.2044089677601733
  0
ARC
  5
8927
  8
0
 10
3982.4761152977939673
 20
78.3116784946912787
 30
0.0
 40
0.0600000151999923
 50
87.9151508027906061
 51
144.0894498546028899
  0
ARC
  5
8928
  8
0
 10
3982.2345415951258474
 20
78.4843439366322286
 30
0.0
 40
0.2369378008317397
 50
305.3319676263370184
 51
324.534548737019918
  0
ARC
  5
8929
  8
0
 10
3982.2507125583219931
 20
78.4625598540261677
 30
0.0
 40
0.2098149841009232
 50
269.128634356016903
 51
305.1696229144721997
  0
ARC
  5
892A
  8
0
 10
3982.2482294813921726
 20
78.3337075624544639
 30
0.0
 40
0.080941522978135
 50
220.1833555511749978
 51
269.4990308050882959
  0
LINE
  5
892B
  8
0
 10
3984.5254005497940852
 20
77.9967275154912727
 30
0.0
 11
3982.1957137133858851
 21
77.9967274977674663
 31
0.0
  0
LINE
  5
892C
  8
0
 10
3984.4773914685179079
 20
78.5407910513476395
 30
0.0
 11
3984.444830753376209
 21
78.0868430507387075
 31
0.0
  0
LINE
  5
892D
  8
0
 10
3984.444830753376209
 20
78.0868430507387075
 30
0.0
 11
3984.5438029104579982
 21
78.0030284802875542
 31
0.0
  0
ARC
  5
892F
  8
0
 10
3973.8269543632932255
 20
78.1758018700912629
 30
0.0
 40
1.055196664493216
 50
189.7707903982997095
 51
169.7377379547982059
  0
CIRCLE
  5
8930
  8
0
 10
3973.8269535975928193
 20
78.1756372447912611
 30
0.0
 40
0.2813626521002843
  0
CIRCLE
  5
8931
  8
0
 10
3973.8269535975928193
 20
78.1757195574912629
 30
0.0
 40
0.3745017367000001
  0
ARC
  5
8932
  8
0
 10
3973.8269535975928193
 20
78.1756372447912611
 30
0.0
 40
0.5061395072214927
 50
200.7002619733239044
 51
169.6791814488084071
  0
ARC
  5
8933
  8
0
 10
3973.8269543632932255
 20
78.1758018700912629
 30
0.0
 40
0.5567250207924174
 50
198.7631491499234073
 51
168.044268592755202
  0
ARC
  5
8934
  8
0
 10
3971.1666494698520182
 20
78.4907087453512418
 30
0.0
 40
0.0510802011532507
 50
78.6560746422747883
 51
169.0301064303882868
  0
ARC
  5
8935
  8
0
 10
3972.8249774804321532
 20
86.1231521186753213
 30
0.0
 40
7.7594476888880219
 50
257.7356499538320804
 51
272.5912855120666904
  0
ARC
  5
8936
  8
0
 10
3972.5375124853171656
 20
78.2090271832718145
 30
0.0
 40
1.450580563493548
 50
168.411207251786692
 51
187.3866137149400117
  0
ARC
  5
8937
  8
0
 10
3971.1286822514111918
 20
78.0267352325720651
 30
0.0
 40
0.030007717585537
 50
188.0464375229904874
 51
270.0105087456776118
  0
ARC
  5
8938
  8
0
 10
3972.7979188904510011
 20
108.3826490978090931
 30
0.0
 40
30.3374308221912301
 50
266.998254627158019
 51
270.7136346278945211
  0
ARC
  5
8939
  8
0
 10
3973.1796640603761261
 20
77.3024651879443638
 30
0.0
 40
0.7451164132237242
 50
86.3905209282913376
 51
90.2994253085833094
  0
ARC
  5
893A
  8
0
 10
3973.3709082173190836
 20
78.6146184250679738
 30
0.0
 40
0.5865507137476644
 50
255.7546872339158881
 51
267.2333691447374804
  0
ARC
  5
893B
  8
0
 10
3973.4032379938580561
 20
79.0278088398431748
 30
0.0
 40
1.0008993001029201
 50
266.5265512074502112
 51
269.261164124928996
  0
ARC
  5
893C
  8
0
 10
3973.2923208784991402
 20
77.7310577000394858
 30
0.0
 40
0.3117415243961211
 50
61.0547131270243781
 51
71.6747360623453744
  0
ARC
  5
893D
  8
0
 10
3973.4589497846732229
 20
77.9269902439693993
 30
0.0
 40
0.0697601160568651
 50
36.6514605290547735
 51
88.5330840195504436
  0
ARC
  5
893E
  8
0
 10
3973.4595815210432193
 20
78.0190282419199264
 30
0.0
 40
0.0223305875892359
 50
222.7955910322397983
 51
272.9625147580683802
  0
ARC
  5
893F
  8
0
 10
3973.1779730071930317
 20
78.3116784946912787
 30
0.0
 40
0.0600000151999923
 50
35.9105501453971101
 51
92.0848491972093939
  0
ARC
  5
8940
  8
0
 10
3973.4195467098597874
 20
78.4843439366322286
 30
0.0
 40
0.2369378008317397
 50
215.4654512629801957
 51
234.6680323736628964
  0
ARC
  5
8941
  8
0
 10
3973.4033757466640964
 20
78.4625598540261677
 30
0.0
 40
0.2098149841009232
 50
234.8303770855276866
 51
270.8713656439829833
  0
ARC
  5
8942
  8
0
 10
3973.4058588235939169
 20
78.3337075624544639
 30
0.0
 40
0.080941522978135
 50
270.5009691949117041
 51
319.8166444488251159
  0
LINE
  5
8943
  8
0
 10
3971.1286877551929138
 20
77.9967275154912727
 30
0.0
 11
3973.4583745916011139
 21
77.9967274977674663
 31
0.0
  0
LINE
  5
8944
  8
0
 10
3971.1766968364690911
 20
78.5407910513476395
 30
0.0
 11
3971.2092575516098805
 21
78.0868430507387075
 31
0.0
  0
LINE
  5
8945
  8
0
 10
3971.2092575516098805
 20
78.0868430507387075
 30
0.0
 11
3971.1102853945280913
 21
78.0030284802875542
 31
0.0
  0
ENDSEC
  0
EOF
