  0
SECTION
  2
HEADER
  9
$ACADVER
  1
AC1009
  9
$INSBASE
 10
3978.721738617029132
 20
62.5897066267294306
 30
0.0
  9
$EXTMIN
 10
3955.846570845541919
 20
60.092943973995439
 30
0.0
  9
$EXTMAX
 10
3981.3850010040919187
 20
75.1175353512157216
 30
0.0
  9
$LIMMIN
 10
0.0
 20
0.0
  9
$LIMMAX
 10
11.6929133858000007
 20
8.2677165353999982
  9
$ORTHOMODE
 70
     0
  9
$REGENMODE
 70
     1
  9
$FILLMODE
 70
     1
  9
$QTEXTMODE
 70
     0
  9
$MIRRTEXT
 70
     0
  9
$DRAGMODE
 70
     2
  9
$LTSCALE
 40
0.6431102362
  9
$OSMODE
 70
  4095
  9
$ATTMODE
 70
     1
  9
$TEXTSIZE
 40
0.2
  9
$TRACEWID
 40
0.05
  9
$TEXTSTYLE
  7
STANDARD
  9
$CLAYER
  8
0
  9
$CELTYPE
  6
BYLAYER
  9
$CECOLOR
 62
   256
  9
$DIMSCALE
 40
1.0
  9
$DIMASZ
 40
0.1875
  9
$DIMEXO
 40
0.0625
  9
$DIMDLI
 40
0.4443307087
  9
$DIMRND
 40
0.0
  9
$DIMDLE
 40
0.0
  9
$DIMEXE
 40
0.125
  9
$DIMTP
 40
0.01
  9
$DIMTM
 40
0.01
  9
$DIMTXT
 40
2.0
  9
$DIMCEN
 40
0.1052362205
  9
$DIMTSZ
 40
0.0
  9
$DIMTOL
 70
     1
  9
$DIMLIM
 70
     0
  9
$DIMTIH
 70
     1
  9
$DIMTOH
 70
     1
  9
$DIMSE1
 70
     0
  9
$DIMSE2
 70
     0
  9
$DIMTAD
 70
     0
  9
$DIMZIN
 70
     0
  9
$DIMBLK
  1

  9
$DIMASO
 70
     1
  9
$DIMSHO
 70
     1
  9
$DIMPOST
  1
\X
  9
$DIMAPOST
  1

  9
$DIMALT
 70
     1
  9
$DIMALTD
 70
     2
  9
$DIMALTF
 40
25.3999999999999986
  9
$DIMLFAC
 40
1.0
  9
$DIMTOFL
 70
     0
  9
$DIMTVP
 40
0.0
  9
$DIMTIX
 70
     0
  9
$DIMSOXD
 70
     0
  9
$DIMSAH
 70
     0
  9
$DIMBLK1
  1

  9
$DIMBLK2
  1

  9
$DIMSTYLE
  2
STANDARD
  9
$DIMCLRD
 70
     0
  9
$DIMCLRE
 70
     0
  9
$DIMCLRT
 70
     0
  9
$DIMTFAC
 40
1.0
  9
$DIMGAP
 40
0.09
  9
$LUNITS
 70
     2
  9
$LUPREC
 70
     4
  9
$SKETCHINC
 40
0.1
  9
$FILLETRAD
 40
0.0
  9
$AUNITS
 70
     0
  9
$AUPREC
 70
     0
  9
$MENU
  1
.
  9
$ELEVATION
 40
0.0
  9
$PELEVATION
 40
0.0
  9
$THICKNESS
 40
0.0
  9
$LIMCHECK
 70
     0
  9
$BLIPMODE
 70
     0
  9
$CHAMFERA
 40
0.0
  9
$CHAMFERB
 40
0.0
  9
$SKPOLY
 70
     0
  9
$TDCREATE
 40
2458060.468368056230247
  9
$TDUPDATE
 40
2459101.6603240738622844
  9
$TDINDWG
 40
0.4132362269
  9
$TDUSRTIMER
 40
0.4132362269
  9
$USRTIMER
 70
     1
  9
$ANGBASE
 50
0.0
  9
$ANGDIR
 70
     0
  9
$PDMODE
 70
     0
  9
$PDSIZE
 40
0.3125
  9
$PLINEWID
 40
0.0
  9
$COORDS
 70
     1
  9
$SPLFRAME
 70
     0
  9
$SPLINETYPE
 70
     6
  9
$SPLINESEGS
 70
     8
  9
$ATTDIA
 70
     1
  9
$ATTREQ
 70
     1
  9
$HANDLING
 70
     1
  9
$HANDSEED
  5
8AA8
  9
$SURFTAB1
 70
     6
  9
$SURFTAB2
 70
     6
  9
$SURFTYPE
 70
     6
  9
$SURFU
 70
     6
  9
$SURFV
 70
     6
  9
$UCSNAME
  2

  9
$UCSORG
 10
0.0
 20
0.0
 30
0.0
  9
$UCSXDIR
 10
1.0
 20
0.0
 30
0.0
  9
$UCSYDIR
 10
0.0
 20
1.0
 30
0.0
  9
$PUCSNAME
  2

  9
$PUCSORG
 10
0.0
 20
0.0
 30
0.0
  9
$PUCSXDIR
 10
1.0
 20
0.0
 30
0.0
  9
$PUCSYDIR
 10
0.0
 20
1.0
 30
0.0
  9
$USERI1
 70
     0
  9
$USERI2
 70
     0
  9
$USERI3
 70
     0
  9
$USERI4
 70
     0
  9
$USERI5
 70
     0
  9
$USERR1
 40
0.0
  9
$USERR2
 40
0.0
  9
$USERR3
 40
0.0
  9
$USERR4
 40
0.0
  9
$USERR5
 40
0.0
  9
$WORLDVIEW
 70
     1
  9
$SHADEDGE
 70
     3
  9
$SHADEDIF
 70
    70
  9
$TILEMODE
 70
     1
  9
$MAXACTVP
 70
    64
  9
$PLIMCHECK
 70
     0
  9
$PEXTMIN
 10
1.0000000000000000E+20
 20
1.0000000000000000E+20
 30
1.0000000000000000E+20
  9
$PEXTMAX
 10
-1.0000000000000000E+20
 20
-1.0000000000000000E+20
 30
-1.0000000000000000E+20
  9
$PLIMMIN
 10
0.0
 20
0.0
  9
$PLIMMAX
 10
12.0
 20
9.0
  9
$UNITMODE
 70
     0
  9
$VISRETAIN
 70
     1
  9
$PLINEGEN
 70
     0
  9
$PSLTSCALE
 70
     1
  0
ENDSEC
  0
SECTION
  2
TABLES
  0
TABLE
  2
VPORT
 70
     1
  0
VPORT
  2
*ACTIVE
 70
     0
 10
0.0
 20
0.0
 11
1.0
 21
1.0
 12
206.916916406285992
 22
-68.1026125151574178
 13
0.0
 23
0.0
 14
1.0
 24
1.0
 15
0.0
 25
0.0
 16
0.0
 26
0.0
 36
5.1040778033513332
 17
3792.35791015625
 27
120.1806564331053977
 37
0.0
 40
142.3904155778309928
 41
2.005224660397074
 42
50.0
 43
0.0
 44
0.0
 50
0.0
 51
0.0
 71
     0
 72
   100
 73
     1
 74
     1
 75
     0
 76
     0
 77
     0
 78
     0
  0
ENDTAB
  0
TABLE
  2
LTYPE
 70
     2
  0
LTYPE
  2
CONTINUOUS
 70
     0
  3
Solid line
 72
    65
 73
     0
 40
0.0
  0
LTYPE
  2
PHANTOM2
 70
     0
  3
___ _ _ ___ _ _ ___ _ _ ___ _ _
 72
    65
 73
     6
 40
1.25
 49
0.625
 49
-0.125
 49
0.125
 49
-0.125
 49
0.125
 49
-0.125
  0
ENDTAB
  0
TABLE
  2
LAYER
 70
     2
  0
LAYER
  2
0
 70
     0
 62
   255
  6
CONTINUOUS
  0
LAYER
  2
DEFPOINTS
 70
     0
 62
     7
  6
CONTINUOUS
  0
ENDTAB
  0
TABLE
  2
STYLE
 70
     1
  0
STYLE
  2
STANDARD
 70
     0
 40
0.0
 41
0.8
 50
0.0
 71
     0
 42
0.2
  3
txt
  4

  0
ENDTAB
  0
TABLE
  2
VIEW
 70
     0
  0
ENDTAB
  0
TABLE
  2
UCS
 70
     0
  0
ENDTAB
  0
TABLE
  2
APPID
 70
     9
  0
APPID
  2
ACAD
 70
     0
  0
APPID
  2
ACAD_MLEADERVER
 70
     0
  0
APPID
  2
ACAD_EXEMPT_FROM_CAD_STANDARDS
 70
     0
  0
APPID
  2
ACAD_NAV_VCDISPLAY
 70
     0
  0
APPID
  2
ACAECLAYERSTANDARD
 70
     0
  0
APPID
  2
ACCMTRANSPARENCY
 70
     0
  0
APPID
  2
ACAD_DSTYLE_DIMJAG
 70
     0
  0
APPID
  2
ACAD_DSTYLE_DIMTALN
 70
     0
  0
APPID
  2
ACDBATTR
 70
     0
  0
ENDTAB
  0
TABLE
  2
DIMSTYLE
 70
     1
  0
DIMSTYLE
  2
STANDARD
 70
     0
  3

  4

  5

  6

  7

 40
1.0
 41
0.1875
 42
0.0625
 43
0.38
 44
0.125
 45
0.0
 46
0.0
 47
0.01
 48
0.01
140
0.15625
141
0.09
142
0.0
143
25.3999999999999986
144
1.0
145
0.0
146
1.0
147
0.09
 71
     1
 72
     0
 73
     1
 74
     1
 75
     0
 76
     0
 77
     0
 78
     4
170
     0
171
     2
172
     0
173
     0
174
     0
175
     0
176
     0
177
     0
178
     0
  0
ENDTAB
  0
ENDSEC
  0
SECTION
  2
BLOCKS
  0
BLOCK
  8
0
  2
$MODEL_SPACE
 70
     0
 10
0.0
 20
0.0
 30
0.0
  3
$MODEL_SPACE
  1

  0
ENDBLK
  5
21
  8
0
  0
BLOCK
 67
     1
  8
0
  2
$PAPER_SPACE
 70
     0
 10
0.0
 20
0.0
 30
0.0
  3
$PAPER_SPACE
  1

  0
ENDBLK
  5
1D
 67
     1
  8
0
  0
BLOCK
  8
0
  2
_FILLED
 70
     0
 10
0.0
 20
0.0
 30
0.0
  3
_FILLED
  1

  0
SOLID
  5
69B4
  8
0
  6
BYBLOCK
 62
     0
 10
0.0
 20
0.0
 30
0.0
 11
-1.0
 21
0.1666666667
 31
0.0
 12
-1.0
 22
-0.1666666667
 32
0.0
 13
-1.0
 23
-0.1666666667
 33
0.0
  0
ENDBLK
  5
69B5
  8
0
  6
BYBLOCK
 62
     0
  0
BLOCK
  8
0
  2
A$CDFAF6206
 70
     0
 10
0.0
 20
0.0
 30
0.0
  3
A$CDFAF6206
  1

  0
LINE
  5
6A0E
  8
0
 10
7.4646650085734834
 20
10.9287685970688493
 30
0.0
 11
7.4646650085734896
 21
10.8905784766688498
 31
0.0
  0
ARC
  5
6A0F
  8
0
 10
7.7269027075262349
 20
10.8926811525838598
 30
0.0
 40
0.2622461286616791
 50
180.4593995232625048
 51
217.0214027758331099
  0
LINE
  5
6A10
  8
0
 10
9.767814609867095
 20
10.9287685970688493
 30
0.0
 11
9.767814609867095
 21
10.8905433757650094
 31
0.0
  0
ARC
  5
6A11
  8
0
 10
9.5068669568548287
 20
10.8922438613003703
 30
0.0
 40
0.2609531936261092
 50
322.8847083717149076
 51
359.6266329125650145
  0
LINE
  5
6A12
  8
0
 10
7.517522606271406
 20
10.7347792678688396
 30
0.0
 11
9.7149570120691777
 21
10.7347792678688396
 31
0.0
  0
LINE
  5
6A13
  8
0
 10
7.4646650085734834
 20
10.9287685970688493
 30
0.0
 11
9.7678146123202936
 21
10.9287685970688493
 31
0.0
  0
ARC
  5
6A14
  8
0
 10
4.0826771419203629
 20
8.527951346868889
 30
0.0
 40
4.0826771653999172
 50
13.3117747050523896
 51
32.7200330051415591
  0
ARC
  5
6A15
  8
0
 10
4.0826771460567306
 20
8.5279513475907933
 30
0.0
 40
4.0826771612084691
 50
359.6656501984817851
 51
13.3117747085593798
  0
ARC
  5
6A16
  8
0
 10
13.1498041284835097
 20
8.5279508235212234
 30
0.0
 40
4.0826788382043553
 50
147.2799733478981068
 51
166.6882233021349862
  0
ARC
  5
6A17
  8
0
 10
13.1498064934207992
 20
8.5279506557033251
 30
0.0
 40
4.0826811782395342
 50
166.688228652086309
 51
180.3343397625230011
  0
LINE
  5
6A18
  8
0
 10
8.1652847935202928
 20
8.504127000268852
 30
0.0
 11
9.0671948248202892
 21
8.5041270002687881
 31
0.0
  0
LINE
  5
6A19
  8
0
 10
8.1652847935202786
 20
8.5041270002667204
 30
0.0
 11
8.1652847935202928
 21
8.3607006934688481
 31
0.0
  0
ARC
  5
6A1A
  8
0
 10
5.6196779630382627
 20
8.3631022096452732
 30
0.0
 40
2.545607963272567
 50
342.0511668832173768
 51
359.945947387132378
  0
LINE
  5
6A1B
  8
0
 10
9.0671948248202892
 20
8.5041270002687881
 30
0.0
 11
9.0671948248202892
 21
8.2885990108688503
 31
0.0
  0
ARC
  5
6A1C
  8
0
 10
9.4521885297801163
 20
7.9614488056228501
 30
0.0
 40
0.5052201595850959
 50
139.6436242991769916
 51
174.6757930071850069
  0
ARC
  5
6A1D
  8
0
 10
9.9238413395551746
 20
8.1492417579399508
 30
0.0
 40
0.9848265662939324
 50
188.2263441834095943
 51
209.5593615864376034
  0
ARC
  5
6A1E
  8
0
 10
8.0788764238271256
 20
7.5665710856463297
 30
0.0
 40
0.0393715937169877
 50
162.1669117288323037
 51
227.2023190037006088
  0
ARC
  5
6A1F
  8
0
 10
8.7223682141740682
 20
8.2079667397440517
 30
0.0
 40
0.947895137885075
 50
225.0018610752970858
 51
261.4598823366255829
  0
ARC
  5
6A20
  8
0
 10
8.6645157662702701
 20
8.1695128573935332
 30
0.0
 40
0.9027466462812931
 50
264.7303071214498118
 51
281.8608311947915013
  0
ARC
  5
6A21
  8
0
 10
8.6645157662698935
 20
8.1695128573999671
 30
0.0
 40
0.9027466462876658
 50
299.1741886792128753
 51
299.1743179154552195
  0
ARC
  5
6A22
  8
0
 10
9.0843330931590316
 20
7.4150554710086141
 30
0.0
 40
0.0393703053609601
 50
251.9700352025496954
 51
252.4698971938937859
  0
ARC
  5
6A23
  8
0
 10
9.0843330931590316
 20
7.4150554710086141
 30
0.0
 40
0.0393703053609601
 50
297.2453716727138726
 51
6.8376113572703074
  0
LINE
  5
6A24
  8
0
 10
9.0671948248202892
 20
7.663402160468852
 30
0.0
 11
9.1234233799329516
 21
7.419742732911689
 31
0.0
  0
ARC
  5
6A25
  8
0
 10
8.8843741880892395
 20
9.8961379890094676
 30
0.0
 40
2.5255097382132701
 50
263.792800240752797
 51
274.9514951129821156
  0
ARC
  5
6A26
  8
0
 10
8.8258167405968848
 20
9.2763025889666508
 30
0.0
 40
1.9029970832759311
 50
246.0108363320686067
 51
263.5276935074397215
  0
ARC
  5
6A27
  8
0
 10
8.607491361665744
 20
8.3225444804829642
 30
0.0
 40
1.064510137163637
 50
283.1717405874071005
 51
297.7022170607311864
  0
LINE
  5
6A28
  8
0
 10
9.0671948248202892
 20
8.2885990108688503
 30
0.0
 11
26.2014378595979593
 21
8.2885990108689942
 31
0.0
  0
LINE
  5
6A29
  8
0
 10
26.2014378595979913
 20
7.6634021604689053
 30
0.0
 11
9.0671948248202892
 21
7.6634021604688618
 31
0.0
  0
LINE
  5
6A2A
  8
0
 10
27.8039676758446994
 20
10.9287685970690802
 30
0.0
 11
27.8039676758446888
 21
10.8905784766690807
 31
0.0
  0
ARC
  5
6A2B
  8
0
 10
27.5417299768919399
 20
10.8926811525840801
 30
0.0
 40
0.2622461286616791
 50
322.9785972241680838
 51
359.5406004767386889
  0
LINE
  5
6A2C
  8
0
 10
25.5008180745510913
 20
10.9287685970690305
 30
0.0
 11
25.5008180745510913
 21
10.8905433757651799
 31
0.0
  0
ARC
  5
6A2D
  8
0
 10
25.7617657275633505
 20
10.8922438613005497
 30
0.0
 40
0.2609531936261092
 50
180.3733670874362929
 51
217.1152916282862861
  0
LINE
  5
6A2E
  8
0
 10
27.7511100781467803
 20
10.7347792678690706
 30
0.0
 11
25.5536756723490015
 21
10.7347792678690208
 31
0.0
  0
LINE
  5
6A2F
  8
0
 10
27.8039676758446888
 20
10.9287685970686006
 30
0.0
 11
25.5008180745510806
 21
10.9287685970686006
 31
0.0
  0
ARC
  5
6A30
  8
0
 10
31.1859555424978616
 20
8.5279513468691981
 30
0.0
 40
4.0826771653999172
 50
147.2799669948597057
 51
166.6882252949490066
  0
ARC
  5
6A31
  8
0
 10
31.185955538361501
 20
8.5279513475911024
 30
0.0
 40
4.0826771612084691
 50
166.6882252914419098
 51
180.3343498015194086
  0
ARC
  5
6A32
  8
0
 10
22.1188285559344706
 20
8.5279508235212251
 30
0.0
 40
4.0826788382046102
 50
13.3117766978667795
 51
32.7200266521023977
  0
ARC
  5
6A33
  8
0
 10
22.1188261909974315
 20
8.5279506557034264
 30
0.0
 40
4.0826811782395342
 50
359.665660237478221
 51
13.31177134791497
  0
LINE
  5
6A34
  8
0
 10
27.1033478908979397
 20
8.5041270002690652
 30
0.0
 11
26.2014378595979416
 21
8.5041270002689835
 31
0.0
  0
LINE
  5
6A35
  8
0
 10
27.1033478908979504
 20
8.5041270002669354
 30
0.0
 11
27.1033478908979397
 21
8.3607006934690649
 31
0.0
  0
ARC
  5
6A36
  8
0
 10
29.6489547213799689
 20
8.3631022096455467
 30
0.0
 40
2.545607963272567
 50
180.0540526128687873
 51
197.9488331167837032
  0
LINE
  5
6A37
  8
0
 10
26.2014378595979416
 20
8.5041270002689835
 30
0.0
 11
26.2014378595979487
 21
8.2885990108690457
 31
0.0
  0
ARC
  5
6A38
  8
0
 10
25.8164441546381305
 20
7.9614488056230366
 30
0.0
 40
0.5052201595850959
 50
5.324206992816312
 51
40.3563757008241879
  0
ARC
  5
6A39
  8
0
 10
25.3447913448601803
 20
8.149241757940846
 30
0.0
 40
0.9848265662968968
 50
330.4406384136033807
 51
351.7736558165743759
  0
ARC
  5
6A3A
  8
0
 10
27.1897562605911212
 20
7.5665710856465473
 30
0.0
 40
0.0393715937169877
 50
312.7976809963004143
 51
17.8330882711689185
  0
ARC
  5
6A3B
  8
0
 10
26.5462644702441715
 20
8.2079667397442542
 30
0.0
 40
0.947895137885075
 50
278.5401176633754972
 51
314.9981389247041079
  0
ARC
  5
6A3C
  8
0
 10
26.6041169181479695
 20
8.1695128573937392
 30
0.0
 40
0.9027466462812931
 50
258.139168805210204
 51
275.2696928785518935
  0
ARC
  5
6A3D
  8
0
 10
26.6041169181483497
 20
8.1695128574001732
 30
0.0
 40
0.9027466462876658
 50
240.8256820845460027
 51
240.8258113207880058
  0
ARC
  5
6A3E
  8
0
 10
26.1842995912592293
 20
7.4150554710088086
 30
0.0
 40
0.0393703053609601
 50
287.5301028061073794
 51
288.0299647974517825
  0
ARC
  5
6A3F
  8
0
 10
26.1842995912592293
 20
7.4150554710088086
 30
0.0
 40
0.0393703053609601
 50
173.1623886427310026
 51
242.7546283272870085
  0
LINE
  5
6A40
  8
0
 10
26.2014378595981192
 20
7.6634021604690448
 30
0.0
 11
26.1452093044853093
 21
7.4197427329118826
 31
0.0
  0
ARC
  5
6A41
  8
0
 10
26.384258496328961
 20
9.8961379890096666
 30
0.0
 40
2.5255097382132701
 50
265.0485048870193054
 51
276.2071997592482262
  0
ARC
  5
6A42
  8
0
 10
26.4428159438213299
 20
9.2763025889668516
 30
0.0
 40
1.9029970832759311
 50
276.4723064925619838
 51
293.9891636679327007
  0
ARC
  5
6A43
  8
0
 10
26.6611413227524885
 20
8.3225444804831703
 30
0.0
 40
1.064510137163637
 50
242.2977829392704052
 51
256.8282594125943774
  0
LINE
  5
6A44
  8
0
 62
     4
 10
17.9031473532159602
 20
10.9287685970686006
 30
0.0
 11
24.6329820359843588
 21
20.0952817181593808
 31
0.0
  0
LINE
  5
6A45
  8
0
 62
     4
 10
17.9031473532159602
 20
-0.0000000300842942
 30
0.0
 11
22.3963351323106608
 21
4.993614497796286
 31
0.0
  0
ENDBLK
  5
6A49
  8
0
  0
ENDSEC
  0
SECTION
  2
ENTITIES
  0
ATTDEF
  5
3930
  8
DEFPOINTS
 10
3978.7229177608987811
 20
62.5916985567542028
 30
0.0
 40
0.001
  1
K-72781T-4
  3

  2
MODELNUMBER
 70
     0
1001
ACDBATTR
1070
     0
1070
     1
  0
ATTDEF
  5
3931
  8
DEFPOINTS
 10
3978.7228568072241615
 20
62.5905308226668211
 30
0.0
 40
0.001
  1
ELLISTON
  3

  2
TRADENAME
 70
     0
1001
ACDBATTR
1070
     0
1070
     1
  0
ATTDEF
  5
3932
  8
DEFPOINTS
 10
3978.7229177608987811
 20
62.5883652234208583
 30
0.0
 40
0.001
  1
BATHROOM SINK FAUCET
  3

  2
PRODUCT
 70
     0
1001
ACDBATTR
1070
     0
1070
     1
  0
ARC
  5
89AC
  8
0
 10
3978.339747530132172
 20
67.734597076715346
 30
0.0
 40
0.0301617409050577
 50
102.3466462527234029
 51
170.6533015414065915
  0
ARC
  5
89AD
  8
0
 10
3978.3166579608919164
 20
67.8558596998679349
 30
0.0
 40
0.0932944558124098
 50
280.2743819278525734
 51
335.4557506854159215
  0
ARC
  5
89AE
  8
0
 10
3978.4283702102720781
 20
67.8047461640291829
 30
0.0
 40
0.0295560462570414
 50
101.1346488575031941
 51
155.2809976813811943
  0
ARC
  5
89AF
  8
0
 10
3978.7150074170849621
 20
66.2614131183419204
 30
0.0
 40
1.5992797678781769
 50
89.7553070977981236
 51
100.5327703500211953
  0
ARC
  5
89B0
  8
0
 10
3978.7923687214620259
 20
67.671165391342754
 30
0.0
 40
0.4871979960489166
 50
171.9376066246965138
 51
228.3576806616873114
  0
ARC
  5
89B1
  8
0
 10
3978.4491697714970542
 20
67.2842280325390334
 30
0.0
 40
0.0300182178514546
 50
1.123953702680897
 51
49.5723785264507484
  0
ARC
  5
89B2
  8
0
 10
3945.2397214098091354
 20
66.8421735225921623
 30
0.0
 40
33.2425719371682931
 50
0.5696375214897778
 51
0.7629512361382217
  0
ARC
  5
89B3
  8
0
 10
3978.5107208554418321
 20
67.1728734874988049
 30
0.0
 40
0.0300711215753398
 50
180.3926702661478032
 51
258.9462016410649881
  0
ARC
  5
89B4
  8
0
 10
3978.5104953863228729
 20
67.1133612850289154
 30
0.0
 40
0.0299993899819964
 50
90.302201403006606
 51
178.7715921260156904
  0
ARC
  5
89B5
  8
0
 10
3978.2232460062000428
 20
67.1019411957396414
 30
0.0
 40
0.2575395384024579
 50
334.5436182857391145
 51
2.6846195451977661
  0
ARC
  5
89B6
  8
0
 10
3978.9296796215980976
 20
68.1589740034900728
 30
0.0
 40
1.3894018239302399
 50
221.9116602178108906
 51
236.3311261111805095
  0
ARC
  5
89B7
  8
0
 10
3978.3770189498650325
 20
67.3028898108550209
 30
0.0
 40
0.3708198171471237
 50
234.0666837155829114
 51
268.1998370541975873
  0
ARC
  5
89B8
  8
0
 10
3978.357658891860865
 20
67.0428504749051797
 30
0.0
 40
0.1108659744008358
 50
273.9884226760239017
 51
332.2586963671295166
  0
ARC
  5
89B9
  8
0
 10
3975.492120931116915
 20
65.73209289998195
 30
0.0
 40
2.858512800992016
 50
91.0849661547374012
 51
135.5957436570024868
  0
ARC
  5
89BA
  8
0
 10
3975.4455878733720056
 20
65.8718991825628848
 30
0.0
 40
2.7182046353091991
 50
53.8861867893233111
 51
90.1600530876447834
  0
ARC
  5
89BB
  8
0
 10
3973.5874417531481413
 20
63.7134333557021577
 30
0.0
 40
5.5618044207449557
 50
39.2295051751718304
 51
51.5272798712280675
  0
ARC
  5
89BC
  8
0
 10
3973.2197812544482076
 20
67.5656953368656019
 30
0.0
 40
0.0270016088260314
 50
96.4012096944001655
 51
161.4976405727587974
  0
ARC
  5
89BD
  8
0
 10
3973.1509822309521951
 20
67.9667515867421059
 30
0.0
 40
0.3799618157442534
 50
279.970746189793374
 51
321.8884468865123267
  0
ARC
  5
89BE
  8
0
 10
3974.8401062736620588
 20
67.0454210444796388
 30
0.0
 40
0.3853923185634737
 50
128.072284543601512
 51
161.9307987693333075
  0
ARC
  5
89BF
  8
0
 10
3975.6334978851609776
 20
65.8192824489167521
 30
0.0
 40
1.8445932991010341
 50
58.1972317195246021
 51
123.983601712497105
  0
ARC
  5
89C0
  8
0
 10
3975.4090374571310349
 20
65.3217584159767028
 30
0.0
 40
2.3867817670496678
 50
41.6384073554732481
 51
59.9122463328031571
  0
ARC
  5
89C1
  8
0
 10
3973.6361908312601372
 20
64.3207711727638127
 30
0.0
 40
4.3978631223549369
 50
0.7263951962130917
 51
36.0294946986880973
  0
ARC
  5
89C2
  8
0
 10
3972.6619277351687742
 20
64.1674896513057149
 30
0.0
 40
5.3758384413217994
 50
350.7907469802153173
 51
2.2284720187179619
  0
LINE
  5
89C3
  8
0
 10
3973.1941753429091477
 20
67.5742641275294318
 30
0.0
 11
3973.1544862077098514
 21
67.4556458058294481
 31
0.0
  0
LINE
  5
89C4
  8
0
 10
3973.1544862077098514
 20
67.4556458058294481
 30
0.0
 11
3974.4283676516652122
 21
67.0295996813643171
 31
0.0
  0
LINE
  5
89C5
  8
0
 10
3974.4283676516652122
 20
67.0295996813643171
 30
0.0
 11
3974.4737205040491972
 21
67.1649564243161592
 31
0.0
  0
LINE
  5
89C6
  8
0
 10
3973.1941764082080226
 20
67.5742655478490803
 30
0.0
 11
3974.4737205101100699
 21
67.1649564424294425
 31
0.0
  0
ARC
  5
89C7
  8
0
 10
3977.3580705270042017
 20
63.2017877856166024
 30
0.0
 40
0.5411208994731557
 50
302.2503318482703776
 51
319.6579631252823219
  0
ARC
  5
89C8
  8
0
 10
3976.9390397902448058
 20
63.4835710228454673
 30
0.0
 40
1.0444441386548251
 50
322.7581565373407102
 51
350.2746179562278144
  0
ARC
  5
89C9
  8
0
 10
3977.6687336686231902
 20
62.7158321772162566
 30
0.0
 40
0.0358033916417494
 50
127.7319269513485978
 51
175.6606655090801894
  0
ARC
  5
89CA
  8
0
 10
3978.2646792145610561
 20
64.9030624026990779
 30
0.0
 40
0.099850959833949
 50
110.9537678749863971
 51
179.8508576081154047
  0
ARC
  5
89CB
  8
0
 10
3978.2456902506110055
 20
65.154487111368951
 30
0.0
 40
0.0301059482612031
 50
101.6488522855884042
 51
179.6666429915358947
  0
ARC
  5
89CC
  8
0
 10
3978.2456869531379198
 20
65.0857939053331052
 30
0.0
 40
0.0301023170276466
 50
180.1958148654834133
 51
269.9193469937148961
  0
ARC
  5
89CD
  8
0
 10
3949.9796822348362184
 20
64.9240512762455353
 30
0.0
 40
28.1851539807999885
 50
359.0693063145064912
 51
359.9578614335528073
  0
ARC
  5
89CE
  8
0
 10
3968.3596724962771987
 20
64.551083179283566
 30
0.0
 40
9.8018125720522349
 50
354.7589084839912061
 51
359.5040555920585916
  0
ARC
  5
89CF
  8
0
 10
3975.9922583753018444
 20
63.8274797173287496
 30
0.0
 40
2.1351664513169881
 50
341.2048766810262919
 51
355.3859315923987197
  0
ARC
  5
89D0
  8
0
 10
3977.3224050082180838
 20
63.387179738433062
 30
0.0
 40
0.7341832813431503
 50
316.5412720206429071
 51
340.2892917452368238
  0
ARC
  5
89D1
  8
0
 10
3977.2267851468168374
 20
63.5102458496506586
 30
0.0
 40
0.8885520600256622
 50
300.8637632398842925
 51
315.0219186802772811
  0
LINE
  5
89D2
  8
0
 10
3978.2155848119091388
 20
65.0856910274294478
 30
0.0
 11
3978.2155848119091388
 21
65.1546622721279505
 31
0.0
  0
LINE
  5
89D3
  8
0
 10
3978.2296020409089579
 20
65.0223839407294406
 30
0.0
 11
3978.2295979761101989
 21
65.0538800037294322
 31
0.0
  0
LINE
  5
89D4
  8
0
 10
3978.2289710610589282
 20
64.9963101477294316
 30
0.0
 11
3978.2999791776092025
 21
65.0223827151294245
 31
0.0
  0
ARC
  5
89D5
  8
0
 10
3979.1047623196641325
 20
67.7353894391899587
 30
0.0
 40
0.0292163093315783
 50
8.0792589726536441
 51
78.9205985192359378
  0
ARC
  5
89D6
  8
0
 10
3979.1267627657489356
 20
67.8552658952993966
 30
0.0
 40
0.0926649598965668
 50
204.2741412774338983
 51
259.8148123768697815
  0
ARC
  5
89D7
  8
0
 10
3979.0152111555748888
 20
67.804353150911524
 30
0.0
 40
0.0299597227772274
 50
25.3304219656523415
 51
78.8350438405708616
  0
ARC
  5
89D8
  8
0
 10
3978.7226583778688109
 20
66.1946622344058113
 30
0.0
 40
1.6660162695865779
 50
79.6836896382916677
 51
90.0282329450577663
  0
ARC
  5
89D9
  8
0
 10
3978.6515123281451451
 20
67.6711418401100531
 30
0.0
 40
0.4869971611599657
 50
311.6308672573912872
 51
8.0685382647204502
  0
ARC
  5
89DA
  8
0
 10
3978.9954714336440702
 20
67.2836066687727765
 30
0.0
 40
0.0311663481883875
 50
130.9654518899104971
 51
177.7685952106693037
  0
ARC
  5
89DB
  8
0
 10
3989.0570729136998125
 20
67.1028467326737683
 30
0.0
 40
10.0943845637571705
 50
178.9670619993677008
 51
179.603691350459286
  0
ARC
  5
89DC
  8
0
 10
3978.9335449468230763
 20
67.1722895967553626
 30
0.0
 40
0.029387312344801
 50
280.1284597891993258
 51
0.7376511464000208
  0
ARC
  5
89DD
  8
0
 10
3978.933132071269938
 20
67.1133641618372536
 30
0.0
 40
0.0299999800602026
 50
1.2302718210800501
 51
89.0780001768046361
  0
LINE
  5
89DE
  8
0
 10
3978.4226624839088799
 20
67.8337458490294409
 30
0.0
 11
3979.0210123865090281
 21
67.8337458491294427
 31
0.0
  0
LINE
  5
89DF
  8
0
 10
3978.3332981730090978
 20
67.7640612313294355
 30
0.0
 11
3979.1103767935092037
 21
67.7640612095294443
 31
0.0
  0
LINE
  5
89E0
  8
0
 10
3978.5049553007088434
 20
67.1433602577294408
 30
0.0
 11
3978.9387242995921952
 21
67.1433602577855879
 31
0.0
  0
LINE
  5
89E1
  8
0
 10
3978.4686361941089672
 20
67.3070786735294462
 30
0.0
 11
3978.9749676218270906
 21
67.3070786725295704
 31
0.0
  0
ARC
  5
89E2
  8
0
 10
2506.0355830960111234
 20
35.4230022332493419
 30
0.0
 40
1473.26842911826202
 50
1.2235665994000271
 51
1.23256610250598
  0
ARC
  5
89E3
  8
0
 10
3980.8023783333278516
 20
66.8889786165722597
 30
0.0
 40
1.8342952844475799
 50
180.1976830169884067
 51
197.6156054785193135
  0
ARC
  5
89E4
  8
0
 10
3978.7399540649689698
 20
64.9828985211223937
 30
0.0
 40
1.4363270874329459
 50
80.3352980000352801
 51
87.7040712518251837
  0
ARC
  5
89E5
  8
0
 10
3978.9758465814129522
 20
66.3693012973852632
 30
0.0
 40
0.0300000016175558
 50
25.1420502065192686
 51
79.9386539169554311
  0
ARC
  5
89E6
  8
0
 10
3979.0827357625439618
 20
66.4154197499347561
 30
0.0
 40
0.0864339759913245
 50
202.7123169201597932
 51
260.0566174937065966
  0
ARC
  5
89E7
  8
0
 10
3979.0610395709591103
 20
66.3010582512389419
 30
0.0
 40
0.0300000020580932
 50
4.6367668947827223
 51
76.9555458348178121
  0
LINE
  5
89E8
  8
0
 10
3978.9810876567798914
 20
66.3988399369279989
 30
0.0
 11
3978.8385613608929816
 21
66.3988399457294349
 31
0.0
  0
LINE
  5
89E9
  8
0
 10
3978.9627020079051363
 20
66.3034834077294306
 30
0.0
 11
3979.0909413892090924
 21
66.3034834077294306
 31
0.0
  0
ARC
  5
89EA
  8
0
 10
3977.5724798201399608
 20
66.1762380039691323
 30
0.0
 40
1.5237837541848429
 50
353.5819229520022873
 51
4.7901315046339414
  0
ARC
  5
89EB
  8
0
 10
3979.8058400210470609
 20
66.5424848443286407
 30
0.0
 40
0.7759159919593193
 50
203.6782617968534908
 51
231.8765881308804921
  0
ARC
  5
89EC
  8
0
 10
3984.6130073807139524
 20
72.8760164255654956
 30
0.0
 40
8.7270804276006295
 50
232.7191839029115101
 51
233.1165988890329004
  0
ARC
  5
89ED
  8
0
 10
3979.3391033283728575
 20
65.8475941409324435
 30
0.0
 40
0.0600000753075196
 50
4.231238153575184
 51
53.1176181577502291
  0
ARC
  5
89EE
  8
0
 10
3966.6793540442190533
 20
65.1102664392056738
 30
0.0
 40
12.7411955261055105
 50
358.325086216026591
 51
3.3374774449992319
  0
ARC
  5
89EF
  8
0
 10
3990.9814163665751039
 20
64.3448308188154243
 30
0.0
 40
11.5729861423553899
 50
178.053812867597486
 51
183.7758904797638877
  0
ARC
  5
89F0
  8
0
 10
3981.6615050706977854
 20
63.7780078596334121
 30
0.0
 40
2.2364969225338012
 50
185.0098046354017072
 51
194.5963516357458047
  0
ARC
  5
89F1
  8
0
 10
3980.385554693575159
 20
63.4206956911784872
 30
0.0
 40
0.9120040759259131
 50
193.0739065519478004
 51
218.6763702889575995
  0
ARC
  5
89F2
  8
0
 10
3980.0859013884492015
 20
63.2021580932450817
 30
0.0
 40
0.5417555098225603
 50
220.4375261136873121
 51
237.7059531971445949
  0
ARC
  5
89F3
  8
0
 10
3979.7798964725488986
 20
62.7185355233421973
 30
0.0
 40
0.0305479749864912
 50
0.162979700863333
 51
57.164115082927502
  0
ARC
  5
89F4
  8
0
 10
3978.6205663700111472
 20
65.9862064314715298
 30
0.0
 40
0.4665655345268069
 50
271.941999642403573
 51
88.5312670452091481
  0
ARC
  5
89F5
  8
0
 10
3980.1559139512592083
 20
65.9936594713858256
 30
0.0
 40
1.613186158891134
 50
164.1079242641947928
 51
196.5514850218937966
  0
ARC
  5
89F6
  8
0
 10
3978.631029471724105
 20
66.4234648290053826
 30
0.0
 40
0.0291921910277524
 50
87.0632182048713048
 51
155.8844706884194977
  0
ARC
  5
89F7
  8
0
 10
3978.6368674950508648
 20
65.553246975030973
 30
0.0
 40
0.0333417076027149
 50
215.047868387501012
 51
269.1575100716942757
  0
ARC
  5
89F8
  8
0
 10
3979.1782379189321546
 20
64.9028957399042952
 30
0.0
 40
0.1003823290222272
 50
0.2444678073933668
 51
68.5397496208123584
  0
ARC
  5
89F9
  8
0
 10
3979.1976521613519253
 20
65.1545248631907299
 30
0.0
 40
0.0301638351025327
 50
0.1787602246860045
 51
78.0927964613202334
  0
ARC
  5
89FA
  8
0
 10
3979.1977652361861146
 20
65.0857896305569454
 30
0.0
 40
0.0300980341388321
 50
270.0725235543953886
 51
359.812294944813118
  0
ARC
  5
89FB
  8
0
 10
4007.9151532341138591
 20
64.9278175979778496
 30
0.0
 40
28.6365443748801205
 50
180.0490065164482019
 51
180.9213174731503102
  0
ARC
  5
89FC
  8
0
 10
3989.104844290883193
 20
64.5521572075499535
 30
0.0
 40
9.8228992839443308
 50
180.4946113201183948
 51
185.2328277616065861
  0
ARC
  5
89FD
  8
0
 10
3981.4745444882869378
 20
63.8321823540659992
 30
0.0
 40
2.1588390380821858
 50
184.6737050148470018
 51
198.6706339320273003
  0
ARC
  5
89FE
  8
0
 10
3980.142484093928033
 20
63.4003428210846209
 30
0.0
 40
0.7588328996976036
 50
199.9781469061732935
 51
222.9966017968397125
  0
ARC
  5
89FF
  8
0
 10
3980.2150451309530581
 20
63.5080671081005192
 30
0.0
 40
0.8858516046145403
 50
224.8923943725183108
 51
239.152762167067209
  0
LINE
  5
8A00
  8
0
 10
3979.2278631088101974
 20
65.0856910274294478
 30
0.0
 11
3979.2278158496460492
 21
65.1546189728308747
 31
0.0
  0
LINE
  5
8A01
  8
0
 10
3979.2138499446091373
 20
65.0223839407294406
 30
0.0
 11
3979.2138499446091373
 21
65.0538800037294322
 31
0.0
  0
LINE
  5
8A02
  8
0
 10
3979.2149633612089019
 20
64.9963187235294413
 30
0.0
 11
3979.1434688496101444
 21
65.0223826795294428
 31
0.0
  0
ARC
  5
8A03
  8
0
 10
3978.4604534520249217
 20
65.5356423067634069
 30
0.0
 40
0.0450000005820004
 50
358.0360751557321919
 51
31.669787367054429
  0
ARC
  5
8A04
  8
0
 10
3978.1500182153431524
 20
65.5279587143729998
 30
0.0
 40
0.3554618621088514
 50
284.5987018818809133
 51
0.9899672714002038
  0
ARC
  5
8A05
  8
0
 10
3979.6134131126509601
 20
66.1647906243034782
 30
0.0
 40
1.268513187352527
 50
173.7200338066340066
 51
208.5123411650363892
  0
ARC
  5
8A06
  8
0
 10
3978.3824083479858018
 20
66.3010582520969933
 30
0.0
 40
0.0300000000796897
 50
103.0444245269448942
 51
175.2372101831167015
  0
ARC
  5
8A07
  8
0
 10
3978.3607121584809647
 20
66.4154197496351912
 30
0.0
 40
0.0864339756279936
 50
279.943391623897412
 51
337.2876831943083857
  0
ARC
  5
8A08
  8
0
 10
3978.4676013381099438
 20
66.3693012984294342
 30
0.0
 40
0.0299999999999933
 50
100.0612361371599945
 51
154.8579506385109141
  0
ARC
  5
8A09
  8
0
 10
3978.6946364455811818
 20
65.0523866181008827
 30
0.0
 40
1.3663413790259009
 50
94.0211458019886237
 51
99.7877378415981582
  0
LINE
  5
8A0A
  8
0
 10
3978.4623603156092031
 20
66.3988399457294349
 30
0.0
 11
3978.5944408114169164
 21
66.3988399457294349
 31
0.0
  0
LINE
  5
8A0B
  8
0
 10
3978.352511938121097
 20
66.3035491719995775
 30
0.0
 11
3978.5727592804491906
 21
66.3034834077294306
 31
0.0
  0
LINE
  5
8A0C
  8
0
 10
3978.2409911425797873
 20
65.1843352839705403
 30
0.0
 11
3979.2038757812088079
 21
65.184039664629438
 31
0.0
  0
LINE
  5
8A0D
  8
0
 10
3978.2296020409089579
 20
65.0538800037294322
 30
0.0
 11
3979.2138499446091373
 21
65.0538800037294322
 31
0.0
  0
LINE
  5
8A0E
  8
0
 10
3979.2138499446091373
 20
65.0223839407294406
 30
0.0
 11
3978.2296020409089579
 21
65.0223839407294406
 31
0.0
  0
LINE
  5
8A0F
  8
0
 10
3978.2456487673857737
 20
65.0556916184217755
 30
0.0
 11
3979.1978033335090004
 21
65.0556916205294442
 31
0.0
  0
LINE
  5
8A10
  8
0
 10
3979.0268420706088364
 20
65.0538800037294322
 30
0.0
 11
3979.0268420706088364
 21
65.0556910274294466
 31
0.0
  0
LINE
  5
8A11
  8
0
 10
3978.4166058502100896
 20
65.0556910274294466
 30
0.0
 11
3978.4166058502100896
 21
65.0538800037294322
 31
0.0
  0
LINE
  5
8A12
  8
0
 10
3978.5054270197101687
 20
65.5341001458294414
 30
0.0
 11
3978.6095810914589492
 21
65.5340842741294409
 31
0.0
  0
LINE
  5
8A13
  8
0
 10
3978.7369906226258536
 20
65.5341001458294414
 30
0.0
 11
3978.9380209010910221
 21
65.5341001458024124
 31
0.0
  0
ARC
  5
8A14
  8
0
 10
3979.2932541076770576
 20
65.5279009388677736
 30
0.0
 40
0.3552872938383334
 50
179.000227918555197
 51
255.429780125521404
  0
ARC
  5
8A15
  8
0
 10
3978.9829944690832235
 20
65.5356423064538092
 30
0.0
 40
0.0450000009409233
 50
148.3302124604838923
 51
181.9639286757270895
  0
ARC
  5
8A16
  8
0
 10
3978.1368527619961242
 20
66.0464208406602324
 30
0.0
 40
0.9433596646351814
 50
328.9088096799465006
 51
344.5069684882967067
  0
ARC
  5
8A17
  8
0
 10
3979.4368405556538164
 20
67.9014675737473823
 30
0.0
 40
2.0497969327064101
 50
259.8538172972299094
 51
268.9405422576105025
  0
ARC
  5
8A18
  8
0
 10
3977.698646947565976
 20
62.7217137700458593
 30
0.0
 40
0.0303845401596071
 50
121.8547032840161961
 51
178.6139648500783892
  0
ARC
  5
8A19
  8
0
 10
3979.7446903948830368
 20
62.721599935224809
 30
0.0
 40
0.0305397643563665
 50
1.592627872210187
 51
58.1106571160865215
  0
ARC
  5
8A1A
  8
0
 10
3977.6965076086398767
 20
62.6197727820507382
 30
0.0
 40
0.0300662162929088
 50
179.129056526231011
 51
269.8846116131668964
  0
ARC
  5
8A1B
  8
0
 10
3979.746940312208153
 20
62.6197727820218191
 30
0.0
 40
0.0300662162639305
 50
270.1153883308926993
 51
0.8709435297166777
  0
LINE
  5
8A1C
  8
0
 10
3979.7752183617089941
 20
62.7224487275294393
 30
0.0
 11
3979.7770030549090734
 21
62.6202297959315501
 31
0.0
  0
LINE
  5
8A1D
  8
0
 10
3977.6664943208102159
 20
62.6202301863294366
 30
0.0
 11
3977.6682712974661627
 21
62.7224487270294517
 31
0.0
  0
LINE
  5
8A1E
  8
0
 10
3977.6330329101087955
 20
62.7185411797294421
 30
0.0
 11
3977.6330329101087955
 21
62.5897066267294306
 31
0.0
  0
LINE
  5
8A1F
  8
0
 10
3977.6330329101087955
 20
62.5897066267294306
 30
0.0
 11
3979.8104443239471948
 21
62.5897066267294306
 31
0.0
  0
LINE
  5
8A20
  8
0
 10
3979.8104443239471948
 20
62.5897066267294306
 30
0.0
 11
3979.8104443239471948
 21
62.7186224179294385
 31
0.0
  0
LINE
  5
8A21
  8
0
 10
3977.6826109901930977
 20
62.747522070103372
 30
0.0
 11
3979.7608239542819319
 21
62.747530331829303
 31
0.0
  0
ARC
  5
8A22
  8
0
 10
3997.7728384179808927
 20
82.5465691141202456
 30
0.0
 40
25.3176736775614799
 50
217.0763049398962039
 51
219.9089566376073037
  0
ARC
  5
8A23
  8
0
 10
3975.390960080998866
 20
65.3271174323879791
 30
0.0
 40
2.9307986713397121
 50
41.8658161766752173
 51
59.0182605705650332
  0
ARC
  5
8A24
  8
0
 10
3975.6154634525178153
 20
65.9956529635681193
 30
0.0
 40
2.247199533521524
 50
55.148393239111968
 51
142.335592484698509
  0
ENDSEC
  0
EOF
