  0
SECTION
  2
HEADER
  9
$ACADVER
  1
AC1009
  9
$INSBASE
 10
294.6671930637887726
 20
37.4636952690152967
 30
0.0
  9
$EXTMIN
 10
284.6641028480058253
 20
36.4614486732266982
 30
-0.0015258207003583
  9
$EXTMAX
 10
304.6774769761511266
 20
38.4657923805725019
 30
0.0000000349246037
  9
$LIMMIN
 10
0.0
 20
0.0
  9
$LIMMAX
 10
11.6929133858000007
 20
8.2677165353999982
  9
$ORTHOMODE
 70
     1
  9
$REGENMODE
 70
     1
  9
$FILLMODE
 70
     1
  9
$QTEXTMODE
 70
     0
  9
$MIRRTEXT
 70
     0
  9
$DRAGMODE
 70
     2
  9
$LTSCALE
 40
0.6431102362
  9
$OSMODE
 70
  4095
  9
$ATTMODE
 70
     1
  9
$TEXTSIZE
 40
0.2
  9
$TRACEWID
 40
0.05
  9
$TEXTSTYLE
  7
STANDARD
  9
$CLAYER
  8
0
  9
$CELTYPE
  6
BYLAYER
  9
$CECOLOR
 62
   256
  9
$DIMSCALE
 40
1.0
  9
$DIMASZ
 40
0.1875
  9
$DIMEXO
 40
0.0625
  9
$DIMDLI
 40
0.4443307087
  9
$DIMRND
 40
0.0
  9
$DIMDLE
 40
0.0
  9
$DIMEXE
 40
0.125
  9
$DIMTP
 40
0.01
  9
$DIMTM
 40
0.01
  9
$DIMTXT
 40
2.0
  9
$DIMCEN
 40
0.1052362205
  9
$DIMTSZ
 40
0.0
  9
$DIMTOL
 70
     1
  9
$DIMLIM
 70
     0
  9
$DIMTIH
 70
     1
  9
$DIMTOH
 70
     1
  9
$DIMSE1
 70
     0
  9
$DIMSE2
 70
     0
  9
$DIMTAD
 70
     0
  9
$DIMZIN
 70
     0
  9
$DIMBLK
  1

  9
$DIMASO
 70
     1
  9
$DIMSHO
 70
     1
  9
$DIMPOST
  1
\X
  9
$DIMAPOST
  1

  9
$DIMALT
 70
     1
  9
$DIMALTD
 70
     2
  9
$DIMALTF
 40
25.3999999999999986
  9
$DIMLFAC
 40
1.0
  9
$DIMTOFL
 70
     0
  9
$DIMTVP
 40
0.0
  9
$DIMTIX
 70
     0
  9
$DIMSOXD
 70
     0
  9
$DIMSAH
 70
     0
  9
$DIMBLK1
  1

  9
$DIMBLK2
  1

  9
$DIMSTYLE
  2
STANDARD
  9
$DIMCLRD
 70
     0
  9
$DIMCLRE
 70
     0
  9
$DIMCLRT
 70
     0
  9
$DIMTFAC
 40
1.0
  9
$DIMGAP
 40
0.09
  9
$LUNITS
 70
     2
  9
$LUPREC
 70
     4
  9
$SKETCHINC
 40
0.1
  9
$FILLETRAD
 40
0.0
  9
$AUNITS
 70
     0
  9
$AUPREC
 70
     0
  9
$MENU
  1
.
  9
$ELEVATION
 40
0.0
  9
$PELEVATION
 40
0.0
  9
$THICKNESS
 40
0.0
  9
$LIMCHECK
 70
     0
  9
$BLIPMODE
 70
     0
  9
$CHAMFERA
 40
0.0
  9
$CHAMFERB
 40
0.0
  9
$SKPOLY
 70
     0
  9
$TDCREATE
 40
2458060.468368056230247
  9
$TDUPDATE
 40
2459027.4880902781151235
  9
$TDINDWG
 40
0.2432235648
  9
$TDUSRTIMER
 40
0.2432235648
  9
$USRTIMER
 70
     1
  9
$ANGBASE
 50
0.0
  9
$ANGDIR
 70
     0
  9
$PDMODE
 70
     0
  9
$PDSIZE
 40
0.3125
  9
$PLINEWID
 40
0.0
  9
$COORDS
 70
     1
  9
$SPLFRAME
 70
     0
  9
$SPLINETYPE
 70
     6
  9
$SPLINESEGS
 70
     8
  9
$ATTDIA
 70
     1
  9
$ATTREQ
 70
     1
  9
$HANDLING
 70
     1
  9
$HANDSEED
  5
4355
  9
$SURFTAB1
 70
     6
  9
$SURFTAB2
 70
     6
  9
$SURFTYPE
 70
     6
  9
$SURFU
 70
     6
  9
$SURFV
 70
     6
  9
$UCSNAME
  2

  9
$UCSORG
 10
0.0
 20
0.0
 30
0.0
  9
$UCSXDIR
 10
1.0
 20
0.0
 30
0.0
  9
$UCSYDIR
 10
0.0
 20
1.0
 30
0.0
  9
$PUCSNAME
  2

  9
$PUCSORG
 10
0.0
 20
0.0
 30
0.0
  9
$PUCSXDIR
 10
1.0
 20
0.0
 30
0.0
  9
$PUCSYDIR
 10
0.0
 20
1.0
 30
0.0
  9
$USERI1
 70
     0
  9
$USERI2
 70
     0
  9
$USERI3
 70
     0
  9
$USERI4
 70
     0
  9
$USERI5
 70
     0
  9
$USERR1
 40
0.0
  9
$USERR2
 40
0.0
  9
$USERR3
 40
0.0
  9
$USERR4
 40
0.0
  9
$USERR5
 40
0.0
  9
$WORLDVIEW
 70
     1
  9
$SHADEDGE
 70
     3
  9
$SHADEDIF
 70
    70
  9
$TILEMODE
 70
     1
  9
$MAXACTVP
 70
    64
  9
$PLIMCHECK
 70
     0
  9
$PEXTMIN
 10
1.0000000000000000E+20
 20
1.0000000000000000E+20
 30
1.0000000000000000E+20
  9
$PEXTMAX
 10
-1.0000000000000000E+20
 20
-1.0000000000000000E+20
 30
-1.0000000000000000E+20
  9
$PLIMMIN
 10
0.0
 20
0.0
  9
$PLIMMAX
 10
12.0
 20
9.0
  9
$UNITMODE
 70
     0
  9
$VISRETAIN
 70
     1
  9
$PLINEGEN
 70
     0
  9
$PSLTSCALE
 70
     1
  0
ENDSEC
  0
SECTION
  2
TABLES
  0
TABLE
  2
VPORT
 70
     1
  0
VPORT
  2
*ACTIVE
 70
     0
 10
0.0
 20
0.0
 11
1.0
 21
1.0
 12
0.0035968482896465
 22
-0.0000578581206483
 13
0.0
 23
0.0
 14
1.0
 24
1.0
 15
0.0
 25
0.0
 16
0.0
 26
0.0
 36
56.882711747185283
 17
294.6671930637887726
 27
37.4636783850202377
 37
0.0
 40
9.5043744145622302
 41
2.1123470522803109
 42
50.0
 43
0.0
 44
0.0
 50
0.0
 51
0.0
 71
     0
 72
   100
 73
     1
 74
     1
 75
     0
 76
     0
 77
     0
 78
     0
  0
ENDTAB
  0
TABLE
  2
LTYPE
 70
     2
  0
LTYPE
  2
CONTINUOUS
 70
     0
  3
Solid line
 72
    65
 73
     0
 40
0.0
  0
LTYPE
  2
PHANTOM2
 70
     0
  3
___ _ _ ___ _ _ ___ _ _ ___ _ _
 72
    65
 73
     6
 40
1.25
 49
0.625
 49
-0.125
 49
0.125
 49
-0.125
 49
0.125
 49
-0.125
  0
ENDTAB
  0
TABLE
  2
LAYER
 70
     2
  0
LAYER
  2
0
 70
     0
 62
   255
  6
CONTINUOUS
  0
LAYER
  2
DEFPOINTS
 70
     0
 62
     7
  6
CONTINUOUS
  0
ENDTAB
  0
TABLE
  2
STYLE
 70
     1
  0
STYLE
  2
STANDARD
 70
     0
 40
0.0
 41
0.8
 50
0.0
 71
     0
 42
0.2
  3
txt
  4

  0
ENDTAB
  0
TABLE
  2
VIEW
 70
     0
  0
ENDTAB
  0
TABLE
  2
UCS
 70
     0
  0
ENDTAB
  0
TABLE
  2
APPID
 70
     9
  0
APPID
  2
ACAD
 70
     0
  0
APPID
  2
ACAD_MLEADERVER
 70
     0
  0
APPID
  2
ACAD_EXEMPT_FROM_CAD_STANDARDS
 70
     0
  0
APPID
  2
ACAD_NAV_VCDISPLAY
 70
     0
  0
APPID
  2
ACAECLAYERSTANDARD
 70
     0
  0
APPID
  2
ACCMTRANSPARENCY
 70
     0
  0
APPID
  2
ACAD_DSTYLE_DIMJAG
 70
     0
  0
APPID
  2
ACAD_DSTYLE_DIMTALN
 70
     0
  0
APPID
  2
ACDBATTR
 70
     0
  0
ENDTAB
  0
TABLE
  2
DIMSTYLE
 70
     1
  0
DIMSTYLE
  2
STANDARD
 70
     0
  3

  4

  5

  6

  7

 40
1.0
 41
0.1875
 42
0.0625
 43
0.38
 44
0.125
 45
0.0
 46
0.0
 47
0.01
 48
0.01
140
0.15625
141
0.09
142
0.0
143
25.3999999999999986
144
1.0
145
0.0
146
1.0
147
0.09
 71
     1
 72
     0
 73
     1
 74
     1
 75
     0
 76
     0
 77
     0
 78
     4
170
     0
171
     2
172
     0
173
     0
174
     0
175
     0
176
     0
177
     0
178
     0
  0
ENDTAB
  0
ENDSEC
  0
SECTION
  2
BLOCKS
  0
BLOCK
  8
0
  2
$MODEL_SPACE
 70
     0
 10
0.0
 20
0.0
 30
0.0
  3
$MODEL_SPACE
  1

  0
ENDBLK
  5
21
  8
0
  0
BLOCK
 67
     1
  8
0
  2
$PAPER_SPACE
 70
     0
 10
0.0
 20
0.0
 30
0.0
  3
$PAPER_SPACE
  1

  0
ENDBLK
  5
1D
 67
     1
  8
0
  0
ENDSEC
  0
SECTION
  2
ENTITIES
  0
ATTDEF
  5
3930
  8
DEFPOINTS
 10
294.662335743008498
 20
37.4621968957223501
 30
0.0
 40
0.001
  1
K-72784T
  3

  2
MODELNUMBER
 70
     0
1001
ACDBATTR
1070
     0
1070
     1
  0
ATTDEF
  5
3931
  8
DEFPOINTS
 10
294.662335743008498
 20
37.4605302290556921
 30
0.0
 40
0.001
  1
ELLISTON
  3

  2
TRADENAME
 70
     0
1001
ACDBATTR
1070
     0
1070
     1
  0
ATTDEF
  5
3932
  8
DEFPOINTS
 10
294.662335743008498
 20
37.4588635623890198
 30
0.0
 40
0.001
  1
TOWEL BAR
  3

  2
PRODUCT
 70
     0
1001
ACDBATTR
1070
     0
1070
     1
  0
LINE
  5
4227
  8
0
 10
286.8639685819388205
 20
36.6498474044153113
 30
0.0
 11
286.8639685819388205
 21
37.3503539996153009
 31
0.0
  0
LINE
  5
4228
  8
0
 10
302.4704175456387816
 20
36.6875012094153021
 30
0.0
 11
286.8639685819388205
 21
36.6875012094153021
 31
0.0
  0
LINE
  5
4229
  8
0
 10
302.4704175456387816
 20
37.3126980598153111
 30
0.0
 11
286.8639685819388205
 21
37.3126980598153111
 31
0.0
  0
ARC
  5
422A
  8
0
 10
285.6671307707388223
 20
37.4636952690152967
 30
0.0
 40
1.0009231750000001
 50
355.2212734972310955
 51
311.0231836841874156
  0
ARC
  5
422B
  8
0
 10
285.5847843487080127
 20
36.4890421234297975
 30
0.0
 40
0.0230353728661815
 50
273.5084251983898866
 51
303.6324376288014832
  0
ARC
  5
422C
  8
0
 10
285.6673941967570727
 20
36.3089045872157214
 30
0.0
 40
0.1754614789499553
 50
66.7691100684235721
 51
113.4595223525899996
  0
ARC
  5
422D
  8
0
 10
285.7500968634321907
 20
36.4900455010962474
 30
0.0
 40
0.0240481590857301
 50
235.8661459567530869
 51
265.6487966198604909
  0
ARC
  5
422E
  8
0
 10
285.6671333404029269
 20
37.4784294367997006
 30
0.0
 40
0.9960472101787597
 50
268.6160457725176229
 51
271.4095132703924946
  0
LINE
  5
422F
  8
0
 10
286.8343131196388072
 20
36.6201211411153125
 30
0.0
 11
286.5797854845235975
 21
36.6201211411153125
 31
0.0
  0
ARC
  5
4230
  8
0
 10
286.8309413893513238
 20
36.6531403873462693
 30
0.0
 40
0.0331909503749563
 50
275.8304970181969793
 51
354.3061307581783126
  0
ARC
  5
4231
  8
0
 10
286.5822372459638814
 20
36.6673359562497083
 30
0.0
 40
0.0472784295671517
 50
241.9760168656987958
 51
267.0274261918070238
  0
ARC
  5
4232
  8
0
 10
285.7829407559506762
 20
34.7925191576482007
 30
0.0
 40
1.99099140879976
 50
67.0268576509383394
 51
90.9124306972639289
  0
LINE
  5
4233
  8
0
 10
286.8343131196388072
 20
37.3803105141153011
 30
0.0
 11
286.5797854845235975
 21
37.3803105141153011
 31
0.0
  0
ARC
  5
4234
  8
0
 10
286.830447632645928
 20
37.346826898843652
 30
0.0
 40
0.0337060006727748
 50
6.0066050574181586
 51
83.4146899655356151
  0
ARC
  5
4235
  8
0
 10
286.5842186826404827
 20
37.3279541793799723
 30
0.0
 40
0.0525436868944449
 50
94.8398938795164668
 51
117.4174337565282968
  0
LINE
  5
4236
  8
0
 10
286.5600238961387731
 20
37.3745959132521008
 30
0.0
 11
286.5600238961387731
 21
36.6256008751801474
 31
0.0
  0
ARC
  5
4237
  8
0
 10
285.7829435136698066
 20
39.2076634835704709
 30
0.0
 40
1.990977307296846
 50
269.0874834687913904
 51
292.9732281830068246
  0
LINE
  5
4238
  8
0
 10
302.4704175456387816
 20
36.6498474044153113
 30
0.0
 11
302.4704175456387816
 21
37.3503539996153009
 31
0.0
  0
ARC
  5
4239
  8
0
 10
303.6672553568387798
 20
37.4636952690152967
 30
0.0
 40
1.0009231750000001
 50
228.9768163158151992
 51
184.7787265027685919
  0
ARC
  5
423A
  8
0
 10
303.7496017788695895
 20
36.4890421234297975
 30
0.0
 40
0.0230353728661815
 50
236.3675623711984883
 51
266.4915748016101134
  0
ARC
  5
423B
  8
0
 10
303.6669919308204726
 20
36.3089045872157214
 30
0.0
 40
0.1754614789499553
 50
66.5404776474100146
 51
113.230889931573401
  0
ARC
  5
423C
  8
0
 10
303.5842892641455251
 20
36.4900455010962474
 30
0.0
 40
0.0240481590857301
 50
274.3512033801393954
 51
304.1338540432469131
  0
ARC
  5
423D
  8
0
 10
303.6672527871746752
 20
37.4784294367997006
 30
0.0
 40
0.9960472101787597
 50
268.5904867296075054
 51
271.3839542274823771
  0
LINE
  5
423E
  8
0
 10
302.5000730079387949
 20
36.6201211411153125
 30
0.0
 11
302.7546006430540046
 21
36.6201211411153125
 31
0.0
  0
ARC
  5
423F
  8
0
 10
302.5034447382262783
 20
36.6531403873462835
 30
0.0
 40
0.0331909503749599
 50
185.6938692418264054
 51
264.1695029817964269
  0
ARC
  5
4240
  8
0
 10
302.7521488816137207
 20
36.6673359562496799
 30
0.0
 40
0.0472784295671237
 50
272.9725738081831992
 51
298.0239831343083097
  0
ARC
  5
4241
  8
0
 10
303.5514453716269259
 20
34.7925191576481581
 30
0.0
 40
1.9909914087997851
 50
89.0875693027360569
 51
112.9731423490615043
  0
LINE
  5
4242
  8
0
 10
302.5000730079387949
 20
37.3803105141153011
 30
0.0
 11
302.7546006430540046
 21
37.3803105141153011
 31
0.0
  0
ARC
  5
4243
  8
0
 10
302.5039384949316741
 20
37.3468268988436378
 30
0.0
 40
0.0337060006727779
 50
96.5853100344643849
 51
173.993394942577595
  0
ARC
  5
4244
  8
0
 10
302.7501674449371194
 20
37.3279541793799865
 30
0.0
 40
0.0525436868944311
 50
62.5825662434711631
 51
85.1601061204868159
  0
LINE
  5
4245
  8
0
 10
302.7743622314387721
 20
37.3745959132521008
 30
0.0
 11
302.7743622314387721
 21
36.6256008751801474
 31
0.0
  0
ARC
  5
4246
  8
0
 10
303.5514426139077955
 20
39.2076634835704709
 30
0.0
 40
1.990977307296846
 50
247.0267718169932039
 51
270.9125165312086096
  0
ARC
  5
4248
  8
0
 10
285.5260716827585838
 20
37.0000983942161312
 30
0.0
 40
0.3125996655991763
 50
43.921142973899812
 51
316.0788570261001951
  0
ARC
  5
4249
  8
0
 10
303.8083144448190183
 20
37.0000983942161312
 30
0.0
 40
0.3125996655991763
 50
223.9211429738998049
 51
136.0788570261001951
  0
ENDSEC
  0
EOF
