  0
SECTION
  2
HEADER
  9
$ACADVER
  1
AC1009
  9
$INSBASE
 10
302.9798340556914127
 20
18.1239111314889705
 30
0.0
  9
$EXTMIN
 10
289.9785537560247803
 20
14.7449467777451506
 30
-0.0015258207003583
  9
$EXTMAX
 10
315.990463228798717
 20
18.1311553956662017
 30
0.0000000349246037
  9
$LIMMIN
 10
0.0
 20
0.0
  9
$LIMMAX
 10
11.6929133858000007
 20
8.2677165353999982
  9
$ORTHOMODE
 70
     1
  9
$REGENMODE
 70
     1
  9
$FILLMODE
 70
     1
  9
$QTEXTMODE
 70
     0
  9
$MIRRTEXT
 70
     0
  9
$DRAGMODE
 70
     2
  9
$LTSCALE
 40
0.6431102362
  9
$OSMODE
 70
  4095
  9
$ATTMODE
 70
     1
  9
$TEXTSIZE
 40
0.2
  9
$TRACEWID
 40
0.05
  9
$TEXTSTYLE
  7
STANDARD
  9
$CLAYER
  8
0
  9
$CELTYPE
  6
BYLAYER
  9
$CECOLOR
 62
   256
  9
$DIMSCALE
 40
1.0
  9
$DIMASZ
 40
0.1875
  9
$DIMEXO
 40
0.0625
  9
$DIMDLI
 40
0.4443307087
  9
$DIMRND
 40
0.0
  9
$DIMDLE
 40
0.0
  9
$DIMEXE
 40
0.125
  9
$DIMTP
 40
0.01
  9
$DIMTM
 40
0.01
  9
$DIMTXT
 40
2.0
  9
$DIMCEN
 40
0.1052362205
  9
$DIMTSZ
 40
0.0
  9
$DIMTOL
 70
     1
  9
$DIMLIM
 70
     0
  9
$DIMTIH
 70
     1
  9
$DIMTOH
 70
     1
  9
$DIMSE1
 70
     0
  9
$DIMSE2
 70
     0
  9
$DIMTAD
 70
     0
  9
$DIMZIN
 70
     0
  9
$DIMBLK
  1

  9
$DIMASO
 70
     1
  9
$DIMSHO
 70
     1
  9
$DIMPOST
  1
\X
  9
$DIMAPOST
  1

  9
$DIMALT
 70
     1
  9
$DIMALTD
 70
     2
  9
$DIMALTF
 40
25.3999999999999986
  9
$DIMLFAC
 40
1.0
  9
$DIMTOFL
 70
     0
  9
$DIMTVP
 40
0.0
  9
$DIMTIX
 70
     0
  9
$DIMSOXD
 70
     0
  9
$DIMSAH
 70
     0
  9
$DIMBLK1
  1

  9
$DIMBLK2
  1

  9
$DIMSTYLE
  2
STANDARD
  9
$DIMCLRD
 70
     0
  9
$DIMCLRE
 70
     0
  9
$DIMCLRT
 70
     0
  9
$DIMTFAC
 40
1.0
  9
$DIMGAP
 40
0.09
  9
$LUNITS
 70
     2
  9
$LUPREC
 70
     4
  9
$SKETCHINC
 40
0.1
  9
$FILLETRAD
 40
0.0
  9
$AUNITS
 70
     0
  9
$AUPREC
 70
     0
  9
$MENU
  1
.
  9
$ELEVATION
 40
0.0
  9
$PELEVATION
 40
0.0
  9
$THICKNESS
 40
0.0
  9
$LIMCHECK
 70
     0
  9
$BLIPMODE
 70
     0
  9
$CHAMFERA
 40
0.0
  9
$CHAMFERB
 40
0.0
  9
$SKPOLY
 70
     0
  9
$TDCREATE
 40
2458060.468368056230247
  9
$TDUPDATE
 40
2459033.6011111112311482
  9
$TDINDWG
 40
0.2437656019
  9
$TDUSRTIMER
 40
0.2437656019
  9
$USRTIMER
 70
     1
  9
$ANGBASE
 50
0.0
  9
$ANGDIR
 70
     0
  9
$PDMODE
 70
     0
  9
$PDSIZE
 40
0.3125
  9
$PLINEWID
 40
0.0
  9
$COORDS
 70
     1
  9
$SPLFRAME
 70
     0
  9
$SPLINETYPE
 70
     6
  9
$SPLINESEGS
 70
     8
  9
$ATTDIA
 70
     1
  9
$ATTREQ
 70
     1
  9
$HANDLING
 70
     1
  9
$HANDSEED
  5
43D3
  9
$SURFTAB1
 70
     6
  9
$SURFTAB2
 70
     6
  9
$SURFTYPE
 70
     6
  9
$SURFU
 70
     6
  9
$SURFV
 70
     6
  9
$UCSNAME
  2

  9
$UCSORG
 10
0.0
 20
0.0
 30
0.0
  9
$UCSXDIR
 10
1.0
 20
0.0
 30
0.0
  9
$UCSYDIR
 10
0.0
 20
1.0
 30
0.0
  9
$PUCSNAME
  2

  9
$PUCSORG
 10
0.0
 20
0.0
 30
0.0
  9
$PUCSXDIR
 10
1.0
 20
0.0
 30
0.0
  9
$PUCSYDIR
 10
0.0
 20
1.0
 30
0.0
  9
$USERI1
 70
     0
  9
$USERI2
 70
     0
  9
$USERI3
 70
     0
  9
$USERI4
 70
     0
  9
$USERI5
 70
     0
  9
$USERR1
 40
0.0
  9
$USERR2
 40
0.0
  9
$USERR3
 40
0.0
  9
$USERR4
 40
0.0
  9
$USERR5
 40
0.0
  9
$WORLDVIEW
 70
     1
  9
$SHADEDGE
 70
     3
  9
$SHADEDIF
 70
    70
  9
$TILEMODE
 70
     1
  9
$MAXACTVP
 70
    64
  9
$PLIMCHECK
 70
     0
  9
$PEXTMIN
 10
1.0000000000000000E+20
 20
1.0000000000000000E+20
 30
1.0000000000000000E+20
  9
$PEXTMAX
 10
-1.0000000000000000E+20
 20
-1.0000000000000000E+20
 30
-1.0000000000000000E+20
  9
$PLIMMIN
 10
0.0
 20
0.0
  9
$PLIMMAX
 10
12.0
 20
9.0
  9
$UNITMODE
 70
     0
  9
$VISRETAIN
 70
     1
  9
$PLINEGEN
 70
     0
  9
$PSLTSCALE
 70
     1
  0
ENDSEC
  0
SECTION
  2
TABLES
  0
TABLE
  2
VPORT
 70
     1
  0
VPORT
  2
*ACTIVE
 70
     0
 10
0.0
 20
0.0
 11
1.0
 21
1.0
 12
0.004674436720336
 22
-0.0001555047325148
 13
0.0
 23
0.0
 14
1.0
 24
1.0
 15
0.0
 25
0.0
 16
0.0
 26
0.0
 36
74.1992012431438894
 17
302.9798340556914127
 27
16.4382065914381883
 37
0.0
 40
13.0125839110168098
 41
2.005224660397074
 42
50.0
 43
0.0
 44
0.0
 50
0.0
 51
0.0
 71
     0
 72
   100
 73
     1
 74
     1
 75
     0
 76
     0
 77
     0
 78
     0
  0
ENDTAB
  0
TABLE
  2
LTYPE
 70
     2
  0
LTYPE
  2
CONTINUOUS
 70
     0
  3
Solid line
 72
    65
 73
     0
 40
0.0
  0
LTYPE
  2
PHANTOM2
 70
     0
  3
___ _ _ ___ _ _ ___ _ _ ___ _ _
 72
    65
 73
     6
 40
1.25
 49
0.625
 49
-0.125
 49
0.125
 49
-0.125
 49
0.125
 49
-0.125
  0
ENDTAB
  0
TABLE
  2
LAYER
 70
     2
  0
LAYER
  2
0
 70
     0
 62
   255
  6
CONTINUOUS
  0
LAYER
  2
DEFPOINTS
 70
     0
 62
     7
  6
CONTINUOUS
  0
ENDTAB
  0
TABLE
  2
STYLE
 70
     1
  0
STYLE
  2
STANDARD
 70
     0
 40
0.0
 41
0.8
 50
0.0
 71
     0
 42
0.2
  3
txt
  4

  0
ENDTAB
  0
TABLE
  2
VIEW
 70
     0
  0
ENDTAB
  0
TABLE
  2
UCS
 70
     0
  0
ENDTAB
  0
TABLE
  2
APPID
 70
     9
  0
APPID
  2
ACAD
 70
     0
  0
APPID
  2
ACAD_MLEADERVER
 70
     0
  0
APPID
  2
ACAD_EXEMPT_FROM_CAD_STANDARDS
 70
     0
  0
APPID
  2
ACAD_NAV_VCDISPLAY
 70
     0
  0
APPID
  2
ACAECLAYERSTANDARD
 70
     0
  0
APPID
  2
ACCMTRANSPARENCY
 70
     0
  0
APPID
  2
ACAD_DSTYLE_DIMJAG
 70
     0
  0
APPID
  2
ACAD_DSTYLE_DIMTALN
 70
     0
  0
APPID
  2
ACDBATTR
 70
     0
  0
ENDTAB
  0
TABLE
  2
DIMSTYLE
 70
     1
  0
DIMSTYLE
  2
STANDARD
 70
     0
  3

  4

  5

  6

  7

 40
1.0
 41
0.1875
 42
0.0625
 43
0.38
 44
0.125
 45
0.0
 46
0.0
 47
0.01
 48
0.01
140
0.15625
141
0.09
142
0.0
143
25.3999999999999986
144
1.0
145
0.0
146
1.0
147
0.09
 71
     1
 72
     0
 73
     1
 74
     1
 75
     0
 76
     0
 77
     0
 78
     4
170
     0
171
     2
172
     0
173
     0
174
     0
175
     0
176
     0
177
     0
178
     0
  0
ENDTAB
  0
ENDSEC
  0
SECTION
  2
BLOCKS
  0
BLOCK
  8
0
  2
$MODEL_SPACE
 70
     0
 10
0.0
 20
0.0
 30
0.0
  3
$MODEL_SPACE
  1

  0
ENDBLK
  5
21
  8
0
  0
BLOCK
 67
     1
  8
0
  2
$PAPER_SPACE
 70
     0
 10
0.0
 20
0.0
 30
0.0
  3
$PAPER_SPACE
  1

  0
ENDBLK
  5
1D
 67
     1
  8
0
  0
ENDSEC
  0
SECTION
  2
ENTITIES
  0
ATTDEF
  5
3930
  8
DEFPOINTS
 10
302.9768279631502992
 20
18.1296020513874012
 30
0.0
 40
0.001
  1
K-72785T
  3

  2
MODELNUMBER
 70
     0
1001
ACDBATTR
1070
     0
1070
     1
  0
ATTDEF
  5
3931
  8
DEFPOINTS
 10
302.9768279631502992
 20
18.127935384720729
 30
0.0
 40
0.001
  1
ELLISTON
  3

  2
TRADENAME
 70
     0
1001
ACDBATTR
1070
     0
1070
     1
  0
ATTDEF
  5
3932
  8
DEFPOINTS
 10
302.9768279631502992
 20
18.1262687180540709
 30
0.0
 40
0.001
  1
TOWEL BAR
  3

  2
PRODUCT
 70
     0
1001
ACDBATTR
1070
     0
1070
     1
  0
LINE
  5
4288
  8
0
 10
289.9788485876413802
 20
17.9403525474889705
 30
0.0
 11
289.9788485876413802
 21
18.1042260920889717
 31
0.0
  0
LINE
  5
4289
  8
0
 10
292.1766095738414037
 20
14.8113127062889696
 30
0.0
 11
313.7830585375414216
 21
14.8113127062889696
 31
0.0
  0
LINE
  5
428A
  8
0
 10
292.1766095738414037
 20
15.4365095565889696
 30
0.0
 11
313.7830585375414216
 21
15.4365095565889696
 31
0.0
  0
LINE
  5
428B
  8
0
 10
291.9610098983413877
 20
18.1239111314889705
 30
0.0
 11
289.9985336269414233
 21
18.1239111314889705
 31
0.0
  0
ARC
  5
428C
  8
0
 10
290.0011890910406009
 20
18.1015706281033317
 30
0.0
 40
0.0224977683583625
 50
96.7785565282118085
 51
173.2214437631139958
  0
LINE
  5
428D
  8
0
 10
292.1766095738414037
 20
14.7751585929889693
 30
0.0
 11
292.1766095738414037
 21
15.4756651881889695
 31
0.0
  0
LINE
  5
428E
  8
0
 10
292.1469541115413904
 20
14.7458111314889706
 30
0.0
 11
291.8924264764261807
 21
14.7458111314889706
 31
0.0
  0
ARC
  5
428F
  8
0
 10
292.1443724614881035
 20
14.7780769544184096
 30
0.0
 40
0.0323689395302282
 50
274.5745991942062005
 51
354.8272275458359104
  0
LINE
  5
4290
  8
0
 10
292.1469541115413904
 20
15.5056705347889707
 30
0.0
 11
291.8924264764261807
 21
15.5056705347889707
 31
0.0
  0
ARC
  5
4291
  8
0
 10
292.1429825678853263
 20
15.4720877999848607
 30
0.0
 40
0.0338167596900703
 50
6.0725358367614941
 51
83.2554429735271952
  0
LINE
  5
4292
  8
0
 10
291.8726648880414132
 20
15.4949965037138
 30
0.0
 11
291.8726648880414132
 21
14.7468175921421594
 31
0.0
  0
ARC
  5
4293
  8
0
 10
290.0262320543199053
 20
17.9447049032404813
 30
0.0
 40
0.0475829372260893
 50
185.248113624535506
 51
232.4504528711603939
  0
ARC
  5
4294
  8
0
 10
288.7266827747835123
 20
16.4299483820571801
 30
0.0
 40
1.9483119187451889
 50
10.0819495034126305
 51
49.2977153808598771
  0
ARC
  5
4295
  8
0
 10
305.0060057969827767
 20
20.0231604665463401
 30
0.0
 40
14.7247256715306101
 50
192.7597270527161868
 51
197.9160867505389945
  0
ARC
  5
4296
  8
0
 10
292.2549785742169206
 20
15.9592829750726999
 30
0.0
 40
1.343030814951947
 50
200.2933151399628002
 51
233.5131522271211111
  0
ARC
  5
4297
  8
0
 10
291.9242390610837106
 20
15.62810201089688
 30
0.0
 40
0.8827922304058015
 50
237.9946911361342927
 51
266.6507793471386094
  0
LINE
  5
4298
  8
0
 10
289.9972327635114198
 20
17.9069798843847501
 30
0.0
 11
291.9623107617713913
 21
17.9069798843847501
 31
0.0
  0
ARC
  5
4299
  8
0
 10
291.9005008015237763
 20
15.4670919374805909
 30
0.0
 40
0.0394145010886002
 50
101.8211112354297967
 51
134.9294317001823913
  0
LINE
  5
429A
  8
0
 10
291.9806949376413741
 20
17.9403525474889705
 30
0.0
 11
291.9806949376413741
 21
18.1042260920889717
 31
0.0
  0
ARC
  5
429B
  8
0
 10
291.9583544342422101
 20
18.1015706281032394
 30
0.0
 40
0.0224977683584421
 50
6.7785562370935164
 51
83.2214434718148937
  0
ARC
  5
429C
  8
0
 10
291.9333114709629058
 20
17.9447049032404813
 30
0.0
 40
0.0475829372260893
 50
307.5495471288394924
 51
354.7518863754643235
  0
ARC
  5
429D
  8
0
 10
291.6859796135223064
 20
15.7945618463968795
 30
0.0
 40
0.3529742005573696
 50
249.5775728354765022
 51
301.9306306057512757
  0
ARC
  5
429E
  8
0
 10
291.928581400668179
 20
16.0109254206014491
 30
0.0
 40
0.6581500019515706
 50
181.9508713616905879
 51
236.2374699106964897
  0
ARC
  5
429F
  8
0
 10
294.9628948824521899
 20
16.1276557666526905
 30
0.0
 40
3.6947027269040928
 50
170.9050727660348912
 51
182.1581599574732877
  0
ARC
  5
42A0
  8
0
 10
293.6068393693504959
 20
16.3278007960599609
 30
0.0
 40
2.3241189244965939
 50
145.3614321648128112
 51
170.4927825358161044
  0
ARC
  5
42A1
  8
0
 10
292.5732018388599727
 20
17.0057980882890512
 30
0.0
 40
1.0887224337179611
 50
124.1324713422856973
 51
143.7986359016279039
  0
LINE
  5
42A2
  8
0
 10
315.9808195237413884
 20
17.9403525474889705
 30
0.0
 11
315.9808195237413884
 21
18.1042260920889717
 31
0.0
  0
LINE
  5
42A3
  8
0
 10
313.9986582130413808
 20
18.1239111314889705
 30
0.0
 11
315.961134484441402
 21
18.1239111314889705
 31
0.0
  0
ARC
  5
42A4
  8
0
 10
315.9584790203422244
 20
18.1015706281032998
 30
0.0
 40
0.0224977683583781
 50
6.7785562369488801
 51
83.2214434717956664
  0
LINE
  5
42A5
  8
0
 10
313.7830585375414216
 20
14.7751585929889693
 30
0.0
 11
313.7830585375414216
 21
15.4756651881889695
 31
0.0
  0
LINE
  5
42A6
  8
0
 10
313.8127139998413782
 20
14.7458111314889706
 30
0.0
 11
314.0672416349565879
 21
14.7458111314889706
 31
0.0
  0
ARC
  5
42A7
  8
0
 10
313.8152956498947219
 20
14.7780769544184203
 30
0.0
 40
0.0323689395302359
 50
185.1727724541690066
 51
265.4254008057774854
  0
LINE
  5
42A8
  8
0
 10
313.8127139998413782
 20
15.5056705347889707
 30
0.0
 11
314.0672416349565879
 21
15.5056705347889707
 31
0.0
  0
ARC
  5
42A9
  8
0
 10
313.8166855434976128
 20
15.4720877999848607
 30
0.0
 40
0.0338167596900703
 50
96.7445570264728048
 51
173.9274641632381986
  0
LINE
  5
42AA
  8
0
 10
314.0870032233414122
 20
15.4949965037138
 30
0.0
 11
314.0870032233414122
 21
14.7468175921421594
 31
0.0
  0
ARC
  5
42AB
  8
0
 10
315.9334360570629201
 20
17.9447049032404813
 30
0.0
 40
0.0475829372260893
 50
307.5495471288394924
 51
354.7518863754643235
  0
ARC
  5
42AC
  8
0
 10
317.2329853365993131
 20
16.4299483820571801
 30
0.0
 40
1.9483119187451889
 50
130.7022846191401015
 51
169.9180504965873126
  0
ARC
  5
42AD
  8
0
 10
300.9536623143999918
 20
20.0231604665463401
 30
0.0
 40
14.7247256715306101
 50
342.0839132494609771
 51
347.2402729472836995
  0
ARC
  5
42AE
  8
0
 10
313.7046895371659048
 20
15.9592829750726999
 30
0.0
 40
1.343030814951947
 50
306.4868477728790026
 51
339.7066848600372282
  0
ARC
  5
42AF
  8
0
 10
314.0354290502991716
 20
15.62810201089688
 30
0.0
 40
0.8827922304058015
 50
273.3492206528615043
 51
302.005308863865821
  0
LINE
  5
42B0
  8
0
 10
315.9624353478714056
 20
17.9069798843847501
 30
0.0
 11
313.9973573496113772
 21
17.9069798843847501
 31
0.0
  0
ARC
  5
42B1
  8
0
 10
314.0591673098589922
 20
15.4670919374805909
 30
0.0
 40
0.0394145010886002
 50
45.0705682998176016
 51
78.1788887645701323
  0
LINE
  5
42B2
  8
0
 10
313.9789731737413945
 20
17.9403525474889705
 30
0.0
 11
313.9789731737413945
 21
18.1042260920889717
 31
0.0
  0
ARC
  5
42B3
  8
0
 10
314.0013136771406721
 20
18.101570628103179
 30
0.0
 40
0.022497768358517
 50
96.7785565284566047
 51
173.2214437628059045
  0
ARC
  5
42B4
  8
0
 10
314.0263566404199196
 20
17.9447049032404813
 30
0.0
 40
0.0475829372260893
 50
185.248113624535506
 51
232.4504528711603939
  0
ARC
  5
42B5
  8
0
 10
314.2736884978605758
 20
15.7945618463968795
 30
0.0
 40
0.3529742005573696
 50
238.0693693942486959
 51
290.4224271645234126
  0
ARC
  5
42B6
  8
0
 10
314.0310867107145896
 20
16.0109254206014491
 30
0.0
 40
0.6581500019515706
 50
303.7625300893035956
 51
358.0491286383091278
  0
ARC
  5
42B7
  8
0
 10
310.9967732289305786
 20
16.1276557666526905
 30
0.0
 40
3.6947027269040928
 50
357.841840042526826
 51
9.0949272339650538
  0
ARC
  5
42B8
  8
0
 10
312.3528287420322727
 20
16.3278007960599609
 30
0.0
 40
2.3241189244965939
 50
9.5072174641839133
 51
34.638567835186997
  0
ARC
  5
42B9
  8
0
 10
313.3864662725227959
 20
17.0057980882890512
 30
0.0
 40
1.0887224337179611
 50
36.2013640983720535
 51
55.8675286577143027
  0
LINE
  5
42BB
  8
0
 10
291.8924264764261807
 20
14.7458111314889706
 30
0.0
 11
291.8726648880414132
 21
14.7468175921421594
 31
0.0
  0
LINE
  5
42BC
  8
0
 10
314.0672416349565879
 20
14.7458111314889706
 30
0.0
 11
314.0870032233414122
 21
14.7468175921421594
 31
0.0
  0
ENDSEC
  0
EOF
