  0
SECTION
  2
HEADER
  9
$ACADVER
  1
AC1009
  9
$INSBASE
 10
304.7919922557376253
 20
32.8822305890361122
 30
0.0
  9
$EXTMIN
 10
301.3996711781043132
 20
31.8807513147032502
 30
-0.0015258207003583
  9
$EXTMAX
 10
304.8181662292486749
 20
33.8841878748197871
 30
0.0000000349246037
  9
$LIMMIN
 10
0.0
 20
0.0
  9
$LIMMAX
 10
11.6929133858000007
 20
8.2677165353999982
  9
$ORTHOMODE
 70
     1
  9
$REGENMODE
 70
     1
  9
$FILLMODE
 70
     1
  9
$QTEXTMODE
 70
     0
  9
$MIRRTEXT
 70
     0
  9
$DRAGMODE
 70
     2
  9
$LTSCALE
 40
0.6431102362
  9
$OSMODE
 70
  4095
  9
$ATTMODE
 70
     1
  9
$TEXTSIZE
 40
0.2
  9
$TRACEWID
 40
0.05
  9
$TEXTSTYLE
  7
STANDARD
  9
$CLAYER
  8
0
  9
$CELTYPE
  6
BYLAYER
  9
$CECOLOR
 62
   256
  9
$DIMSCALE
 40
1.0
  9
$DIMASZ
 40
0.1875
  9
$DIMEXO
 40
0.0625
  9
$DIMDLI
 40
0.4443307087
  9
$DIMRND
 40
0.0
  9
$DIMDLE
 40
0.0
  9
$DIMEXE
 40
0.125
  9
$DIMTP
 40
0.01
  9
$DIMTM
 40
0.01
  9
$DIMTXT
 40
2.0
  9
$DIMCEN
 40
0.1052362205
  9
$DIMTSZ
 40
0.0
  9
$DIMTOL
 70
     1
  9
$DIMLIM
 70
     0
  9
$DIMTIH
 70
     1
  9
$DIMTOH
 70
     1
  9
$DIMSE1
 70
     0
  9
$DIMSE2
 70
     0
  9
$DIMTAD
 70
     0
  9
$DIMZIN
 70
     0
  9
$DIMBLK
  1

  9
$DIMASO
 70
     1
  9
$DIMSHO
 70
     1
  9
$DIMPOST
  1
\X
  9
$DIMAPOST
  1

  9
$DIMALT
 70
     1
  9
$DIMALTD
 70
     2
  9
$DIMALTF
 40
25.3999999999999986
  9
$DIMLFAC
 40
1.0
  9
$DIMTOFL
 70
     0
  9
$DIMTVP
 40
0.0
  9
$DIMTIX
 70
     0
  9
$DIMSOXD
 70
     0
  9
$DIMSAH
 70
     0
  9
$DIMBLK1
  1

  9
$DIMBLK2
  1

  9
$DIMSTYLE
  2
STANDARD
  9
$DIMCLRD
 70
     0
  9
$DIMCLRE
 70
     0
  9
$DIMCLRT
 70
     0
  9
$DIMTFAC
 40
1.0
  9
$DIMGAP
 40
0.09
  9
$LUNITS
 70
     2
  9
$LUPREC
 70
     4
  9
$SKETCHINC
 40
0.1
  9
$FILLETRAD
 40
0.0
  9
$AUNITS
 70
     0
  9
$AUPREC
 70
     0
  9
$MENU
  1
.
  9
$ELEVATION
 40
0.0
  9
$PELEVATION
 40
0.0
  9
$THICKNESS
 40
0.0
  9
$LIMCHECK
 70
     0
  9
$BLIPMODE
 70
     0
  9
$CHAMFERA
 40
0.0
  9
$CHAMFERB
 40
0.0
  9
$SKPOLY
 70
     0
  9
$TDCREATE
 40
2458060.468368056230247
  9
$TDUPDATE
 40
2459033.6009606481529772
  9
$TDINDWG
 40
0.2437829167
  9
$TDUSRTIMER
 40
0.2437829167
  9
$USRTIMER
 70
     1
  9
$ANGBASE
 50
0.0
  9
$ANGDIR
 70
     0
  9
$PDMODE
 70
     0
  9
$PDSIZE
 40
0.3125
  9
$PLINEWID
 40
0.0
  9
$COORDS
 70
     1
  9
$SPLFRAME
 70
     0
  9
$SPLINETYPE
 70
     6
  9
$SPLINESEGS
 70
     8
  9
$ATTDIA
 70
     1
  9
$ATTREQ
 70
     1
  9
$HANDLING
 70
     1
  9
$HANDSEED
  5
4391
  9
$SURFTAB1
 70
     6
  9
$SURFTAB2
 70
     6
  9
$SURFTYPE
 70
     6
  9
$SURFU
 70
     6
  9
$SURFV
 70
     6
  9
$UCSNAME
  2

  9
$UCSORG
 10
0.0
 20
0.0
 30
0.0
  9
$UCSXDIR
 10
1.0
 20
0.0
 30
0.0
  9
$UCSYDIR
 10
0.0
 20
1.0
 30
0.0
  9
$PUCSNAME
  2

  9
$PUCSORG
 10
0.0
 20
0.0
 30
0.0
  9
$PUCSXDIR
 10
1.0
 20
0.0
 30
0.0
  9
$PUCSYDIR
 10
0.0
 20
1.0
 30
0.0
  9
$USERI1
 70
     0
  9
$USERI2
 70
     0
  9
$USERI3
 70
     0
  9
$USERI4
 70
     0
  9
$USERI5
 70
     0
  9
$USERR1
 40
0.0
  9
$USERR2
 40
0.0
  9
$USERR3
 40
0.0
  9
$USERR4
 40
0.0
  9
$USERR5
 40
0.0
  9
$WORLDVIEW
 70
     1
  9
$SHADEDGE
 70
     3
  9
$SHADEDIF
 70
    70
  9
$TILEMODE
 70
     1
  9
$MAXACTVP
 70
    64
  9
$PLIMCHECK
 70
     0
  9
$PEXTMIN
 10
1.0000000000000000E+20
 20
1.0000000000000000E+20
 30
1.0000000000000000E+20
  9
$PEXTMAX
 10
-1.0000000000000000E+20
 20
-1.0000000000000000E+20
 30
-1.0000000000000000E+20
  9
$PLIMMIN
 10
0.0
 20
0.0
  9
$PLIMMAX
 10
12.0
 20
9.0
  9
$UNITMODE
 70
     0
  9
$VISRETAIN
 70
     1
  9
$PLINEGEN
 70
     0
  9
$PSLTSCALE
 70
     1
  0
ENDSEC
  0
SECTION
  2
TABLES
  0
TABLE
  2
VPORT
 70
     1
  0
VPORT
  2
*ACTIVE
 70
     0
 10
0.0
 20
0.0
 11
1.0
 21
1.0
 12
-0.0024574701205324
 22
0.0002390057254118
 13
0.0
 23
0.0
 14
1.0
 24
1.0
 15
0.0
 25
0.0
 16
0.0
 26
0.0
 36
11.1525761526273097
 17
303.111376173796998
 27
32.8822305890361122
 37
0.0
 40
2.0160721226212548
 41
2.005224660397074
 42
50.0
 43
0.0
 44
0.0
 50
0.0
 51
0.0
 71
     0
 72
   100
 73
     1
 74
     1
 75
     0
 76
     0
 77
     0
 78
     0
  0
ENDTAB
  0
TABLE
  2
LTYPE
 70
     2
  0
LTYPE
  2
CONTINUOUS
 70
     0
  3
Solid line
 72
    65
 73
     0
 40
0.0
  0
LTYPE
  2
PHANTOM2
 70
     0
  3
___ _ _ ___ _ _ ___ _ _ ___ _ _
 72
    65
 73
     6
 40
1.25
 49
0.625
 49
-0.125
 49
0.125
 49
-0.125
 49
0.125
 49
-0.125
  0
ENDTAB
  0
TABLE
  2
LAYER
 70
     2
  0
LAYER
  2
0
 70
     0
 62
   255
  6
CONTINUOUS
  0
LAYER
  2
DEFPOINTS
 70
     0
 62
     7
  6
CONTINUOUS
  0
ENDTAB
  0
TABLE
  2
STYLE
 70
     1
  0
STYLE
  2
STANDARD
 70
     0
 40
0.0
 41
0.8
 50
0.0
 71
     0
 42
0.2
  3
txt
  4

  0
ENDTAB
  0
TABLE
  2
VIEW
 70
     0
  0
ENDTAB
  0
TABLE
  2
UCS
 70
     0
  0
ENDTAB
  0
TABLE
  2
APPID
 70
     9
  0
APPID
  2
ACAD
 70
     0
  0
APPID
  2
ACAD_MLEADERVER
 70
     0
  0
APPID
  2
ACAD_EXEMPT_FROM_CAD_STANDARDS
 70
     0
  0
APPID
  2
ACAD_NAV_VCDISPLAY
 70
     0
  0
APPID
  2
ACAECLAYERSTANDARD
 70
     0
  0
APPID
  2
ACCMTRANSPARENCY
 70
     0
  0
APPID
  2
ACAD_DSTYLE_DIMJAG
 70
     0
  0
APPID
  2
ACAD_DSTYLE_DIMTALN
 70
     0
  0
APPID
  2
ACDBATTR
 70
     0
  0
ENDTAB
  0
TABLE
  2
DIMSTYLE
 70
     1
  0
DIMSTYLE
  2
STANDARD
 70
     0
  3

  4

  5

  6

  7

 40
1.0
 41
0.1875
 42
0.0625
 43
0.38
 44
0.125
 45
0.0
 46
0.0
 47
0.01
 48
0.01
140
0.15625
141
0.09
142
0.0
143
25.3999999999999986
144
1.0
145
0.0
146
1.0
147
0.09
 71
     1
 72
     0
 73
     1
 74
     1
 75
     0
 76
     0
 77
     0
 78
     4
170
     0
171
     2
172
     0
173
     0
174
     0
175
     0
176
     0
177
     0
178
     0
  0
ENDTAB
  0
ENDSEC
  0
SECTION
  2
BLOCKS
  0
BLOCK
  8
0
  2
$MODEL_SPACE
 70
     0
 10
0.0
 20
0.0
 30
0.0
  3
$MODEL_SPACE
  1

  0
ENDBLK
  5
21
  8
0
  0
BLOCK
 67
     1
  8
0
  2
$PAPER_SPACE
 70
     0
 10
0.0
 20
0.0
 30
0.0
  3
$PAPER_SPACE
  1

  0
ENDBLK
  5
1D
 67
     1
  8
0
  0
ENDSEC
  0
SECTION
  2
ENTITIES
  0
ATTDEF
  5
3930
  8
DEFPOINTS
 10
304.7981968245779854
 20
32.8838972557027702
 30
0.0
 40
0.001
  1
K-72785T
  3

  2
MODELNUMBER
 70
     0
1001
ACDBATTR
1070
     0
1070
     1
  0
ATTDEF
  5
3931
  8
DEFPOINTS
 10
304.7981968245779854
 20
32.8822305890361122
 30
0.0
 40
0.001
  1
ELLISTON
  3

  2
TRADENAME
 70
     0
1001
ACDBATTR
1070
     0
1070
     1
  0
ATTDEF
  5
3932
  8
DEFPOINTS
 10
304.7981968245779854
 20
32.8805639223694399
 30
0.0
 40
0.001
  1
TOWEL BAR
  3

  2
PRODUCT
 70
     0
1001
ACDBATTR
1070
     0
1070
     1
  0
ARC
  5
4267
  8
0
 10
304.6305618274935796
 20
30.8827853475546696
 30
0.0
 40
1.0024500683822299
 50
84.9261921780998819
 51
91.8886790282424926
  0
ARC
  5
4268
  8
0
 10
301.7939835136376132
 20
32.418751147636101
 30
0.0
 40
0.3800946865
 50
35.1363904979743609
 51
324.8186832175003929
  0
LINE
  5
4269
  8
0
 10
304.7192174666216147
 20
31.881307414036101
 30
0.0
 11
304.7723072163375946
 21
31.881307414036101
 31
0.0
  0
LINE
  5
426A
  8
0
 10
304.7919922557376253
 20
33.8634687247361086
 30
0.0
 11
304.7919922557376253
 21
31.9009924533361016
 31
0.0
  0
ARC
  5
426B
  8
0
 10
304.7696517521313808
 20
31.9036479175422905
 30
0.0
 40
0.0224977685899847
 50
276.7785567324008866
 51
353.221443267607583
  0
LINE
  5
426C
  8
0
 10
304.5750610086333836
 20
31.8904297644305892
 30
0.0
 11
304.5750610086333836
 21
33.8410759475863898
 31
0.0
  0
LINE
  5
426D
  8
0
 10
304.6170365162375901
 20
33.883153764036102
 30
0.0
 11
304.7723072163375946
 21
33.883153764036102
 31
0.0
  0
ARC
  5
426E
  8
0
 10
304.7696517521313808
 20
33.8608132605299232
 30
0.0
 40
0.0224977685899847
 50
6.778556732391813
 51
83.221443267602254
  0
ARC
  5
426F
  8
0
 10
304.5965045392047728
 20
31.9275317570372792
 30
0.0
 40
0.04285303791743
 50
239.9737328250789972
 51
271.3623496401233979
  0
ARC
  5
4270
  8
0
 10
304.6194955428215962
 20
33.838725084396529
 30
0.0
 40
0.0444966783732937
 50
93.1679591191525986
 51
176.9715204844335972
  0
ARC
  5
4271
  8
0
 10
303.105845369581175
 20
34.2613529026325097
 30
0.0
 40
1.528145056262165
 50
308.1432344316297076
 51
344.0365404155663782
  0
ARC
  5
4272
  8
0
 10
302.8386108192153188
 20
34.715149953762392
 30
0.0
 40
2.0512927635407929
 50
277.5157605308153279
 51
306.1846642354930168
  0
ARC
  5
4273
  8
0
 10
302.3905022389662918
 20
37.6328555068430717
 30
0.0
 40
5.0029361748389691
 50
268.0654058085137876
 51
278.2330008528429062
  0
ARC
  5
4274
  8
0
 10
302.2834594198401987
 20
35.6015833381873321
 30
0.0
 40
2.9694565949484928
 50
266.5510436703021924
 51
268.8065268172786091
  0
ARC
  5
4275
  8
0
 10
303.2590446479915727
 20
28.580579771491049
 30
0.0
 40
3.561882372740397
 50
68.316932517580085
 51
84.9524033289973772
  0
ARC
  5
4276
  8
0
 10
302.2517762994535815
 20
20.6145537681991584
 30
0.0
 40
11.5895865740456703
 50
83.4568290431441966
 51
87.8545027944701502
  0
ARC
  5
4277
  8
0
 10
302.3481475777463743
 20
24.8912015760726497
 30
0.0
 40
7.3126072444650791
 50
87.3545933521770337
 51
91.9082268418273145
  0
ARC
  5
4279
  8
0
 10
302.1302359154846044
 20
33.0665673968060219
 30
0.0
 40
0.4298145098368309
 50
218.5265323243374951
 51
266.6098581736374058
  0
ARC
  5
427A
  8
0
 10
302.1293184458922951
 20
31.7720534957886507
 30
0.0
 40
0.4284110432088183
 50
93.3013403491927278
 51
141.512237854273593
  0
ENDSEC
  0
EOF
