  0
SECTION
  2
HEADER
  9
$ACADVER
  1
AC1009
  9
$INSBASE
 10
459.6085798029424723
 20
82.634946172129105
 30
0.0
  9
$EXTMIN
 10
456.3890011291571795
 20
75.9804907799492639
 30
-0.0015258207003583
  9
$EXTMAX
 10
462.8152243640902839
 20
83.6374987028636667
 30
0.0000000349246037
  9
$LIMMIN
 10
0.0
 20
0.0
  9
$LIMMAX
 10
11.6929133858000007
 20
8.2677165353999982
  9
$ORTHOMODE
 70
     0
  9
$REGENMODE
 70
     1
  9
$FILLMODE
 70
     1
  9
$QTEXTMODE
 70
     0
  9
$MIRRTEXT
 70
     0
  9
$DRAGMODE
 70
     2
  9
$LTSCALE
 40
0.6431102362
  9
$OSMODE
 70
  4095
  9
$ATTMODE
 70
     1
  9
$TEXTSIZE
 40
0.2
  9
$TRACEWID
 40
0.05
  9
$TEXTSTYLE
  7
STANDARD
  9
$CLAYER
  8
0
  9
$CELTYPE
  6
BYLAYER
  9
$CECOLOR
 62
   256
  9
$DIMSCALE
 40
1.0
  9
$DIMASZ
 40
0.1875
  9
$DIMEXO
 40
0.0625
  9
$DIMDLI
 40
0.4443307087
  9
$DIMRND
 40
0.0
  9
$DIMDLE
 40
0.0
  9
$DIMEXE
 40
0.125
  9
$DIMTP
 40
0.01
  9
$DIMTM
 40
0.01
  9
$DIMTXT
 40
1.0
  9
$DIMCEN
 40
0.1052362205
  9
$DIMTSZ
 40
0.0
  9
$DIMTOL
 70
     1
  9
$DIMLIM
 70
     0
  9
$DIMTIH
 70
     0
  9
$DIMTOH
 70
     1
  9
$DIMSE1
 70
     0
  9
$DIMSE2
 70
     0
  9
$DIMTAD
 70
     0
  9
$DIMZIN
 70
     0
  9
$DIMBLK
  1

  9
$DIMASO
 70
     1
  9
$DIMSHO
 70
     1
  9
$DIMPOST
  1
\X
  9
$DIMAPOST
  1

  9
$DIMALT
 70
     1
  9
$DIMALTD
 70
     2
  9
$DIMALTF
 40
25.3999999999999986
  9
$DIMLFAC
 40
1.0
  9
$DIMTOFL
 70
     0
  9
$DIMTVP
 40
0.0
  9
$DIMTIX
 70
     0
  9
$DIMSOXD
 70
     0
  9
$DIMSAH
 70
     0
  9
$DIMBLK1
  1

  9
$DIMBLK2
  1

  9
$DIMSTYLE
  2
STANDARD
  9
$DIMCLRD
 70
     0
  9
$DIMCLRE
 70
     0
  9
$DIMCLRT
 70
     0
  9
$DIMTFAC
 40
1.0
  9
$DIMGAP
 40
0.09
  9
$LUNITS
 70
     2
  9
$LUPREC
 70
     4
  9
$SKETCHINC
 40
0.1
  9
$FILLETRAD
 40
0.0
  9
$AUNITS
 70
     0
  9
$AUPREC
 70
     0
  9
$MENU
  1
.
  9
$ELEVATION
 40
0.0
  9
$PELEVATION
 40
0.0
  9
$THICKNESS
 40
0.0
  9
$LIMCHECK
 70
     0
  9
$BLIPMODE
 70
     0
  9
$CHAMFERA
 40
0.0
  9
$CHAMFERB
 40
0.0
  9
$SKPOLY
 70
     0
  9
$TDCREATE
 40
2458172.5207638889551163
  9
$TDUPDATE
 40
2459033.6051620370708406
  9
$TDINDWG
 40
0.2443621296
  9
$TDUSRTIMER
 40
0.2443621296
  9
$USRTIMER
 70
     1
  9
$ANGBASE
 50
0.0
  9
$ANGDIR
 70
     0
  9
$PDMODE
 70
     0
  9
$PDSIZE
 40
0.3125
  9
$PLINEWID
 40
0.0
  9
$COORDS
 70
     1
  9
$SPLFRAME
 70
     0
  9
$SPLINETYPE
 70
     6
  9
$SPLINESEGS
 70
     8
  9
$ATTDIA
 70
     1
  9
$ATTREQ
 70
     1
  9
$HANDLING
 70
     1
  9
$HANDSEED
  5
7ADD
  9
$SURFTAB1
 70
     6
  9
$SURFTAB2
 70
     6
  9
$SURFTYPE
 70
     6
  9
$SURFU
 70
     6
  9
$SURFV
 70
     6
  9
$UCSNAME
  2

  9
$UCSORG
 10
0.0
 20
0.0
 30
0.0
  9
$UCSXDIR
 10
1.0
 20
0.0
 30
0.0
  9
$UCSYDIR
 10
0.0
 20
1.0
 30
0.0
  9
$PUCSNAME
  2

  9
$PUCSORG
 10
0.0
 20
0.0
 30
0.0
  9
$PUCSXDIR
 10
1.0
 20
0.0
 30
0.0
  9
$PUCSYDIR
 10
0.0
 20
1.0
 30
0.0
  9
$USERI1
 70
     0
  9
$USERI2
 70
     0
  9
$USERI3
 70
     0
  9
$USERI4
 70
     0
  9
$USERI5
 70
     0
  9
$USERR1
 40
0.0
  9
$USERR2
 40
0.0
  9
$USERR3
 40
0.0
  9
$USERR4
 40
0.0
  9
$USERR5
 40
0.0
  9
$WORLDVIEW
 70
     1
  9
$SHADEDGE
 70
     3
  9
$SHADEDIF
 70
    70
  9
$TILEMODE
 70
     1
  9
$MAXACTVP
 70
    64
  9
$PLIMCHECK
 70
     0
  9
$PEXTMIN
 10
1.0000000000000000E+20
 20
1.0000000000000000E+20
 30
1.0000000000000000E+20
  9
$PEXTMAX
 10
-1.0000000000000000E+20
 20
-1.0000000000000000E+20
 30
-1.0000000000000000E+20
  9
$PLIMMIN
 10
0.0
 20
0.0
  9
$PLIMMAX
 10
12.0
 20
9.0
  9
$UNITMODE
 70
     0
  9
$VISRETAIN
 70
     1
  9
$PLINEGEN
 70
     0
  9
$PSLTSCALE
 70
     1
  0
ENDSEC
  0
SECTION
  2
TABLES
  0
TABLE
  2
VPORT
 70
     1
  0
VPORT
  2
*ACTIVE
 70
     0
 10
0.0
 20
0.0
 11
1.0
 21
1.0
 12
-0.0064670563186828
 22
0.003246483849054
 13
0.0
 23
0.0
 14
1.0
 24
1.0
 15
0.0
 25
0.0
 16
0.0
 26
0.0
 36
27.3108048465081588
 17
459.6085798029424723
 27
79.8057482575574113
 37
0.0
 40
7.704964131199878
 41
2.005224660397074
 42
50.0
 43
0.0
 44
0.0
 50
0.0
 51
0.0
 71
     0
 72
   100
 73
     1
 74
     1
 75
     0
 76
     0
 77
     0
 78
     0
  0
ENDTAB
  0
TABLE
  2
LTYPE
 70
     2
  0
LTYPE
  2
CONTINUOUS
 70
     0
  3
Solid line
 72
    65
 73
     0
 40
0.0
  0
LTYPE
  2
PHANTOM2
 70
     0
  3
___ _ _ ___ _ _ ___ _ _ ___ _ _
 72
    65
 73
     6
 40
1.25
 49
0.625
 49
-0.125
 49
0.125
 49
-0.125
 49
0.125
 49
-0.125
  0
ENDTAB
  0
TABLE
  2
LAYER
 70
     2
  0
LAYER
  2
0
 70
     0
 62
   255
  6
CONTINUOUS
  0
LAYER
  2
DEFPOINTS
 70
     0
 62
     7
  6
CONTINUOUS
  0
ENDTAB
  0
TABLE
  2
STYLE
 70
     1
  0
STYLE
  2
STANDARD
 70
     0
 40
0.0
 41
0.8
 50
0.0
 71
     0
 42
0.2
  3
txt
  4

  0
ENDTAB
  0
TABLE
  2
VIEW
 70
     0
  0
ENDTAB
  0
TABLE
  2
UCS
 70
     0
  0
ENDTAB
  0
TABLE
  2
APPID
 70
    10
  0
APPID
  2
ACAD
 70
     0
  0
APPID
  2
ACAD_MLEADERVER
 70
     0
  0
APPID
  2
ACAD_EXEMPT_FROM_CAD_STANDARDS
 70
     0
  0
APPID
  2
ACAD_DSTYLE_DIMJAG
 70
     0
  0
APPID
  2
ACAD_DSTYLE_DIMTALN
 70
     0
  0
APPID
  2
ACAD_NAV_VCDISPLAY
 70
     0
  0
APPID
  2
ACAECLAYERSTANDARD
 70
     0
  0
APPID
  2
ACCMTRANSPARENCY
 70
     0
  0
APPID
  2
DCO15
 70
     0
  0
APPID
  2
ACDBATTR
 70
     0
  0
ENDTAB
  0
TABLE
  2
DIMSTYLE
 70
     1
  0
DIMSTYLE
  2
STANDARD
 70
     0
  3

  4

  5

  6

  7

 40
1.0
 41
0.1875
 42
0.0625
 43
0.38
 44
0.125
 45
0.0
 46
0.0
 47
0.01
 48
0.01
140
0.15625
141
0.09
142
0.0
143
25.3999999999999986
144
1.0
145
0.0
146
1.0
147
0.09
 71
     1
 72
     0
 73
     1
 74
     1
 75
     0
 76
     0
 77
     0
 78
     4
170
     0
171
     2
172
     0
173
     0
174
     0
175
     0
176
     0
177
     0
178
     0
  0
ENDTAB
  0
ENDSEC
  0
SECTION
  2
BLOCKS
  0
BLOCK
  8
0
  2
$MODEL_SPACE
 70
     0
 10
0.0
 20
0.0
 30
0.0
  3
$MODEL_SPACE
  1

  0
ENDBLK
  5
21
  8
0
  0
BLOCK
 67
     1
  8
0
  2
$PAPER_SPACE
 70
     0
 10
0.0
 20
0.0
 30
0.0
  3
$PAPER_SPACE
  1

  0
ENDBLK
  5
1D
 67
     1
  8
0
  0
BLOCK
  8
0
  2
A$C781A5BD3
 70
     2
 10
0.0
 20
0.0
 30
0.0
  3
A$C781A5BD3
  1

  0
ATTDEF
  5
7791
  8
DEFPOINTS
 10
0.0000000052162363
 20
-0.0000000019025492
 30
0.0
 40
0.001
  1
METAL
  3

  2
MATERIAL
 70
     0
1001
ACDBATTR
1070
     0
1070
     1
  0
ATTDEF
  5
7792
  8
DEFPOINTS
 10
0.0000000052162363
 20
0.0016666647641159
 30
0.0
 40
0.001
  1
ROBE HOOK
  3

  2
PRODUCT
 70
     0
1001
ACDBATTR
1070
     0
1070
     1
  0
ATTDEF
  5
7793
  8
DEFPOINTS
 10
0.0000000052162363
 20
0.0033333314307811
 30
0.0
 40
0.001
  1
ELLISTON
  3

  2
TRADENAME
 70
     0
1001
ACDBATTR
1070
     0
1070
     1
  0
ATTDEF
  5
7794
  8
DEFPOINTS
 10
0.0000000052162363
 20
0.0049999980974462
 30
0.0
 40
0.001
  1
K-R72788
  3

  2
MODELNUMBER
 70
     0
1001
ACDBATTR
1070
     0
1070
     1
  0
ENDBLK
  5
7798
  8
0
  0
ENDSEC
  0
SECTION
  2
ENTITIES
  0
ATTDEF
  5
829
  8
DEFPOINTS
 10
459.604486785297297
 20
82.6316755191872545
 30
0.0
 40
0.001
  1
K-72786T
  3

  2
MODELNUMBER
 70
     0
1001
ACDBATTR
1070
     0
1070
     1
  0
ATTDEF
  5
82A
  8
DEFPOINTS
 10
459.604486785297297
 20
82.6300088525206036
 30
0.0
 40
0.001
  1
ELLISTON
  3

  2
TRADENAME
 70
     0
1001
ACDBATTR
1070
     0
1070
     1
  0
ATTDEF
  5
82B
  8
DEFPOINTS
 10
459.604486785297297
 20
82.6283421858539242
 30
0.0
 40
0.001
  1
TOWEL RING
  3

  2
PRODUCT
 70
     0
1001
ACDBATTR
1070
     0
1070
     1
  0
ARC
  5
79FB
  8
0
 10
459.6388291308040834
 20
79.8803688004665702
 30
0.0
 40
2.6192807316962088
 50
90.6617073639753954
 51
98.7148556774442056
  0
ARC
  5
79FC
  8
0
 10
459.2468720100891915
 20
82.4397831322918364
 30
0.0
 40
0.0300297593535026
 50
99.407915300568817
 51
180.1165283094699134
  0
LINE
  5
79FD
  8
0
 10
459.2168423128425161
 20
82.4397220577291137
 30
0.0
 11
459.2168423128425161
 21
81.920634946844217
 31
0.0
  0
ARC
  5
79FE
  8
0
 10
459.247037283762495
 20
81.9207346675133863
 30
0.0
 40
0.0301951355862754
 50
180.1892219971414022
 51
260.3351348074609746
  0
ARC
  5
79FF
  8
0
 10
459.6085832919412155
 20
84.1054536303698939
 30
0.0
 40
2.2446275723413591
 50
260.5997578977152216
 51
279.4001334249937258
  0
ARC
  5
7A00
  8
0
 10
459.6180241334357106
 20
82.1545060715512392
 30
0.0
 40
0.4026257263583862
 50
91.3441016738826761
 51
124.0654219988424956
  0
ARC
  5
7A01
  8
0
 10
459.6099422385677258
 20
82.1764773567577009
 30
0.0
 40
0.3840578464996226
 50
232.1865441911064067
 51
269.7967442258420192
  0
ARC
  5
7A02
  8
0
 10
459.6123905611412965
 20
79.1773162879165255
 30
0.0
 40
3.196330673070352
 50
97.108617638334934
 51
269.9316902925251043
  0
ARC
  5
7A03
  8
0
 10
459.6128587921655821
 20
79.17755071042005
 30
0.0
 40
2.7972059463352479
 50
98.1390373317063478
 51
269.9123524962437273
  0
ARC
  5
7A04
  8
0
 10
459.6085798029424723
 20
82.634946172129105
 30
0.0
 40
1.0
 50
227.9539674483704914
 51
312.0460325516294802
  0
ARC
  5
7A05
  8
0
 10
459.6085798029424723
 20
82.634946172129105
 30
0.0
 40
1.0
 50
336.6062891454942019
 51
203.3937108545057981
  0
ARC
  5
7A06
  8
0
 10
459.6166573133226052
 20
81.419618936381454
 30
0.0
 40
0.2357329627125729
 50
91.9636535422234545
 51
110.8418784886686979
  0
ARC
  5
7A07
  8
0
 10
459.5220633171426243
 20
81.6659892224285358
 30
0.0
 40
0.0281818443342575
 50
280.3740501364540023
 51
292.3632034906723902
  0
ARC
  5
7A08
  8
0
 10
459.9702875957958099
 20
82.4397831322918364
 30
0.0
 40
0.0300297593535026
 50
359.8834716905300866
 51
80.592084699431183
  0
LINE
  5
7A09
  8
0
 10
460.0003172930424853
 20
82.4397220577291137
 30
0.0
 11
460.0003172930424853
 21
81.920634946844217
 31
0.0
  0
ARC
  5
7A0A
  8
0
 10
459.9701223221225064
 20
81.9207346675133863
 30
0.0
 40
0.0301951355862754
 50
279.6648651925390254
 51
359.8107780028586262
  0
ARC
  5
7A0B
  8
0
 10
459.5993319317389023
 20
82.1553114264407185
 30
0.0
 40
0.4018160239574302
 50
55.2841204092344114
 51
88.681210436954359
  0
ARC
  5
7A0C
  8
0
 10
459.6072173673172756
 20
82.1764773567577009
 30
0.0
 40
0.3840578464996174
 50
270.2032557741579808
 51
307.8134558088934796
  0
ARC
  5
7A0D
  8
0
 10
459.6047690447435912
 20
79.1773162879165255
 30
0.0
 40
3.1963306730703511
 50
270.0683097074748957
 51
82.891382361665066
  0
ARC
  5
7A0E
  8
0
 10
459.6043008137193056
 20
79.17755071042005
 30
0.0
 40
2.7972059463352479
 50
270.0876475037562727
 51
81.860962668293638
  0
ARC
  5
7A0F
  8
0
 10
459.6005022925623962
 20
81.419618936381454
 30
0.0
 40
0.2357329627125489
 50
69.1581215113278631
 51
88.0363464577765455
  0
ARC
  5
7A10
  8
0
 10
459.6950962887423771
 20
81.6659892224285358
 30
0.0
 40
0.0281818443342575
 50
247.6367965093276098
 51
259.6259498635459977
  0
ARC
  5
7A12
  8
0
 10
459.4692772508714143
 20
78.5505983670167467
 30
0.0
 40
3.9513327783737959
 50
82.6437938914396995
 51
87.9796430676175731
  0
ENDSEC
  0
EOF
