  0
SECTION
  2
HEADER
  9
$ACADVER
  1
AC1009
  9
$INSBASE
 10
466.231638997489199
 20
85.9760314369535337
 30
0.0
  9
$EXTMIN
 10
462.8442438725089119
 20
84.9689693925074891
 30
-0.0015258207003583
  9
$EXTMAX
 10
466.2591229223647247
 20
86.9796215306489842
 30
0.0000000349246037
  9
$LIMMIN
 10
0.0
 20
0.0
  9
$LIMMAX
 10
11.6929133858000007
 20
8.2677165353999982
  9
$ORTHOMODE
 70
     0
  9
$REGENMODE
 70
     1
  9
$FILLMODE
 70
     1
  9
$QTEXTMODE
 70
     0
  9
$MIRRTEXT
 70
     0
  9
$DRAGMODE
 70
     2
  9
$LTSCALE
 40
0.6431102362
  9
$OSMODE
 70
  4095
  9
$ATTMODE
 70
     1
  9
$TEXTSIZE
 40
0.2
  9
$TRACEWID
 40
0.05
  9
$TEXTSTYLE
  7
STANDARD
  9
$CLAYER
  8
0
  9
$CELTYPE
  6
BYLAYER
  9
$CECOLOR
 62
   256
  9
$DIMSCALE
 40
1.0
  9
$DIMASZ
 40
0.1875
  9
$DIMEXO
 40
0.0625
  9
$DIMDLI
 40
0.4443307087
  9
$DIMRND
 40
0.0
  9
$DIMDLE
 40
0.0
  9
$DIMEXE
 40
0.125
  9
$DIMTP
 40
0.01
  9
$DIMTM
 40
0.01
  9
$DIMTXT
 40
1.0
  9
$DIMCEN
 40
0.1052362205
  9
$DIMTSZ
 40
0.0
  9
$DIMTOL
 70
     1
  9
$DIMLIM
 70
     0
  9
$DIMTIH
 70
     0
  9
$DIMTOH
 70
     1
  9
$DIMSE1
 70
     0
  9
$DIMSE2
 70
     0
  9
$DIMTAD
 70
     0
  9
$DIMZIN
 70
     0
  9
$DIMBLK
  1

  9
$DIMASO
 70
     1
  9
$DIMSHO
 70
     1
  9
$DIMPOST
  1
\X
  9
$DIMAPOST
  1

  9
$DIMALT
 70
     1
  9
$DIMALTD
 70
     2
  9
$DIMALTF
 40
25.3999999999999986
  9
$DIMLFAC
 40
1.0
  9
$DIMTOFL
 70
     0
  9
$DIMTVP
 40
0.0
  9
$DIMTIX
 70
     0
  9
$DIMSOXD
 70
     0
  9
$DIMSAH
 70
     0
  9
$DIMBLK1
  1

  9
$DIMBLK2
  1

  9
$DIMSTYLE
  2
STANDARD
  9
$DIMCLRD
 70
     0
  9
$DIMCLRE
 70
     0
  9
$DIMCLRT
 70
     0
  9
$DIMTFAC
 40
1.0
  9
$DIMGAP
 40
0.09
  9
$LUNITS
 70
     2
  9
$LUPREC
 70
     4
  9
$SKETCHINC
 40
0.1
  9
$FILLETRAD
 40
0.0
  9
$AUNITS
 70
     0
  9
$AUPREC
 70
     0
  9
$MENU
  1
.
  9
$ELEVATION
 40
0.0
  9
$PELEVATION
 40
0.0
  9
$THICKNESS
 40
0.0
  9
$LIMCHECK
 70
     0
  9
$BLIPMODE
 70
     0
  9
$CHAMFERA
 40
0.0
  9
$CHAMFERB
 40
0.0
  9
$SKPOLY
 70
     0
  9
$TDCREATE
 40
2458172.5207638889551163
  9
$TDUPDATE
 40
2459033.608391203917563
  9
$TDINDWG
 40
0.2636538889
  9
$TDUSRTIMER
 40
0.2636538889
  9
$USRTIMER
 70
     1
  9
$ANGBASE
 50
0.0
  9
$ANGDIR
 70
     0
  9
$PDMODE
 70
     0
  9
$PDSIZE
 40
0.3125
  9
$PLINEWID
 40
0.0
  9
$COORDS
 70
     1
  9
$SPLFRAME
 70
     0
  9
$SPLINETYPE
 70
     6
  9
$SPLINESEGS
 70
     8
  9
$ATTDIA
 70
     1
  9
$ATTREQ
 70
     1
  9
$HANDLING
 70
     1
  9
$HANDSEED
  5
7D7E
  9
$SURFTAB1
 70
     6
  9
$SURFTAB2
 70
     6
  9
$SURFTYPE
 70
     6
  9
$SURFU
 70
     6
  9
$SURFV
 70
     6
  9
$UCSNAME
  2

  9
$UCSORG
 10
0.0
 20
0.0
 30
0.0
  9
$UCSXDIR
 10
1.0
 20
0.0
 30
0.0
  9
$UCSYDIR
 10
0.0
 20
1.0
 30
0.0
  9
$PUCSNAME
  2

  9
$PUCSORG
 10
0.0
 20
0.0
 30
0.0
  9
$PUCSXDIR
 10
1.0
 20
0.0
 30
0.0
  9
$PUCSYDIR
 10
0.0
 20
1.0
 30
0.0
  9
$USERI1
 70
     0
  9
$USERI2
 70
     0
  9
$USERI3
 70
     0
  9
$USERI4
 70
     0
  9
$USERI5
 70
     0
  9
$USERR1
 40
0.0
  9
$USERR2
 40
0.0
  9
$USERR3
 40
0.0
  9
$USERR4
 40
0.0
  9
$USERR5
 40
0.0
  9
$WORLDVIEW
 70
     1
  9
$SHADEDGE
 70
     3
  9
$SHADEDIF
 70
    70
  9
$TILEMODE
 70
     1
  9
$MAXACTVP
 70
    64
  9
$PLIMCHECK
 70
     0
  9
$PEXTMIN
 10
1.0000000000000000E+20
 20
1.0000000000000000E+20
 30
1.0000000000000000E+20
  9
$PEXTMAX
 10
-1.0000000000000000E+20
 20
-1.0000000000000000E+20
 30
-1.0000000000000000E+20
  9
$PLIMMIN
 10
0.0
 20
0.0
  9
$PLIMMAX
 10
12.0
 20
9.0
  9
$UNITMODE
 70
     0
  9
$VISRETAIN
 70
     1
  9
$PLINEGEN
 70
     0
  9
$PSLTSCALE
 70
     1
  0
ENDSEC
  0
SECTION
  2
TABLES
  0
TABLE
  2
VPORT
 70
     1
  0
VPORT
  2
*ACTIVE
 70
     0
 10
0.0
 20
0.0
 11
1.0
 21
1.0
 12
0.0040210025603075
 22
-0.0017368590580986
 13
0.0
 23
0.0
 14
1.0
 24
1.0
 15
0.0
 25
0.0
 16
0.0
 26
0.0
 36
10.8841462961914601
 17
464.5476623948765109
 27
85.9760323206363353
 37
0.0
 40
2.0232449490275579
 41
2.005224660397074
 42
50.0
 43
0.0
 44
0.0
 50
0.0
 51
0.0
 71
     0
 72
   100
 73
     1
 74
     1
 75
     0
 76
     0
 77
     0
 78
     0
  0
ENDTAB
  0
TABLE
  2
LTYPE
 70
     2
  0
LTYPE
  2
CONTINUOUS
 70
     0
  3
Solid line
 72
    65
 73
     0
 40
0.0
  0
LTYPE
  2
PHANTOM2
 70
     0
  3
___ _ _ ___ _ _ ___ _ _ ___ _ _
 72
    65
 73
     6
 40
1.25
 49
0.625
 49
-0.125
 49
0.125
 49
-0.125
 49
0.125
 49
-0.125
  0
ENDTAB
  0
TABLE
  2
LAYER
 70
     2
  0
LAYER
  2
0
 70
     0
 62
   255
  6
CONTINUOUS
  0
LAYER
  2
DEFPOINTS
 70
     0
 62
     7
  6
CONTINUOUS
  0
ENDTAB
  0
TABLE
  2
STYLE
 70
     1
  0
STYLE
  2
STANDARD
 70
     0
 40
0.0
 41
0.8
 50
0.0
 71
     0
 42
0.2
  3
txt
  4

  0
ENDTAB
  0
TABLE
  2
VIEW
 70
     0
  0
ENDTAB
  0
TABLE
  2
UCS
 70
     0
  0
ENDTAB
  0
TABLE
  2
APPID
 70
    10
  0
APPID
  2
ACAD
 70
     0
  0
APPID
  2
ACAD_MLEADERVER
 70
     0
  0
APPID
  2
ACAD_EXEMPT_FROM_CAD_STANDARDS
 70
     0
  0
APPID
  2
ACAD_DSTYLE_DIMJAG
 70
     0
  0
APPID
  2
ACAD_DSTYLE_DIMTALN
 70
     0
  0
APPID
  2
ACAD_NAV_VCDISPLAY
 70
     0
  0
APPID
  2
ACAECLAYERSTANDARD
 70
     0
  0
APPID
  2
ACCMTRANSPARENCY
 70
     0
  0
APPID
  2
DCO15
 70
     0
  0
APPID
  2
ACDBATTR
 70
     0
  0
ENDTAB
  0
TABLE
  2
DIMSTYLE
 70
     1
  0
DIMSTYLE
  2
STANDARD
 70
     0
  3

  4

  5

  6

  7

 40
1.0
 41
0.1875
 42
0.0625
 43
0.38
 44
0.125
 45
0.0
 46
0.0
 47
0.01
 48
0.01
140
0.15625
141
0.09
142
0.0
143
25.3999999999999986
144
1.0
145
0.0
146
1.0
147
0.09
 71
     1
 72
     0
 73
     1
 74
     1
 75
     0
 76
     0
 77
     0
 78
     4
170
     0
171
     2
172
     0
173
     0
174
     0
175
     0
176
     0
177
     0
178
     0
  0
ENDTAB
  0
ENDSEC
  0
SECTION
  2
BLOCKS
  0
BLOCK
  8
0
  2
$MODEL_SPACE
 70
     0
 10
0.0
 20
0.0
 30
0.0
  3
$MODEL_SPACE
  1

  0
ENDBLK
  5
21
  8
0
  0
BLOCK
 67
     1
  8
0
  2
$PAPER_SPACE
 70
     0
 10
0.0
 20
0.0
 30
0.0
  3
$PAPER_SPACE
  1

  0
ENDBLK
  5
1D
 67
     1
  8
0
  0
ENDSEC
  0
SECTION
  2
ENTITIES
  0
ATTDEF
  5
829
  8
DEFPOINTS
 10
466.2342265051674985
 20
85.9792258813258741
 30
0.0
 40
0.001
  1
K-72787T
  3

  2
MODELNUMBER
 70
     0
1001
ACDBATTR
1070
     0
1070
     1
  0
ATTDEF
  5
82A
  8
DEFPOINTS
 10
466.2342265051674985
 20
85.9775592146592089
 30
0.0
 40
0.001
  1
ELLISTON
  3

  2
TRADENAME
 70
     0
1001
ACDBATTR
1070
     0
1070
     1
  0
ATTDEF
  5
82B
  8
DEFPOINTS
 10
466.2342265051674985
 20
85.9758925479925438
 30
0.0
 40
0.001
  1
TISSUE HOLDER
  3

  2
PRODUCT
 70
     0
1001
ACDBATTR
1070
     0
1070
     1
  0
LINE
  5
7C9F
  8
0
 10
466.211953958089282
 20
86.9769670017512766
 30
0.0
 11
466.0566962253893166
 21
86.9769670017512766
 31
0.0
  0
ARC
  5
7CA0
  8
0
 10
466.0570847399126819
 20
86.937125637535118
 30
0.0
 40
0.0398432584779166
 50
90.5587041848203
 51
163.2988404763744938
  0
ARC
  5
7CA1
  8
0
 10
464.5311411052149992
 20
87.3632002271091608
 30
0.0
 40
1.5444759685797791
 50
312.6252294946675079
 51
344.4275665075160759
  0
ARC
  5
7CA2
  8
0
 10
464.2115246920317873
 20
87.9091598482496863
 30
0.0
 40
2.166818285171038
 50
272.3396673453822245
 51
309.0651082476341003
  0
ARC
  5
7CA3
  8
0
 10
463.8249074473300766
 20
91.5148521319809589
 30
0.0
 40
5.790226528550825
 50
269.3274779887789805
 51
274.706274284185497
  0
ARC
  5
7CA4
  8
0
 10
463.7232370635628058
 20
87.9760209694724011
 30
0.0
 40
2.2512488663277339
 50
262.2234877216632754
 51
270.8579196715089097
  0
ARC
  5
7CA5
  8
0
 10
463.232234758832476
 20
85.5110884142709864
 30
0.0
 40
0.3818031409136721
 50
35.3419582388853328
 51
324.6580417611140206
  0
ARC
  5
7CA6
  8
0
 10
466.2116463893759146
 20
86.9569746432566433
 30
0.0
 40
0.0199947242214329
 50
0.8335903260928506
 51
89.1186132881689872
  0
LINE
  5
7CA7
  8
0
 10
466.231638997489199
 20
86.9572655341535352
 30
0.0
 11
466.231638997489199
 21
84.9947973397535463
 31
0.0
  0
ARC
  5
7CA8
  8
0
 10
466.2107234646904885
 20
84.9959937322708754
 30
0.0
 40
0.0209497223684458
 50
274.1005634857967834
 51
356.7261830553214281
  0
LINE
  5
7CA9
  8
0
 10
466.2122215218058159
 20
84.9750976395214082
 30
0.0
 11
466.1788605269193226
 21
84.9750976395214082
 31
0.0
  0
ARC
  5
7CAA
  8
0
 10
466.0921479839782933
 20
83.5862885368538855
 30
0.0
 40
1.391513488528028
 50
86.4272830495491746
 51
92.2598208499151156
  0
ARC
  5
7CAB
  8
0
 10
466.0358004148857276
 20
85.0162334787174245
 30
0.0
 40
0.0395413020290416
 50
243.8551833204010109
 51
272.1431182887026239
  0
ARC
  5
7CAC
  8
0
 10
465.2633786379756202
 20
83.4316367065581517
 30
0.0
 40
1.723292459643615
 50
64.0164028807643319
 51
73.9306418263070668
  0
ARC
  5
7CAD
  8
0
 10
464.158129320967987
 20
78.631003987454946
 30
0.0
 40
6.647639782839982
 50
76.230408501144467
 51
87.2383617209229669
  0
ARC
  5
7CAE
  8
0
 10
463.7141524763451912
 20
74.1842583917503475
 30
0.0
 40
11.1129763563816901
 50
86.0565146003926031
 51
89.7793720598546656
  0
ARC
  5
7CAF
  8
0
 10
463.4906474760052788
 20
86.028081078484405
 30
0.0
 40
0.2916390570664573
 50
207.6164736965855013
 51
255.7018201900949066
  0
LINE
  5
7CB0
  8
0
 10
466.0189222023893194
 20
86.948575789320742
 30
0.0
 11
466.018376877355422
 21
84.9807379169372723
 31
0.0
  0
ARC
  5
7CB2
  8
0
 10
463.7232370635628058
 20
83.0461558590696143
 30
0.0
 40
2.2512488663277339
 50
89.1420803284910761
 51
97.7765122783366678
  0
ARC
  5
7CB3
  8
0
 10
463.490647476005222
 20
84.9940957500576246
 30
0.0
 40
0.2916390570664545
 50
104.2981798099050934
 51
152.3827314303676985
  0
ENDSEC
  0
EOF
