  0
SECTION
  2
HEADER
  9
$ACADVER
  1
AC1009
  9
$INSBASE
 10
408.6953415720267913
 20
72.2005711615314425
 30
0.0
  9
$EXTMIN
 10
407.4647771905248987
 20
69.4999431003306825
 30
-0.0000000349181948
  9
$EXTMAX
 10
409.9278298524390038
 20
72.2103945146241983
 30
0.0000000814935746
  9
$LIMMIN
 10
0.0
 20
0.0
  9
$LIMMAX
 10
11.6929133858000007
 20
8.2677165353999982
  9
$ORTHOMODE
 70
     1
  9
$REGENMODE
 70
     1
  9
$FILLMODE
 70
     1
  9
$QTEXTMODE
 70
     0
  9
$MIRRTEXT
 70
     0
  9
$DRAGMODE
 70
     2
  9
$LTSCALE
 40
0.6431102362
  9
$OSMODE
 70
  2047
  9
$ATTMODE
 70
     1
  9
$TEXTSIZE
 40
0.2
  9
$TRACEWID
 40
0.05
  9
$TEXTSTYLE
  7
STANDARD
  9
$CLAYER
  8
0
  9
$CELTYPE
  6
BYLAYER
  9
$CECOLOR
 62
   256
  9
$DIMSCALE
 40
1.0
  9
$DIMASZ
 40
0.1875
  9
$DIMEXO
 40
0.0625
  9
$DIMDLI
 40
0.4443307087
  9
$DIMRND
 40
0.0
  9
$DIMDLE
 40
0.0
  9
$DIMEXE
 40
0.125
  9
$DIMTP
 40
0.01
  9
$DIMTM
 40
0.01
  9
$DIMTXT
 40
1.0
  9
$DIMCEN
 40
0.1052362205
  9
$DIMTSZ
 40
0.0
  9
$DIMTOL
 70
     1
  9
$DIMLIM
 70
     0
  9
$DIMTIH
 70
     0
  9
$DIMTOH
 70
     1
  9
$DIMSE1
 70
     0
  9
$DIMSE2
 70
     0
  9
$DIMTAD
 70
     0
  9
$DIMZIN
 70
     0
  9
$DIMBLK
  1

  9
$DIMASO
 70
     1
  9
$DIMSHO
 70
     1
  9
$DIMPOST
  1
\X
  9
$DIMAPOST
  1

  9
$DIMALT
 70
     1
  9
$DIMALTD
 70
     2
  9
$DIMALTF
 40
25.3999999999999986
  9
$DIMLFAC
 40
1.0
  9
$DIMTOFL
 70
     0
  9
$DIMTVP
 40
0.0
  9
$DIMTIX
 70
     0
  9
$DIMSOXD
 70
     0
  9
$DIMSAH
 70
     0
  9
$DIMBLK1
  1

  9
$DIMBLK2
  1

  9
$DIMSTYLE
  2
STANDARD
  9
$DIMCLRD
 70
     0
  9
$DIMCLRE
 70
     0
  9
$DIMCLRT
 70
     0
  9
$DIMTFAC
 40
1.0
  9
$DIMGAP
 40
0.09
  9
$LUNITS
 70
     2
  9
$LUPREC
 70
     4
  9
$SKETCHINC
 40
0.1
  9
$FILLETRAD
 40
0.0
  9
$AUNITS
 70
     0
  9
$AUPREC
 70
     0
  9
$MENU
  1
.
  9
$ELEVATION
 40
0.0
  9
$PELEVATION
 40
0.0
  9
$THICKNESS
 40
0.0
  9
$LIMCHECK
 70
     0
  9
$BLIPMODE
 70
     0
  9
$CHAMFERA
 40
0.0
  9
$CHAMFERB
 40
0.0
  9
$SKPOLY
 70
     0
  9
$TDCREATE
 40
2458172.5207638889551163
  9
$TDUPDATE
 40
2459048.7765972227789462
  9
$TDINDWG
 40
0.276548125
  9
$TDUSRTIMER
 40
0.276548125
  9
$USRTIMER
 70
     1
  9
$ANGBASE
 50
0.0
  9
$ANGDIR
 70
     0
  9
$PDMODE
 70
     0
  9
$PDSIZE
 40
0.3125
  9
$PLINEWID
 40
0.0
  9
$COORDS
 70
     1
  9
$SPLFRAME
 70
     0
  9
$SPLINETYPE
 70
     6
  9
$SPLINESEGS
 70
     8
  9
$ATTDIA
 70
     1
  9
$ATTREQ
 70
     1
  9
$HANDLING
 70
     1
  9
$HANDSEED
  5
EDC5
  9
$SURFTAB1
 70
     6
  9
$SURFTAB2
 70
     6
  9
$SURFTYPE
 70
     6
  9
$SURFU
 70
     6
  9
$SURFV
 70
     6
  9
$UCSNAME
  2

  9
$UCSORG
 10
0.0
 20
0.0
 30
0.0
  9
$UCSXDIR
 10
1.0
 20
0.0
 30
0.0
  9
$UCSYDIR
 10
0.0
 20
1.0
 30
0.0
  9
$PUCSNAME
  2

  9
$PUCSORG
 10
0.0
 20
0.0
 30
0.0
  9
$PUCSXDIR
 10
1.0
 20
0.0
 30
0.0
  9
$PUCSYDIR
 10
0.0
 20
1.0
 30
0.0
  9
$USERI1
 70
     0
  9
$USERI2
 70
     0
  9
$USERI3
 70
     0
  9
$USERI4
 70
     0
  9
$USERI5
 70
     0
  9
$USERR1
 40
0.0
  9
$USERR2
 40
0.0
  9
$USERR3
 40
0.0
  9
$USERR4
 40
0.0
  9
$USERR5
 40
0.0
  9
$WORLDVIEW
 70
     1
  9
$SHADEDGE
 70
     3
  9
$SHADEDIF
 70
    70
  9
$TILEMODE
 70
     1
  9
$MAXACTVP
 70
    64
  9
$PLIMCHECK
 70
     0
  9
$PEXTMIN
 10
1.0000000000000000E+20
 20
1.0000000000000000E+20
 30
1.0000000000000000E+20
  9
$PEXTMAX
 10
-1.0000000000000000E+20
 20
-1.0000000000000000E+20
 30
-1.0000000000000000E+20
  9
$PLIMMIN
 10
0.0
 20
0.0
  9
$PLIMMAX
 10
12.0
 20
9.0
  9
$UNITMODE
 70
     0
  9
$VISRETAIN
 70
     1
  9
$PLINEGEN
 70
     0
  9
$PSLTSCALE
 70
     1
  0
ENDSEC
  0
SECTION
  2
TABLES
  0
TABLE
  2
VPORT
 70
     1
  0
VPORT
  2
*ACTIVE
 70
     0
 10
0.0
 20
0.0
 11
1.0
 21
1.0
 12
-20.9329855865717107
 22
1.1526272952587531
 13
0.0
 23
0.0
 14
1.0
 24
1.0
 15
0.0
 25
0.0
 16
0.0
 26
0.0
 36
14.6338572656650907
 17
429.6292891080536833
 27
69.7025415122186871
 37
0.0
 40
2.733007181957539
 41
2.6486111111111108
 42
50.0
 43
0.0
 44
0.0
 50
0.0
 51
0.0
 71
     0
 72
   100
 73
     1
 74
     1
 75
     0
 76
     0
 77
     0
 78
     0
  0
ENDTAB
  0
TABLE
  2
LTYPE
 70
     2
  0
LTYPE
  2
CONTINUOUS
 70
     0
  3
Solid line
 72
    65
 73
     0
 40
0.0
  0
LTYPE
  2
PHANTOM2
 70
     0
  3
___ _ _ ___ _ _ ___ _ _ ___ _ _
 72
    65
 73
     6
 40
1.25
 49
0.625
 49
-0.125
 49
0.125
 49
-0.125
 49
0.125
 49
-0.125
  0
ENDTAB
  0
TABLE
  2
LAYER
 70
     2
  0
LAYER
  2
0
 70
     0
 62
   255
  6
CONTINUOUS
  0
LAYER
  2
DEFPOINTS
 70
     0
 62
     7
  6
CONTINUOUS
  0
ENDTAB
  0
TABLE
  2
STYLE
 70
     1
  0
STYLE
  2
STANDARD
 70
     0
 40
0.0
 41
0.8
 50
0.0
 71
     0
 42
0.2
  3
txt
  4

  0
ENDTAB
  0
TABLE
  2
VIEW
 70
     0
  0
ENDTAB
  0
TABLE
  2
UCS
 70
     0
  0
ENDTAB
  0
TABLE
  2
APPID
 70
    10
  0
APPID
  2
ACAD
 70
     0
  0
APPID
  2
ACAD_MLEADERVER
 70
     0
  0
APPID
  2
ACAD_EXEMPT_FROM_CAD_STANDARDS
 70
     0
  0
APPID
  2
ACAD_DSTYLE_DIMJAG
 70
     0
  0
APPID
  2
ACAD_DSTYLE_DIMTALN
 70
     0
  0
APPID
  2
ACAD_NAV_VCDISPLAY
 70
     0
  0
APPID
  2
ACAECLAYERSTANDARD
 70
     0
  0
APPID
  2
ACCMTRANSPARENCY
 70
     0
  0
APPID
  2
DCO15
 70
     0
  0
APPID
  2
ACDBATTR
 70
     0
  0
ENDTAB
  0
TABLE
  2
DIMSTYLE
 70
     1
  0
DIMSTYLE
  2
STANDARD
 70
     0
  3

  4

  5

  6

  7

 40
1.0
 41
0.1875
 42
0.0625
 43
0.38
 44
0.125
 45
0.0
 46
0.0
 47
0.01
 48
0.01
140
0.15625
141
0.09
142
0.0
143
25.3999999999999986
144
1.0
145
0.0
146
1.0
147
0.09
 71
     1
 72
     0
 73
     1
 74
     1
 75
     0
 76
     0
 77
     0
 78
     4
170
     0
171
     2
172
     0
173
     0
174
     0
175
     0
176
     0
177
     0
178
     0
  0
ENDTAB
  0
ENDSEC
  0
SECTION
  2
BLOCKS
  0
BLOCK
  8
0
  2
$MODEL_SPACE
 70
     0
 10
0.0
 20
0.0
 30
0.0
  3
$MODEL_SPACE
  1

  0
ENDBLK
  5
21
  8
0
  0
BLOCK
 67
     1
  8
0
  2
$PAPER_SPACE
 70
     0
 10
0.0
 20
0.0
 30
0.0
  3
$PAPER_SPACE
  1

  0
ENDBLK
  5
1D
 67
     1
  8
0
  0
BLOCK
  8
0
  2
_FILLED
 70
     0
 10
0.0
 20
0.0
 30
0.0
  3
_FILLED
  1

  0
SOLID
  5
87E2
  8
0
  6
BYBLOCK
 62
     0
 10
0.0
 20
0.0
 30
0.0
 11
-1.0
 21
0.1666666667
 31
0.0
 12
-1.0
 22
-0.1666666667
 32
0.0
 13
-1.0
 23
-0.1666666667
 33
0.0
  0
ENDBLK
  5
87E3
  8
0
  6
BYBLOCK
 62
     0
  0
ENDSEC
  0
SECTION
  2
ENTITIES
  0
LINE
  5
D604
  8
0
 10
407.8483550028320224
 20
71.718770877331437
 30
0.0
 11
407.8483550028320224
 21
71.6899028903314388
 31
0.0
  0
LINE
  5
D606
  8
0
 10
409.2603415719378859
 20
71.2005711615314425
 30
0.0
 11
408.1303415720269072
 21
71.2005711615314425
 31
0.0
  0
LINE
  5
D608
  8
0
 10
408.0995846652267005
 20
71.3120882721314331
 30
0.0
 11
409.2910984788190945
 21
71.3120882721314331
 31
0.0
  0
LINE
  5
D60A
  8
0
 10
407.8736898932268105
 20
71.6602657197314414
 30
0.0
 11
409.5077189613127189
 21
71.6602657197314414
 31
0.0
  0
LINE
  5
D60B
  8
0
 10
409.5662520542776974
 20
71.7481463394314432
 30
0.0
 11
407.8244310900267919
 21
71.7481463394314432
 31
0.0
  0
LINE
  5
D60D
  8
0
 10
407.5053518537267792
 20
72.0105711615314306
 30
0.0
 11
409.8853415720125781
 21
72.0105711615314448
 31
0.0
  0
LINE
  5
D60E
  8
0
 10
409.9153826214641754
 20
72.2005711615314425
 30
0.0
 11
407.4753005225894071
 21
72.2005711615314425
 31
0.0
  0
ARC
  5
D60F
  8
0
 10
408.6953677585258902
 20
70.0526190805493343
 30
0.0
 40
0.5500479196412464
 50
155.3859425349751859
 51
269.9972722815130055
  0
ARC
  5
D610
  8
0
 10
408.1302368141538182
 20
71.260675498611036
 30
0.0
 40
0.05985672488889
 50
120.8032763976456039
 51
179.9710255034922
  0
ARC
  5
D613
  8
0
 10
408.068827758426778
 20
71.3636053827314356
 30
0.0
 40
0.06
 50
300.8381786609000983
 51
4.2020172048001028
  0
ARC
  5
D615
  8
0
 10
407.8783270378131078
 20
71.6898768737900554
 30
0.0
 40
0.0299720462725592
 50
179.9502657178479978
 51
261.0996947347035757
  0
ARC
  5
D616
  8
0
 10
407.8183250694825119
 20
71.7187437179363627
 30
0.0
 40
0.0300299456310758
 50
0.0518189058062325
 51
78.2681820244517041
  0
ARC
  5
D61A
  8
0
 10
407.5053706463515937
 20
72.040641353160737
 30
0.0
 40
0.0300702056849972
 50
180.1337432743453917
 51
269.9446017636112742
  0
ARC
  5
D61B
  8
0
 10
407.5398868621268207
 20
71.9805711615314436
 30
0.0
 40
0.03
 50
4.4498281521997578
 51
90.0
  0
ARC
  5
D61C
  8
0
 10
408.6953841596949815
 20
70.0550027685672774
 30
0.0
 40
0.5000843299492617
 50
180.0953329481114906
 51
269.9951206356474813
  0
ARC
  5
D61D
  8
0
 10
407.8339962730125876
 20
71.3539342358695023
 30
0.0
 40
0.3088924755699522
 50
43.4745344981650916
 51
82.616903140886393
  0
ARC
  5
D61E
  8
0
 10
407.7917687323312066
 20
71.3600587711001708
 30
0.0
 40
0.3369913628199245
 50
1.350607650872433
 51
37.7696715676472508
  0
ARC
  5
D61F
  8
0
 10
407.7898803756488064
 20
71.9924357119216722
 30
0.0
 40
0.220290481164957
 50
182.481263889035489
 51
232.1521673390026876
  0
ARC
  5
D620
  8
0
 10
407.8920296318369765
 20
72.1511615138882405
 30
0.0
 40
0.4086450706152374
 50
234.4981548940230027
 51
260.4782985903689223
  0
ATTDEF
  5
D6D4
  8
DEFPOINTS
 10
408.6959395794411876
 20
72.204987007427178
 30
0.0
 40
0.001
  1
K-72796T
  3

  2
MODELNUMBER
 70
     0
1001
ACDBATTR
1070
     0
1070
     1
  0
ATTDEF
  5
D6D5
  8
DEFPOINTS
 10
408.6959395794411876
 20
72.2033203407605129
 30
0.0
 40
0.001
  1
ARTIFACTS
  3

  2
TRADENAME
 70
     0
1001
ACDBATTR
1070
     0
1070
     1
  0
ATTDEF
  5
D6D6
  8
DEFPOINTS
 10
408.6959395794411876
 20
72.2016536740938477
 30
0.0
 40
0.001
  1
ELBOW
  3

  2
PRODUCT
 70
     0
1001
ACDBATTR
1070
     0
1070
     1
  0
LINE
  5
E4F9
  8
0
 10
408.1953005219813804
 20
70.0541706917217084
 30
0.0
 11
408.1953005219813804
 21
71.2005711615314425
 31
0.0
  0
LINE
  5
E53B
  8
0
 10
407.4753005225894071
 20
72.0405711615314317
 30
0.0
 11
407.4753005225894071
 21
72.2005711615314425
 31
0.0
  0
ARC
  5
E640
  8
0
 10
408.1303157035318918
 20
71.2605070918505419
 30
0.0
 40
0.0599359359015939
 50
179.8100749460971883
 51
270.0247289977322112
  0
LINE
  5
E80F
  8
0
 10
409.542328141221617
 20
71.718770877331437
 30
0.0
 11
409.542328141221617
 21
71.6899028903314388
 31
0.0
  0
ARC
  5
E816
  8
0
 10
408.6953153855276923
 20
70.0526190805493343
 30
0.0
 40
0.5500479196412464
 50
270.0027277184869945
 51
24.6140574650252795
  0
ARC
  5
E817
  8
0
 10
409.2604463298998212
 20
71.260675498611036
 30
0.0
 40
0.05985672488889
 50
0.0289744965077598
 51
59.1967236023558598
  0
ARC
  5
E818
  8
0
 10
409.260367440521577
 20
71.2605070918505419
 30
0.0
 40
0.0599359359015939
 50
269.9752710022684141
 51
0.1899250539027535
  0
ARC
  5
E819
  8
0
 10
409.3218553856268045
 20
71.3636053827314356
 30
0.0
 40
0.06
 50
175.7979827952001131
 51
239.1618213390999017
  0
ARC
  5
E81A
  8
0
 10
409.5123561062405884
 20
71.6898768737900554
 30
0.0
 40
0.0299720462725592
 50
278.9003052652985843
 51
0.0497342821519654
  0
ARC
  5
E81B
  8
0
 10
409.5723580745710137
 20
71.7187437179363627
 30
0.0
 40
0.0300299456310758
 50
101.7318179755498022
 51
179.9481810941936999
  0
ARC
  5
E81C
  8
0
 10
409.8853124977019888
 20
72.040641353160737
 30
0.0
 40
0.0300702056849972
 50
270.0553982363892942
 51
359.8662567256545799
  0
ARC
  5
E81D
  8
0
 10
409.8507962819268187
 20
71.9805711615314436
 30
0.0
 40
0.03
 50
90.0
 51
175.5501718478004989
  0
ARC
  5
E81E
  8
0
 10
408.6952989843584874
 20
70.0550027685672774
 30
0.0
 40
0.5000843299492617
 50
270.0048793643551903
 51
359.9046670518883957
  0
ARC
  5
E81F
  8
0
 10
409.5566868710409949
 20
71.3539342358695023
 30
0.0
 40
0.3088924755699522
 50
97.3830968591168329
 51
136.5254655018370045
  0
ARC
  5
E820
  8
0
 10
409.5989144117224896
 20
71.3600587711001708
 30
0.0
 40
0.3369913628199245
 50
142.230328432352195
 51
178.6493923491275098
  0
ARC
  5
E821
  8
0
 10
409.6008027684048898
 20
71.9924357119216722
 30
0.0
 40
0.220290481164957
 50
307.8478326609952092
 51
357.5187361109644826
  0
ARC
  5
E822
  8
0
 10
409.4986535122164923
 20
72.1511615138882405
 30
0.0
 40
0.4086450706152374
 50
279.5217014096286903
 51
305.5018451059754057
  0
LINE
  5
E826
  8
0
 10
409.9153826214641754
 20
72.0405711615314317
 30
0.0
 11
409.9153826214641754
 21
72.2005711615314425
 31
0.0
  0
LINE
  5
E827
  8
0
 10
409.1953826220722021
 20
70.0541706917217084
 30
0.0
 11
409.1953826220722021
 21
71.2005711615314425
 31
0.0
  0
ENDSEC
  0
EOF
