  0
SECTION
  2
HEADER
  9
$ACADVER
  1
AC1009
  9
$INSBASE
 10
408.6960054282744181
 20
82.8426911947206861
 30
0.0
  9
$EXTMIN
 10
407.9763706068468991
 20
67.5031134405317061
 30
-0.0015258207003583
  9
$EXTMAX
 10
409.4131705991022159
 20
98.1774939692783732
 30
0.0000000349246037
  9
$LIMMIN
 10
0.0
 20
0.0
  9
$LIMMAX
 10
11.6929133858000007
 20
8.2677165353999982
  9
$ORTHOMODE
 70
     1
  9
$REGENMODE
 70
     1
  9
$FILLMODE
 70
     1
  9
$QTEXTMODE
 70
     0
  9
$MIRRTEXT
 70
     0
  9
$DRAGMODE
 70
     2
  9
$LTSCALE
 40
0.6431102362
  9
$OSMODE
 70
  2047
  9
$ATTMODE
 70
     1
  9
$TEXTSIZE
 40
0.2
  9
$TRACEWID
 40
0.05
  9
$TEXTSTYLE
  7
STANDARD
  9
$CLAYER
  8
0
  9
$CELTYPE
  6
BYLAYER
  9
$CECOLOR
 62
   256
  9
$DIMSCALE
 40
1.0
  9
$DIMASZ
 40
0.1875
  9
$DIMEXO
 40
0.0625
  9
$DIMDLI
 40
0.4443307087
  9
$DIMRND
 40
0.0
  9
$DIMDLE
 40
0.0
  9
$DIMEXE
 40
0.125
  9
$DIMTP
 40
0.01
  9
$DIMTM
 40
0.01
  9
$DIMTXT
 40
1.0
  9
$DIMCEN
 40
0.1052362205
  9
$DIMTSZ
 40
0.0
  9
$DIMTOL
 70
     1
  9
$DIMLIM
 70
     0
  9
$DIMTIH
 70
     0
  9
$DIMTOH
 70
     1
  9
$DIMSE1
 70
     0
  9
$DIMSE2
 70
     0
  9
$DIMTAD
 70
     0
  9
$DIMZIN
 70
     0
  9
$DIMBLK
  1

  9
$DIMASO
 70
     1
  9
$DIMSHO
 70
     1
  9
$DIMPOST
  1
\X
  9
$DIMAPOST
  1

  9
$DIMALT
 70
     1
  9
$DIMALTD
 70
     2
  9
$DIMALTF
 40
25.3999999999999986
  9
$DIMLFAC
 40
1.0
  9
$DIMTOFL
 70
     0
  9
$DIMTVP
 40
0.0
  9
$DIMTIX
 70
     0
  9
$DIMSOXD
 70
     0
  9
$DIMSAH
 70
     0
  9
$DIMBLK1
  1

  9
$DIMBLK2
  1

  9
$DIMSTYLE
  2
STANDARD
  9
$DIMCLRD
 70
     0
  9
$DIMCLRE
 70
     0
  9
$DIMCLRT
 70
     0
  9
$DIMTFAC
 40
1.0
  9
$DIMGAP
 40
0.09
  9
$LUNITS
 70
     2
  9
$LUPREC
 70
     4
  9
$SKETCHINC
 40
0.1
  9
$FILLETRAD
 40
0.0
  9
$AUNITS
 70
     0
  9
$AUPREC
 70
     0
  9
$MENU
  1
.
  9
$ELEVATION
 40
0.0
  9
$PELEVATION
 40
0.0
  9
$THICKNESS
 40
0.0
  9
$LIMCHECK
 70
     0
  9
$BLIPMODE
 70
     0
  9
$CHAMFERA
 40
0.0
  9
$CHAMFERB
 40
0.0
  9
$SKPOLY
 70
     0
  9
$TDCREATE
 40
2458172.5207638889551163
  9
$TDUPDATE
 40
2459050.3821643521077931
  9
$TDINDWG
 40
0.2836893287
  9
$TDUSRTIMER
 40
0.2836893287
  9
$USRTIMER
 70
     1
  9
$ANGBASE
 50
0.0
  9
$ANGDIR
 70
     0
  9
$PDMODE
 70
     0
  9
$PDSIZE
 40
0.3125
  9
$PLINEWID
 40
0.0
  9
$COORDS
 70
     1
  9
$SPLFRAME
 70
     0
  9
$SPLINETYPE
 70
     6
  9
$SPLINESEGS
 70
     8
  9
$ATTDIA
 70
     1
  9
$ATTREQ
 70
     1
  9
$HANDLING
 70
     1
  9
$HANDSEED
  5
10AB3
  9
$SURFTAB1
 70
     6
  9
$SURFTAB2
 70
     6
  9
$SURFTYPE
 70
     6
  9
$SURFU
 70
     6
  9
$SURFV
 70
     6
  9
$UCSNAME
  2

  9
$UCSORG
 10
0.0
 20
0.0
 30
0.0
  9
$UCSXDIR
 10
1.0
 20
0.0
 30
0.0
  9
$UCSYDIR
 10
0.0
 20
1.0
 30
0.0
  9
$PUCSNAME
  2

  9
$PUCSORG
 10
0.0
 20
0.0
 30
0.0
  9
$PUCSXDIR
 10
1.0
 20
0.0
 30
0.0
  9
$PUCSYDIR
 10
0.0
 20
1.0
 30
0.0
  9
$USERI1
 70
     0
  9
$USERI2
 70
     0
  9
$USERI3
 70
     0
  9
$USERI4
 70
     0
  9
$USERI5
 70
     0
  9
$USERR1
 40
0.0
  9
$USERR2
 40
0.0
  9
$USERR3
 40
0.0
  9
$USERR4
 40
0.0
  9
$USERR5
 40
0.0
  9
$WORLDVIEW
 70
     1
  9
$SHADEDGE
 70
     3
  9
$SHADEDIF
 70
    70
  9
$TILEMODE
 70
     1
  9
$MAXACTVP
 70
    64
  9
$PLIMCHECK
 70
     0
  9
$PEXTMIN
 10
1.0000000000000000E+20
 20
1.0000000000000000E+20
 30
1.0000000000000000E+20
  9
$PEXTMAX
 10
-1.0000000000000000E+20
 20
-1.0000000000000000E+20
 30
-1.0000000000000000E+20
  9
$PLIMMIN
 10
0.0
 20
0.0
  9
$PLIMMAX
 10
12.0
 20
9.0
  9
$UNITMODE
 70
     0
  9
$VISRETAIN
 70
     1
  9
$PLINEGEN
 70
     0
  9
$PSLTSCALE
 70
     1
  0
ENDSEC
  0
SECTION
  2
TABLES
  0
TABLE
  2
VPORT
 70
     1
  0
VPORT
  2
*ACTIVE
 70
     0
 10
0.0
 20
0.0
 11
1.0
 21
1.0
 12
-20.9345185050791507
 22
13.1377621926863508
 13
0.0
 23
0.0
 14
1.0
 24
1.0
 15
0.0
 25
0.0
 16
0.0
 26
0.0
 36
14.6338572656650907
 17
429.6292891080536833
 27
69.7025415122186871
 37
0.0
 40
30.9296458313437306
 41
2.6486111111111108
 42
50.0
 43
0.0
 44
0.0
 50
0.0
 51
0.0
 71
     0
 72
   100
 73
     1
 74
     1
 75
     0
 76
     0
 77
     0
 78
     0
  0
ENDTAB
  0
TABLE
  2
LTYPE
 70
     2
  0
LTYPE
  2
CONTINUOUS
 70
     0
  3
Solid line
 72
    65
 73
     0
 40
0.0
  0
LTYPE
  2
PHANTOM2
 70
     0
  3
___ _ _ ___ _ _ ___ _ _ ___ _ _
 72
    65
 73
     6
 40
1.25
 49
0.625
 49
-0.125
 49
0.125
 49
-0.125
 49
0.125
 49
-0.125
  0
ENDTAB
  0
TABLE
  2
LAYER
 70
     2
  0
LAYER
  2
0
 70
     0
 62
   255
  6
CONTINUOUS
  0
LAYER
  2
DEFPOINTS
 70
     0
 62
     7
  6
CONTINUOUS
  0
ENDTAB
  0
TABLE
  2
STYLE
 70
     1
  0
STYLE
  2
STANDARD
 70
     0
 40
0.0
 41
0.8
 50
0.0
 71
     0
 42
0.2
  3
txt
  4

  0
ENDTAB
  0
TABLE
  2
VIEW
 70
     0
  0
ENDTAB
  0
TABLE
  2
UCS
 70
     0
  0
ENDTAB
  0
TABLE
  2
APPID
 70
    10
  0
APPID
  2
ACAD
 70
     0
  0
APPID
  2
ACAD_MLEADERVER
 70
     0
  0
APPID
  2
ACAD_EXEMPT_FROM_CAD_STANDARDS
 70
     0
  0
APPID
  2
ACAD_DSTYLE_DIMJAG
 70
     0
  0
APPID
  2
ACAD_DSTYLE_DIMTALN
 70
     0
  0
APPID
  2
ACAD_NAV_VCDISPLAY
 70
     0
  0
APPID
  2
ACAECLAYERSTANDARD
 70
     0
  0
APPID
  2
ACCMTRANSPARENCY
 70
     0
  0
APPID
  2
DCO15
 70
     0
  0
APPID
  2
ACDBATTR
 70
     0
  0
ENDTAB
  0
TABLE
  2
DIMSTYLE
 70
     1
  0
DIMSTYLE
  2
STANDARD
 70
     0
  3

  4

  5

  6

  7

 40
1.0
 41
0.1875
 42
0.0625
 43
0.38
 44
0.125
 45
0.0
 46
0.0
 47
0.01
 48
0.01
140
0.15625
141
0.09
142
0.0
143
25.3999999999999986
144
1.0
145
0.0
146
1.0
147
0.09
 71
     1
 72
     0
 73
     1
 74
     1
 75
     0
 76
     0
 77
     0
 78
     4
170
     0
171
     2
172
     0
173
     0
174
     0
175
     0
176
     0
177
     0
178
     0
  0
ENDTAB
  0
ENDSEC
  0
SECTION
  2
BLOCKS
  0
BLOCK
  8
0
  2
$MODEL_SPACE
 70
     0
 10
0.0
 20
0.0
 30
0.0
  3
$MODEL_SPACE
  1

  0
ENDBLK
  5
21
  8
0
  0
BLOCK
 67
     1
  8
0
  2
$PAPER_SPACE
 70
     0
 10
0.0
 20
0.0
 30
0.0
  3
$PAPER_SPACE
  1

  0
ENDBLK
  5
1D
 67
     1
  8
0
  0
BLOCK
  8
0
  2
_FILLED
 70
     0
 10
0.0
 20
0.0
 30
0.0
  3
_FILLED
  1

  0
SOLID
  5
10556
  8
0
  6
BYBLOCK
 62
     0
 10
0.0
 20
0.0
 30
0.0
 11
-1.0
 21
0.1666666667
 31
0.0
 12
-1.0
 22
-0.1666666667
 32
0.0
 13
-1.0
 23
-0.1666666667
 33
0.0
  0
ENDBLK
  5
10557
  8
0
  6
BYBLOCK
 62
     0
  0
ENDSEC
  0
SECTION
  2
ENTITIES
  0
ATTDEF
  5
100FA
  8
DEFPOINTS
 10
408.696134963331474
 20
82.8463830409063604
 30
0.0
 40
0.001
  1
K-72798T
  3

  2
MODELNUMBER
 70
     0
1001
ACDBATTR
1070
     0
1070
     1
  0
ATTDEF
  5
100FB
  8
DEFPOINTS
 10
408.696134963331474
 20
82.8447163742396953
 30
0.0
 40
0.001
  1
ARTIFACTS
  3

  2
TRADENAME
 70
     0
1001
ACDBATTR
1070
     0
1070
     1
  0
ATTDEF
  5
100FC
  8
DEFPOINTS
 10
408.696134963331474
 20
82.8430497075730159
 30
0.0
 40
0.001
  1
SLIDE BAR
  3

  2
PRODUCT
 70
     0
1001
ACDBATTR
1070
     0
1070
     1
  0
LINE
  5
105DE
  8
0
 10
408.444556994374409
 20
67.5086911947206971
 30
0.0
 11
408.9474538621744273
 21
67.5086911947206971
 31
0.0
  0
LINE
  5
105DF
  8
0
 10
408.3050485983500835
 20
67.6122217883206957
 30
0.0
 11
409.0910485983500848
 21
67.6122217883206957
 31
0.0
  0
LINE
  5
105E0
  8
0
 10
408.227005428274424
 20
67.7226911947206958
 30
0.0
 11
409.1650054282744122
 21
67.7226911947206958
 31
0.0
  0
LINE
  5
105E1
  8
0
 10
408.2270053885912944
 20
67.8426911947207003
 30
0.0
 11
409.1650054282744122
 21
67.8426911947207003
 31
0.0
  0
LINE
  5
105E2
  8
0
 10
408.2296899279745048
 20
86.7267245647206835
 30
0.0
 11
409.1623209285743883
 21
86.7267245647206835
 31
0.0
  0
LINE
  5
105E3
  8
0
 10
409.2310812337544803
 20
87.8467245647207164
 30
0.0
 11
408.1609296227921959
 21
87.8467245647207164
 31
0.0
  0
LINE
  5
105E4
  8
0
 10
408.0772554280929967
 20
88.078075805220692
 30
0.0
 11
409.3147554283841032
 21
88.078075805220692
 31
0.0
  0
LINE
  5
105E5
  8
0
 10
409.2660002137712922
 20
88.2317245647206931
 30
0.0
 11
408.1260106427822052
 21
88.2317245647206931
 31
0.0
  0
LINE
  5
105E6
  8
0
 10
409.1650054282744122
 20
97.8426911947207145
 30
0.0
 11
408.227005428274424
 21
97.8426911947207145
 31
0.0
  0
LINE
  5
105E7
  8
0
 10
409.1650054282744122
 20
97.9626911947207049
 30
0.0
 11
408.227005428274424
 21
97.9626911947207049
 31
0.0
  0
LINE
  5
105E8
  8
0
 10
409.0910485983501985
 20
98.0731606011207049
 30
0.0
 11
408.300962258074378
 21
98.0731606011207049
 31
0.0
  0
LINE
  5
105E9
  8
0
 10
408.9474538621744273
 20
98.1766911947207035
 30
0.0
 11
408.444556994374409
 21
98.1766911947207035
 31
0.0
  0
LINE
  5
105EA
  8
0
 10
408.0725196649898976
 20
87.9875836661206847
 30
0.0
 11
409.3194911914254135
 21
87.9875836661206847
 31
0.0
  0
LINE
  5
105EB
  8
0
 10
409.1684554282743989
 20
67.8425919251002227
 30
0.0
 11
409.1684554282743989
 21
86.3417245647207068
 31
0.0
  0
LINE
  5
105EC
  8
0
 10
409.1684554282743989
 20
88.2317245647206931
 30
0.0
 11
409.1684554282743989
 21
97.8427904643411779
 31
0.0
  0
LINE
  5
105ED
  8
0
 10
409.11900542827442
 20
67.6926911947206946
 30
0.0
 11
409.11900542827442
 21
67.6421521317207066
 31
0.0
  0
LINE
  5
105EE
  8
0
 10
409.11900542827442
 20
97.9926911947207202
 30
0.0
 11
409.11900542827442
 21
98.043230257720694
 31
0.0
  0
LINE
  5
105EF
  8
0
 10
409.2659996986744204
 20
86.3417245647207068
 30
0.0
 11
408.9938913925917063
 21
86.3417245647207068
 31
0.0
  0
ARC
  5
105F0
  8
0
 10
409.1650054679574851
 20
67.782691194720698
 30
0.0
 40
0.0600000000000154
 50
269.9999621054860768
 51
90.0000378945138664
  0
ARC
  5
105F1
  8
0
 10
409.1490054282743927
 20
67.6926911947206946
 30
0.0
 40
0.03
 50
90.0
 51
180.0
  0
ARC
  5
105F2
  8
0
 10
409.0890054282743904
 20
67.6421521317207066
 30
0.0
 40
0.03
 50
273.9051906323011849
 51
0.0
  0
ARC
  5
105F3
  8
0
 10
408.9474538621744273
 20
67.5386911947206983
 30
0.0
 40
0.03
 50
270.0
 51
346.6507122848998961
  0
ARC
  5
105F4
  8
0
 10
409.1623209285743883
 20
86.7467245647207079
 30
0.0
 40
0.02
 50
270.0
 51
338.9500058978999277
  0
ARC
  5
105F5
  8
0
 10
409.1650054679574851
 20
97.9026911947207168
 30
0.0
 40
0.0600000000000119
 50
269.9999621054828935
 51
90.0000378945171349
  0
ARC
  5
105F6
  8
0
 10
409.1490054282743927
 20
97.9926911947207202
 30
0.0
 40
0.03
 50
180.0
 51
270.0
  0
ARC
  5
105F7
  8
0
 10
409.0890054282743904
 20
98.043230257720694
 30
0.0
 40
0.03
 50
0.0
 51
86.0948093676987014
  0
ARC
  5
105F8
  8
0
 10
408.9474538621744273
 20
98.1466911947207166
 30
0.0
 40
0.03
 50
13.3492877151000897
 51
90.0
  0
ARC
  5
105F9
  8
0
 10
407.2227941250744152
 20
87.4931815289207151
 30
0.0
 40
2.0982113032000238
 50
338.9500058978999277
 51
0.0
  0
ARC
  5
105FA
  8
0
 10
407.2227941250741878
 20
87.4931815289206867
 30
0.0
 40
2.0982113032001748
 50
0.0
 51
8.0362474780999413
  0
ARC
  5
105FB
  8
0
 10
409.0831154833280152
 20
98.1887708075868062
 30
0.0
 40
0.1133221475855182
 50
207.0984669615438918
 51
259.7723793806247841
  0
LINE
  5
105FC
  8
0
 10
409.0910485984744014
 20
98.0731606011207049
 30
0.0
 11
409.0629940966744016
 21
98.0772493346207028
 31
0.0
  0
LINE
  5
105FD
  8
0
 10
408.9766432806745229
 20
98.1536177991206955
 30
0.0
 11
408.9822332752743819
 21
98.1371501796207468
 31
0.0
  0
ARC
  5
105FE
  8
0
 10
409.0987751460771733
 20
67.4642285679848612
 30
0.0
 40
0.1481947799561819
 50
92.9886300692382832
 51
128.7420032131371102
  0
ARC
  5
105FF
  8
0
 10
409.0716638906916955
 20
67.5066615160834971
 30
0.0
 40
0.0982806220330646
 50
131.8970277706038985
 51
165.2013830791179885
  0
LINE
  5
10600
  8
0
 10
409.3194911914358158
 20
86.5868654633151635
 30
0.0
 11
408.950357215345889
 21
86.5868654633167836
 31
0.0
  0
LINE
  5
10601
  8
0
 10
408.9617421558274941
 20
86.4963733241682462
 30
0.0
 11
409.3147554282745091
 21
86.4963733241473136
 31
0.0
  0
ARC
  5
10602
  8
0
 10
410.5045948736678838
 20
86.7364439935945768
 30
0.0
 40
1.5614187251555269
 50
180.3566537541356922
 51
191.7584963730072047
  0
ARC
  5
10603
  8
0
 10
408.7064268649280052
 20
86.29327133490807
 30
0.0
 40
0.2862361027902327
 50
267.9134835611928906
 51
9.7457933155832368
  0
ARC
  5
10604
  8
0
 10
408.2464460586523955
 20
86.258928513961294
 30
0.0
 40
0.7466906660754161
 50
6.366277019017768
 51
12.3197091326217905
  0
LINE
  5
10605
  8
0
 10
409.0506624322464972
 20
87.8270736094776652
 30
0.0
 11
409.0318109518661913
 21
86.7470736096553452
 31
0.0
  0
ARC
  5
10606
  8
0
 10
409.0706593861406191
 20
87.8267245611954905
 30
0.0
 40
0.0199999999936707
 50
89.9999994525008447
 51
178.9999995601154126
  0
ARC
  5
10607
  8
0
 10
409.0518798239473881
 20
86.7467507493861945
 30
0.0
 40
0.02007146890197
 50
179.0783336828808956
 51
266.1505094023187894
  0
CIRCLE
  5
10608
  8
0
 10
408.6960054282744181
 20
87.2867245647207
 30
0.0
 40
0.1803490102000029
  0
CIRCLE
  5
10609
  8
0
 10
408.6960054283243835
 20
87.2867245647706937
 30
0.0
 40
0.1314999999500017
  0
LINE
  5
1060A
  8
0
 10
408.6300940657081924
 20
87.3328369374625169
 30
0.0
 11
408.649893055582595
 21
87.3526359273369337
 31
0.0
  0
LINE
  5
1060B
  8
0
 10
408.649893055582595
 20
87.3526359273369337
 30
0.0
 11
408.6960054283168802
 21
87.3065235546131788
 31
0.0
  0
LINE
  5
1060C
  8
0
 10
408.6960054283168802
 20
87.3065235546131788
 30
0.0
 11
408.7619167909529097
 21
87.2406121919921844
 31
0.0
  0
LINE
  5
1060D
  8
0
 10
408.7619167909529097
 20
87.2406121919921844
 30
0.0
 11
408.7421178010662857
 21
87.220813202104452
 31
0.0
  0
LINE
  5
1060E
  8
0
 10
408.7421178010662857
 20
87.220813202104452
 30
0.0
 11
408.6762064384296878
 21
87.2867245647259722
 31
0.0
  0
LINE
  5
1060F
  8
0
 10
408.6762064384296878
 20
87.286724564725958
 30
0.0
 11
408.6300940657243927
 21
87.3328369374206943
 31
0.0
  0
LINE
  5
10610
  8
0
 10
408.6300940657081924
 20
87.2406121919788831
 30
0.0
 11
408.6762064384320183
 21
87.2867245647131824
 31
0.0
  0
LINE
  5
10611
  8
0
 10
408.6762064384320183
 20
87.2867245647131824
 30
0.0
 11
408.7421178010243921
 21
87.3526359273207049
 31
0.0
  0
LINE
  5
10612
  8
0
 10
408.7421178010243921
 20
87.3526359273207049
 30
0.0
 11
408.7619167909406883
 21
87.3328369374625169
 31
0.0
  0
LINE
  5
10613
  8
0
 10
408.7619167909406883
 20
87.3328369374625169
 30
0.0
 11
408.7158044182116896
 21
87.2867245647334897
 31
0.0
  0
LINE
  5
10614
  8
0
 10
408.7158044182116896
 20
87.2867245647334897
 30
0.0
 11
408.649893055582595
 21
87.220813202104452
 31
0.0
  0
LINE
  5
10615
  8
0
 10
408.649893055582595
 20
87.220813202104452
 30
0.0
 11
408.6300940657059186
 21
87.2406121919766235
 31
0.0
  0
LINE
  5
10616
  8
0
 10
408.6861059333307935
 20
87.2966240596143024
 30
0.0
 11
408.7059049232244092
 21
87.2768250697207151
 31
0.0
  0
LINE
  5
10617
  8
0
 10
408.6861059333743924
 20
87.2768250697706947
 30
0.0
 11
408.7059049232244092
 21
87.2966240596206973
 31
0.0
  0
LINE
  5
10618
  8
0
 10
409.2960054282744977
 20
88.2017245647207062
 30
0.0
 11
409.2960054282744977
 21
88.1058865496207062
 31
0.0
  0
LINE
  5
10619
  8
0
 10
409.2960054282744977
 20
86.4685625798206985
 30
0.0
 11
409.2960054282744977
 21
86.3717245647206937
 31
0.0
  0
ARC
  5
1061A
  8
0
 10
409.2960054282744977
 20
86.542724564720686
 30
0.0
 40
0.05
 50
292.0243128370985914
 51
61.9841847559010475
  0
ARC
  5
1061B
  8
0
 10
409.2960054282744977
 20
88.0317245647207045
 30
0.0
 40
0.05
 50
298.0158152443009953
 51
67.9756871627997867
  0
ARC
  5
1061C
  8
0
 10
409.3335826493744776
 20
86.6133500025207042
 30
0.0
 40
0.03
 50
163.5473660231000963
 51
241.984184755798708
  0
ARC
  5
1061D
  8
0
 10
409.3260054282744136
 20
86.4685625798206985
 30
0.0
 40
0.03
 50
112.0243128369999965
 51
180.0
  0
ARC
  5
1061E
  8
0
 10
409.2660054273407013
 20
86.3717245651074563
 30
0.0
 40
0.0300000009337209
 50
269.9890590536020909
 51
359.9999992613443283
  0
ARC
  5
1061F
  8
0
 10
409.3335826492547085
 20
87.9610991270298967
 30
0.0
 40
0.0299999998473827
 50
118.0158151400559063
 51
196.4520439753189009
  0
ARC
  5
10620
  8
0
 10
409.3260054282744136
 20
88.1058865496207062
 30
0.0
 40
0.03
 50
180.0
 51
247.9756871632000923
  0
ARC
  5
10621
  8
0
 10
409.2660054275009998
 20
88.2017245644003509
 30
0.0
 40
0.0300000007733984
 50
0.0000006118267652
 51
90.0099574841229639
  0
ARC
  5
10622
  8
0
 10
407.0525890252184809
 20
87.2872245649037239
 30
0.0
 40
2.3484530350810542
 50
343.5411864632654897
 51
16.4588210684481986
  0
ARC
  5
10623
  8
0
 10
409.2310880365607773
 20
87.7767245644273544
 30
0.0
 40
0.070000000623899
 50
8.0362476442565143
 51
90.0055681563337089
  0
LINE
  5
10624
  8
0
 10
408.2235554282743806
 20
67.8425919251002227
 30
0.0
 11
408.2235554282743806
 21
86.3417245647207068
 31
0.0
  0
LINE
  5
10625
  8
0
 10
408.2235554282743806
 20
88.2317245647206931
 30
0.0
 11
408.2235554282743806
 21
97.8427904643411779
 31
0.0
  0
LINE
  5
10626
  8
0
 10
408.2730054282744732
 20
67.6926911947206946
 30
0.0
 11
408.2730054282744732
 21
67.6421521317207066
 31
0.0
  0
LINE
  5
10627
  8
0
 10
408.2730054282744732
 20
97.9926911947207202
 30
0.0
 11
408.2730054282744732
 21
98.043230257720694
 31
0.0
  0
LINE
  5
10628
  8
0
 10
408.1260111578744159
 20
86.3417245647207068
 30
0.0
 11
408.3981194639571868
 21
86.3417245647207068
 31
0.0
  0
ARC
  5
10629
  8
0
 10
408.2270053885912944
 20
67.7826911947206838
 30
0.0
 40
0.0600000000000076
 50
89.9999999999902229
 51
270.0000378945237003
  0
ARC
  5
1062A
  8
0
 10
408.2430054282743868
 20
67.6926911947206946
 30
0.0
 40
0.03
 50
0.0
 51
90.0
  0
ARC
  5
1062B
  8
0
 10
408.3030054282745027
 20
67.6421521317207066
 30
0.0
 40
0.03
 50
180.0
 51
266.0948093676987014
  0
ARC
  5
1062C
  8
0
 10
408.444556994374409
 20
67.5386911947206983
 30
0.0
 40
0.03
 50
193.3492877150999902
 51
270.0
  0
ARC
  5
1062D
  8
0
 10
408.2296899279745048
 20
86.7467245647207079
 30
0.0
 40
0.02
 50
201.0499941021001007
 51
270.0
  0
ARC
  5
1062E
  8
0
 10
408.2270053885912944
 20
97.9026911947207168
 30
0.0
 40
0.0600000000000119
 50
89.9999621054828651
 51
270.0000378945171065
  0
ARC
  5
1062F
  8
0
 10
408.2430054282743868
 20
97.9926911947207202
 30
0.0
 40
0.03
 50
270.0
 51
0.0
  0
ARC
  5
10630
  8
0
 10
408.3030054282745027
 20
98.043230257720694
 30
0.0
 40
0.03
 50
93.9051906323012844
 51
180.0
  0
ARC
  5
10631
  8
0
 10
408.444556994374409
 20
98.1466911947207166
 30
0.0
 40
0.03
 50
90.0
 51
166.6507122848998961
  0
ARC
  5
10632
  8
0
 10
410.1692167314744779
 20
87.4931815289207151
 30
0.0
 40
2.0982113032000238
 50
180.0
 51
201.0499941021001007
  0
ARC
  5
10633
  8
0
 10
410.1692167314745916
 20
87.4931815289206867
 30
0.0
 40
2.0982113032001748
 50
171.9637525219000054
 51
180.0
  0
ARC
  5
10634
  8
0
 10
408.3088953732207074
 20
98.1887708075868062
 30
0.0
 40
0.1133221475855182
 50
280.2276206193752159
 51
332.9015330384560798
  0
LINE
  5
10635
  8
0
 10
408.300962258074378
 20
98.0731606011207049
 30
0.0
 11
408.3290167598744915
 21
98.0772493346207028
 31
0.0
  0
LINE
  5
10636
  8
0
 10
408.4153675758744271
 20
98.1536177991206955
 30
0.0
 11
408.4097775812745112
 21
98.1371501796207468
 31
0.0
  0
ARC
  5
10637
  8
0
 10
408.2932357104716061
 20
67.4642285679848612
 30
0.0
 40
0.1481947799561819
 50
51.2579967868629183
 51
87.0113699307617026
  0
ARC
  5
10638
  8
0
 10
408.3203469658571976
 20
67.5066615160834971
 30
0.0
 40
0.0982806220330646
 50
14.7986169208820009
 51
48.1029722293961015
  0
LINE
  5
10639
  8
0
 10
408.0725196651130773
 20
86.5868654633151635
 30
0.0
 11
408.4416536412030041
 21
86.5868654633167836
 31
0.0
  0
LINE
  5
1063A
  8
0
 10
408.430268700721399
 20
86.4963733241682462
 30
0.0
 11
408.077255428274384
 21
86.4963733241473136
 31
0.0
  0
ARC
  5
1063B
  8
0
 10
406.8874159828808956
 20
86.7364439935945768
 30
0.0
 40
1.5614187251555269
 50
348.2415036269928237
 51
359.6433462458642794
  0
ARC
  5
1063C
  8
0
 10
408.6855839916208879
 20
86.29327133490807
 30
0.0
 40
0.2862361027902327
 50
170.2542066844166868
 51
272.0865164388071094
  0
ARC
  5
1063D
  8
0
 10
409.1455647978964976
 20
86.258928513961294
 30
0.0
 40
0.7466906660754161
 50
167.6802908673782042
 51
173.6337229809822134
  0
LINE
  5
1063E
  8
0
 10
408.3413484243023959
 20
87.8270736094776652
 30
0.0
 11
408.3601999046827018
 21
86.7470736096553452
 31
0.0
  0
ARC
  5
1063F
  8
0
 10
408.3213514704082741
 20
87.8267245611954905
 30
0.0
 40
0.0199999999936707
 50
1.0000004398846021
 51
90.0000005474991553
  0
ARC
  5
10640
  8
0
 10
408.3401310326013913
 20
86.7467507493861945
 30
0.0
 40
0.02007146890197
 50
273.8494905976810969
 51
0.9216663171191148
  0
CIRCLE
  5
10641
  8
0
 10
408.6960054282744181
 20
87.2867245647207
 30
0.0
 40
0.1803490102000029
  0
CIRCLE
  5
10642
  8
0
 10
408.6960054282243959
 20
87.2867245647706937
 30
0.0
 40
0.1314999999500017
  0
LINE
  5
10643
  8
0
 10
408.7619167908407007
 20
87.3328369374625169
 30
0.0
 11
408.7421178009661844
 21
87.3526359273369337
 31
0.0
  0
LINE
  5
10644
  8
0
 10
408.7421178009661844
 20
87.3526359273369337
 30
0.0
 11
408.6960054282320129
 21
87.3065235546131788
 31
0.0
  0
LINE
  5
10645
  8
0
 10
408.6960054282320129
 20
87.3065235546131788
 30
0.0
 11
408.6300940655959266
 21
87.2406121919921844
 31
0.0
  0
LINE
  5
10646
  8
0
 10
408.6300940655959266
 20
87.2406121919921844
 30
0.0
 11
408.6498930554826075
 21
87.220813202104452
 31
0.0
  0
LINE
  5
10647
  8
0
 10
408.6498930554826075
 20
87.220813202104452
 30
0.0
 11
408.7158044181192054
 21
87.2867245647259722
 31
0.0
  0
LINE
  5
10648
  8
0
 10
408.7158044181192054
 20
87.286724564725958
 30
0.0
 11
408.7619167908243867
 21
87.3328369374206943
 31
0.0
  0
LINE
  5
10649
  8
0
 10
408.7619167908407007
 20
87.2406121919788831
 30
0.0
 11
408.7158044181168748
 21
87.2867245647131824
 31
0.0
  0
LINE
  5
1064A
  8
0
 10
408.7158044181168748
 20
87.2867245647131824
 30
0.0
 11
408.6498930555245011
 21
87.3526359273207049
 31
0.0
  0
LINE
  5
1064B
  8
0
 10
408.6498930555245011
 20
87.3526359273207049
 30
0.0
 11
408.6300940656082048
 21
87.3328369374625169
 31
0.0
  0
LINE
  5
1064C
  8
0
 10
408.6300940656082048
 20
87.3328369374625169
 30
0.0
 11
408.6762064383372035
 21
87.2867245647334897
 31
0.0
  0
LINE
  5
1064D
  8
0
 10
408.6762064383372035
 20
87.2867245647334897
 30
0.0
 11
408.7421178009661844
 21
87.220813202104452
 31
0.0
  0
LINE
  5
1064E
  8
0
 10
408.7421178009661844
 20
87.220813202104452
 30
0.0
 11
408.7619167908429176
 21
87.2406121919766235
 31
0.0
  0
LINE
  5
1064F
  8
0
 10
408.7059049232179859
 20
87.2966240596143024
 30
0.0
 11
408.686105933324427
 21
87.2768250697207151
 31
0.0
  0
LINE
  5
10650
  8
0
 10
408.705904923174387
 20
87.2768250697706947
 30
0.0
 11
408.686105933324427
 21
87.2966240596206973
 31
0.0
  0
LINE
  5
10651
  8
0
 10
408.0960054282743954
 20
88.2017245647207062
 30
0.0
 11
408.0960054282743954
 21
88.1058865496207062
 31
0.0
  0
LINE
  5
10652
  8
0
 10
408.0960054282743954
 20
86.4685625798206985
 30
0.0
 11
408.0960054282743954
 21
86.3717245647206937
 31
0.0
  0
ARC
  5
10653
  8
0
 10
408.0960054282743954
 20
86.542724564720686
 30
0.0
 40
0.05
 50
118.0158152440989028
 51
247.9756871629012949
  0
ARC
  5
10654
  8
0
 10
408.0960054282743954
 20
88.0317245647207045
 30
0.0
 40
0.05
 50
112.0243128372001991
 51
241.984184755698891
  0
ARC
  5
10655
  8
0
 10
408.0584282071744155
 20
86.6133500025207042
 30
0.0
 40
0.03
 50
298.0158152441982793
 51
16.4526339768999215
  0
ARC
  5
10656
  8
0
 10
408.0660054282744227
 20
86.4685625798206985
 30
0.0
 40
0.03
 50
0.0
 51
67.975687162999975
  0
ARC
  5
10657
  8
0
 10
408.1260054292081918
 20
86.3717245651074563
 30
0.0
 40
0.0300000009337209
 50
180.0000007386555865
 51
270.0109409463977954
  0
ARC
  5
10658
  8
0
 10
408.0584282072941278
 20
87.9610991270298967
 30
0.0
 40
0.0299999998473827
 50
343.5479560246811275
 51
61.9841848599441079
  0
ARC
  5
10659
  8
0
 10
408.0660054282744227
 20
88.1058865496207062
 30
0.0
 40
0.03
 50
292.0243128367998793
 51
0.0
  0
ARC
  5
1065A
  8
0
 10
408.1260054290478934
 20
88.2017245644003509
 30
0.0
 40
0.0300000007733984
 50
89.9900425158770219
 51
179.9999993881731939
  0
ARC
  5
1065B
  8
0
 10
410.3394218313302986
 20
87.2872245649037239
 30
0.0
 40
2.3484530350810542
 50
163.5411789315517979
 51
196.4588135367343966
  0
ARC
  5
1065C
  8
0
 10
408.1609228199881159
 20
87.7767245644273544
 30
0.0
 40
0.070000000623899
 50
89.9944318436662769
 51
171.9637523557435088
  0
ENDSEC
  0
EOF
